999
DXF file: C:\Users\sesa63760\Dev\_Creo\CAD\MCADID0001248_3D-CAD\drw0001_6.dxf
999
Pro/ENGINEER 2019471 by Parametric Technology Corporation
  0
SECTION
  2
HEADER
  9
$ACADVER
  1
AC1024
  9
$DWGCODEPAGE
  3
ANSI_1252
  9
$EXTMAX
 10
293.8946356342
 20
415.6509846827
 30
0.0
  9
$EXTMIN
 10
0.0
 20
0.0
 30
0.0
  9
$LIMMIN
 10
0.0
 20
0.0
  9
$LIMMAX
 10
293.8946356342
 20
415.6509846827
  9
$VIEWCTR
 10
146.9473178171
 20
207.8254923414
  9
$VIEWSIZE
 40
415.6509846827
  9
$CLAYER
  8
0
  9
$LTSCALE
 40
27.0942864089
  9
$CELTYPE
  6
BYLAYER
  9
$DIMSCALE
 40
1.0
  9
$DIMASZ
 40
3.4987456623
  9
$DIMEXO
 40
1.0
  9
$DIMDLI
 40
18.7196887916
  9
$DIMEXE
 40
1.0
  9
$DIMCEN
 40
4.4336105033
  9
$DIMLFAC
 40
1.0
  9
$DIMBLK
  1
_FILLED
  9
$DIMALT
 70
0
  9
$DIMALTF
 40
0.0393700787
  9
$DIMTXT
 40
4.8982439272
  9
$DIMTOL
 70
1
  9
$DIMLIM
 70
0
  9
$DIMTFAC
 40
1.0
  9
$DIMTP
 40
0.01
  9
$DIMTM
 40
0.01
  9
$DIMGAP
 40
0.625
  9
$DIMDSEP
 70
46
  9
$AUNITS
 70
0
  9
$PDMODE
 70
3
  9
$PDSIZE
 40
0.3125
  9
$HANDSEED
  5
2E6
  9
$TILEMODE
 70
1
  9
$MEASUREMENT
 70
1
  9
$INSUNITS
 70
4
  0
ENDSEC
  0
SECTION
  2
CLASSES
  0
CLASS
  1
ACDBDICTIONARYWDFLT
  2
AcDbDictionaryWithDefault
  3
AutoCAD 2000
 90
0
 91
1
280
0
281
0
  0
CLASS
  1
ACDBPLACEHOLDER
  2
AcDbPlaceHolder
  3
AutoCAD 2000
 90
0
 91
1
280
0
281
0
  0
CLASS
  1
LAYOUT
  2
AcDbLayout
  3
AutoCAD 2000
 90
0
 91
0
280
0
281
0
  0
ENDSEC
  0
SECTION
  2
TABLES
  0
TABLE
  2
VPORT
  5
8
100
AcDbSymbolTable
 70
2
  0
VPORT
  5
1F4
100
AcDbSymbolTableRecord
100
AcDbViewportTableRecord
  2
*ACTIVE
 70
0
 10
0.0
 20
0.0
 11
1.0
 21
1.0
 12
146.9473178171
 22
207.8254923414
 13
0.0
 23
0.0
 14
1.0
 24
1.0
 15
0.0
 25
0.0
 16
0.0
 26
0.0
 36
1.0
 17
0.0
 27
0.0
 37
0.0
 40
415.6509846827
 41
0.7070707071
 42
50.0
 43
0.0
 44
0.0
 50
0.0
 51
0.0
 71
0
 72
100
 73
1
 74
1
 75
0
 76
0
 77
0
 78
0
  0
ENDTAB
  0
TABLE
  2
LTYPE
  5
5
100
AcDbSymbolTable
 70
6
  0
LTYPE
  5
14
100
AcDbSymbolTableRecord
100
AcDbLinetypeTableRecord
  2
BYBLOCK
 70
0
  3

 72
65
 73
0
 40
0.0
  0
LTYPE
  5
15
100
AcDbSymbolTableRecord
100
AcDbLinetypeTableRecord
  2
BYLAYER
 70
0
  3

 72
65
 73
0
 40
0.0
  0
LTYPE
  5
16
100
AcDbSymbolTableRecord
100
AcDbLinetypeTableRecord
  2
CONTINUOUS
 70
64
  3
Solid line
 72
65
 73
0
 40
0.0
  0
LTYPE
  5
1F5
100
AcDbSymbolTableRecord
100
AcDbLinetypeTableRecord
  2
CENTER
 70
64
  3
____ _ ____ _ ____ _ ____ _ ____ _ ____ _ ____
 72
65
 73
4
 40
0.6
 49
0.375
 74
0
 49
-0.075
 74
0
 49
0.075
 74
0
 49
-0.075
 74
0
  0
LTYPE
  5
1F6
100
AcDbSymbolTableRecord
100
AcDbLinetypeTableRecord
  2
HIDDEN
 70
64
  3
- - - - - - - - - - - - - - - - - - - -
 72
65
 73
2
 40
0.2
 49
0.1
 74
0
 49
-0.1
 74
0
  0
LTYPE
  5
1F7
100
AcDbSymbolTableRecord
100
AcDbLinetypeTableRecord
  2
PHANTOM
 70
64
  3
_____ _ _ _____ _ _ _____ _ _ _____
 72
65
 73
6
 40
0.8
 49
0.45
 74
0
 49
-0.05
 74
0
 49
0.1
 74
0
 49
-0.05
 74
0
 49
0.1
 74
0
 49
-0.05
 74
0
  0
LTYPE
  5
1F8
100
AcDbSymbolTableRecord
100
AcDbLinetypeTableRecord
  2
DOT
 70
64
  3
. . . . . . . . . . . . . . . . . . . .
 72
65
 73
2
 40
0.2
 49
0.1
 74
0
 49
-0.1
 74
0
  0
LTYPE
  5
1F9
100
AcDbSymbolTableRecord
100
AcDbLinetypeTableRecord
  2
DASHED
 70
64
  3
- - - - - - - - - - - - - - - - - - - -
 72
65
 73
2
 40
0.2
 49
0.1
 74
0
 49
-0.1
 74
0
  0
ENDTAB
  0
TABLE
  2
LAYER
  5
2
100
AcDbSymbolTable
 70
36
  0
LAYER
  5
10
100
AcDbSymbolTableRecord
100
AcDbLayerTableRecord
  2
0
 70
0
 62
7
  6
CONTINUOUS
370
-3
390
F
  0
LAYER
  5
1FA
100
AcDbSymbolTableRecord
100
AcDbLayerTableRecord
  2
DEFAULT_1
 70
0
 62
7
  6
CENTER
370
-3
390
F
  0
LAYER
  5
1FB
100
AcDbSymbolTableRecord
100
AcDbLayerTableRecord
  2
DEFAULT_2
 70
0
 62
8
  6
HIDDEN
370
-3
390
F
  0
LAYER
  5
1FC
100
AcDbSymbolTableRecord
100
AcDbLayerTableRecord
  2
DEFAULT_3
 70
0
 62
7
  6
PHANTOM
370
-3
390
F
  0
LAYER
  5
1FD
100
AcDbSymbolTableRecord
100
AcDbLayerTableRecord
  2
00_COMPONENTS
 70
0
 62
7
  6
CONTINUOUS
370
-3
390
F
  0
LAYER
  5
1FE
100
AcDbSymbolTableRecord
100
AcDbLayerTableRecord
  2
01_1_DEFAULT_DATUMS
 70
0
 62
7
  6
CONTINUOUS
370
-3
390
F
  0
LAYER
  5
1FF
100
AcDbSymbolTableRecord
100
AcDbLayerTableRecord
  2
01_PLANES
 70
0
 62
7
  6
CONTINUOUS
370
-3
390
F
  0
LAYER
  5
200
100
AcDbSymbolTableRecord
100
AcDbLayerTableRecord
  2
02_COORD_SYS
 70
0
 62
7
  6
CONTINUOUS
370
-3
390
F
  0
LAYER
  5
201
100
AcDbSymbolTableRecord
100
AcDbLayerTableRecord
  2
03_AXES
 70
0
 62
7
  6
CONTINUOUS
370
-3
390
F
  0
LAYER
  5
202
100
AcDbSymbolTableRecord
100
AcDbLayerTableRecord
  2
04_POINTS
 70
0
 62
7
  6
CONTINUOUS
370
-3
390
F
  0
LAYER
  5
203
100
AcDbSymbolTableRecord
100
AcDbLayerTableRecord
  2
05_CURVES
 70
0
 62
7
  6
CONTINUOUS
370
-3
390
F
  0
LAYER
  5
204
100
AcDbSymbolTableRecord
100
AcDbLayerTableRecord
  2
06_SURFS
 70
0
 62
7
  6
CONTINUOUS
370
-3
390
F
  0
LAYER
  5
205
100
AcDbSymbolTableRecord
100
AcDbLayerTableRecord
  2
07_COSMETICS
 70
0
 62
7
  6
CONTINUOUS
370
-3
390
F
  0
LAYER
  5
206
100
AcDbSymbolTableRecord
100
AcDbLayerTableRecord
  2
1
 70
0
 62
7
  6
CONTINUOUS
370
-3
390
F
  0
LAYER
  5
207
100
AcDbSymbolTableRecord
100
AcDbLayerTableRecord
  2
10_NOTES
 70
0
 62
7
  6
CONTINUOUS
370
-3
390
F
  0
LAYER
  5
208
100
AcDbSymbolTableRecord
100
AcDbLayerTableRecord
  2
11_NOTES_PUB
 70
0
 62
7
  6
CONTINUOUS
370
-3
390
F
  0
LAYER
  5
209
100
AcDbSymbolTableRecord
100
AcDbLayerTableRecord
  2
13_REF_GTOL
 70
0
 62
7
  6
CONTINUOUS
370
-3
390
F
  0
LAYER
  5
20A
100
AcDbSymbolTableRecord
100
AcDbLayerTableRecord
  2
16_MISC
 70
0
 62
7
  6
CONTINUOUS
370
-3
390
F
  0
LAYER
  5
20B
100
AcDbSymbolTableRecord
100
AcDbLayerTableRecord
  2
17_NO_PRINT
 70
0
 62
7
  6
CONTINUOUS
370
-3
390
F
  0
LAYER
  5
20C
100
AcDbSymbolTableRecord
100
AcDbLayerTableRecord
  2
18_DATUM_CAMS_JOINTS
 70
0
 62
7
  6
CONTINUOUS
370
-3
390
F
  0
LAYER
  5
20D
100
AcDbSymbolTableRecord
100
AcDbLayerTableRecord
  2
19_DATUM_FUNCTIONAL
 70
0
 62
7
  6
CONTINUOUS
370
-3
390
F
  0
LAYER
  5
20E
100
AcDbSymbolTableRecord
100
AcDbLayerTableRecord
  2
2
 70
0
 62
7
  6
CONTINUOUS
370
-3
390
F
  0
LAYER
  5
20F
100
AcDbSymbolTableRecord
100
AcDbLayerTableRecord
  2
20_DATUM_KINEMATIC_SCHEME
 70
0
 62
7
  6
CONTINUOUS
370
-3
390
F
  0
ENDTAB
  0
TABLE
  2
STYLE
  5
3
100
AcDbSymbolTable
 70
1
  0
STYLE
  5
11
100
AcDbSymbolTableRecord
100
AcDbTextStyleTableRecord
  2
STANDARD
 70
0
 40
0.0
 41
0.8
 50
0.0
 71
0
 42
0.2
  3
txt
  4

  0
STYLE
  5
210
100
AcDbSymbolTableRecord
100
AcDbTextStyleTableRecord
  2
TEXTSTYLE_1
 70
0
 40
0.0
 41
0.8
 50
0.0
 71
0
 42
0.2
  3
gdt
  4

  0
ENDTAB
  0
TABLE
  2
VIEW
  5
6
100
AcDbSymbolTable
 70
0
  0
ENDTAB
  0
TABLE
  2
UCS
  5
7
100
AcDbSymbolTable
 70
0
  0
ENDTAB
  0
TABLE
  2
APPID
  5
9
100
AcDbSymbolTable
 70
1
  0
APPID
  5
211
100
AcDbSymbolTableRecord
100
AcDbRegAppTableRecord
  2
ACAD
 70
0
  0
ENDTAB
  0
TABLE
  2
BLOCK_RECORD
  5
1
100
AcDbSymbolTable
 70
0
  0
BLOCK_RECORD
  5
212
100
AcDbSymbolTableRecord
100
AcDbBlockTableRecord
  2
*Model_Space
  0
BLOCK_RECORD
  5
213
100
AcDbSymbolTableRecord
100
AcDbBlockTableRecord
  2
*Paper_Space
  0
BLOCK_RECORD
  5
214
100
AcDbSymbolTableRecord
100
AcDbBlockTableRecord
  2
_FILLED
  0
ENDTAB
  0
TABLE
  2
DIMSTYLE
  5
A
100
AcDbSymbolTable
 70
1
100
AcDbDimStyleTable
 71
0
  0
DIMSTYLE
105
215
100
AcDbSymbolTableRecord
100
AcDbDimStyleTableRecord
  2
STANDARD
 70
0
  3

  4

 40
1.0
 41
3.4987456623
 42
1.0
 43
0.38
 44
1.0
 45
0.0
 46
0.0
 47
0.01
 48
0.01
140
4.8982439272
141
0.09
142
0.0
143
25.4
144
1.0
145
0.0
146
1.0
147
0.625
 71
1
 72
0
 73
0
 74
0
 75
0
 76
0
 77
1
 78
8
 79
2
170
0
171
1
172
0
173
0
174
0
175
0
176
0
177
0
178
0
270
2
179
2
271
2
272
2
273
2
274
2
275
0
280
0
281
0
282
0
283
1
284
8
285
0
286
0
287
3
288
0
340
11
278
46
341
214
342
214
343
214
344
214
  0
ENDTAB
  0
ENDSEC
  0
SECTION
  2
BLOCKS
  0
BLOCK
  5
20
100
AcDbEntity
  8
0
100
AcDbBlockBegin
  2
*Model_Space
 70
0
 10
0.0
 20
0.0
 30
0.0
  3
*Model_Space
  1

  0
ENDBLK
  5
21
100
AcDbEntity
  8
0
100
AcDbBlockEnd
  0
BLOCK
  5
1C
100
AcDbEntity
  8
0
100
AcDbBlockBegin
  2
*Paper_Space
 70
0
 10
0.0
 20
0.0
 30
0.0
  3
*Paper_Space
  1

  0
ENDBLK
  5
1D
100
AcDbEntity
  8
0
100
AcDbBlockEnd
  0
BLOCK
  5
216
100
AcDbEntity
  8
0
100
AcDbBlockBegin
  2
_FILLED
 70
64
 10
0.0
 20
0.0
  3
_FILLED
  1

  0
SOLID
  5
217
100
AcDbEntity
  8
0
  6
BYBLOCK
 62
0
100
AcDbTrace
 10
0.0
 20
0.0
 11
-1.0
 21
0.25
 12
-1.0
 22
-0.25
 13
-1.0
 23
-0.25
  0
ENDBLK
  5
218
100
AcDbEntity
  8
0
  6
BYBLOCK
 62
0
100
AcDbBlockEnd
  0
ENDSEC
  0
SECTION
  2
ENTITIES
  0
LINE
  5
219
100
AcDbEntity
  8
1
100
AcDbLine
 62
7
  6
CONTINUOUS
 10
67.9410814933
 20
72.8254923414
 11
69.4410814933
 21
72.8254923414
  0
LINE
  5
21A
100
AcDbEntity
  8
1
100
AcDbLine
 62
7
  6
CONTINUOUS
 10
195.917155423
 20
72.8254923414
 11
265.7410814933
 21
72.8254923414
  0
LINE
  5
21B
100
AcDbEntity
  8
1
100
AcDbLine
 62
7
  6
CONTINUOUS
 10
196.3410814933
 20
76.8254923414
 11
204.3410814933
 21
76.8254923414
  0
LINE
  5
21C
100
AcDbEntity
  8
1
100
AcDbLine
 62
7
  6
CONTINUOUS
 10
69.4410814933
 20
77.8254923414
 11
67.9410814933
 21
77.8254923414
  0
LINE
  5
21D
100
AcDbEntity
  8
1
100
AcDbLine
 62
7
  6
CONTINUOUS
 10
204.3410814933
 20
80.8254923414
 11
196.3410814933
 21
80.8254923414
  0
LINE
  5
21E
100
AcDbEntity
  8
1
100
AcDbLine
 62
7
  6
CONTINUOUS
 10
67.9410814933
 20
87.3254923414
 11
69.4410814933
 21
87.3254923414
  0
LINE
  5
21F
100
AcDbEntity
  8
1
100
AcDbLine
 62
7
  6
CONTINUOUS
 10
33.2410814933
 20
97.7254923414
 11
33.2410814933
 21
139.8254923414
  0
LINE
  5
220
100
AcDbEntity
  8
1
100
AcDbLine
 62
7
  6
CONTINUOUS
 10
39.7410814933
 20
311.5239340195
 11
39.7410814933
 21
285.1075040828
  0
LINE
  5
221
100
AcDbEntity
  8
1
100
AcDbLine
 62
7
  6
CONTINUOUS
 10
42.7410814933
 20
314.5547030244
 11
42.7410814933
 21
314.9870056952
  0
LINE
  5
222
100
AcDbEntity
  8
1
100
AcDbLine
 62
7
  6
CONTINUOUS
 10
44.1018510087
 20
232.5054923414
 11
44.1018510087
 21
218.7054923414
  0
LINE
  5
223
100
AcDbEntity
  8
1
100
AcDbLine
 62
7
  6
CONTINUOUS
 10
69.4410814933
 20
92.3254923414
 11
67.9410814933
 21
92.3254923414
  0
LINE
  5
224
100
AcDbEntity
  8
1
100
AcDbLine
 62
7
  6
CONTINUOUS
 10
48.7410814933
 20
92.8254923414
 11
63.7410814933
 21
92.8254923414
  0
LINE
  5
225
100
AcDbEntity
  8
1
100
AcDbLine
 62
7
  6
CONTINUOUS
 10
64.2410814933
 20
92.8254923414
 11
261.2410814933
 21
92.8254923414
  0
LINE
  5
226
100
AcDbEntity
  8
1
100
AcDbLine
 62
7
  6
CONTINUOUS
 10
63.7410814933
 20
94.0254923414
 11
64.2410814933
 21
94.0254923414
  0
LINE
  5
227
100
AcDbEntity
  8
1
100
AcDbLine
 62
7
  6
CONTINUOUS
 10
33.2410814933
 20
97.7254923414
 11
48.7410814933
 21
97.7254923414
  0
LINE
  5
228
100
AcDbEntity
  8
1
100
AcDbLine
 62
7
  6
CONTINUOUS
 10
48.7410814933
 20
99.7254923414
 11
33.2410814933
 21
99.7254923414
  0
LINE
  5
229
100
AcDbEntity
  8
1
100
AcDbLine
 62
7
  6
CONTINUOUS
 10
45.7410814933
 20
314.9870056952
 11
45.7410814933
 21
314.5547030244
  0
LINE
  5
22A
100
AcDbEntity
  8
1
100
AcDbLine
 62
7
  6
CONTINUOUS
 10
48.7410814933
 20
92.8254923414
 11
48.7410814933
 21
322.8254923414
  0
LINE
  5
22B
100
AcDbEntity
  8
2
100
AcDbLine
 62
7
  6
CONTINUOUS
 10
52.7410814933
 20
316.4780877519
 11
52.7410814933
 21
272.1728969308
  0
LINE
  5
22C
100
AcDbEntity
  8
2
100
AcDbLine
 62
7
  6
CONTINUOUS
 10
52.7410814933
 20
266.4780877519
 11
52.7410814933
 21
222.1728969308
  0
LINE
  5
22D
100
AcDbEntity
  8
2
100
AcDbLine
 62
7
  6
CONTINUOUS
 10
52.7410814933
 20
216.4780877519
 11
52.7410814933
 21
172.1728969308
  0
LINE
  5
22E
100
AcDbEntity
  8
2
100
AcDbLine
 62
7
  6
CONTINUOUS
 10
52.7850154761
 20
172.1728969308
 11
52.7850154761
 21
216.4780877519
  0
LINE
  5
22F
100
AcDbEntity
  8
2
100
AcDbLine
 62
7
  6
CONTINUOUS
 10
52.7850154761
 20
222.1728969308
 11
52.7850154761
 21
266.4780877519
  0
LINE
  5
230
100
AcDbEntity
  8
2
100
AcDbLine
 62
7
  6
CONTINUOUS
 10
52.7850154761
 20
272.1728969308
 11
52.7850154761
 21
316.4780877519
  0
LINE
  5
231
100
AcDbEntity
  8
1
100
AcDbLine
 62
7
  6
CONTINUOUS
 10
53.7410814933
 20
165.8254923414
 11
53.7410814933
 21
172.0080372764
  0
LINE
  5
232
100
AcDbEntity
  8
1
100
AcDbLine
 62
7
  6
CONTINUOUS
 10
53.7410814933
 20
216.6402834516
 11
53.7410814933
 21
222.0080372764
  0
LINE
  5
233
100
AcDbEntity
  8
1
100
AcDbLine
 62
7
  6
CONTINUOUS
 10
53.7410814933
 20
266.6402834516
 11
53.7410814933
 21
272.0080372764
  0
LINE
  5
234
100
AcDbEntity
  8
1
100
AcDbLine
 62
7
  6
CONTINUOUS
 10
53.7410814933
 20
316.6402834516
 11
53.7410814933
 21
322.8254923414
  0
LINE
  5
235
100
AcDbEntity
  8
2
100
AcDbLine
 62
7
  6
CONTINUOUS
 10
55.7370574428
 20
316.5296158361
 11
55.7370574428
 21
272.1213688466
  0
LINE
  5
236
100
AcDbEntity
  8
2
100
AcDbLine
 62
7
  6
CONTINUOUS
 10
55.7370574428
 20
266.5296158361
 11
55.7370574428
 21
222.1213688466
  0
LINE
  5
237
100
AcDbEntity
  8
2
100
AcDbLine
 62
7
  6
CONTINUOUS
 10
55.7370574428
 20
216.5296158361
 11
55.7370574428
 21
172.1213688466
  0
LINE
  5
238
100
AcDbEntity
  8
2
100
AcDbLine
 62
7
  6
CONTINUOUS
 10
55.840505599
 20
172.1213688466
 11
55.840505599
 21
216.5296158361
  0
LINE
  5
239
100
AcDbEntity
  8
2
100
AcDbLine
 62
7
  6
CONTINUOUS
 10
55.840505599
 20
222.1213688466
 11
55.840505599
 21
266.5296158361
  0
LINE
  5
23A
100
AcDbEntity
  8
2
100
AcDbLine
 62
7
  6
CONTINUOUS
 10
55.840505599
 20
272.1213688466
 11
55.840505599
 21
316.5296158361
  0
LINE
  5
23B
100
AcDbEntity
  8
1
100
AcDbLine
 62
7
  6
CONTINUOUS
 10
184.4410814933
 20
102.8254923414
 11
48.7410814933
 21
102.8254923414
  0
LINE
  5
23C
100
AcDbEntity
  8
2
100
AcDbLine
 62
7
  6
CONTINUOUS
 10
56.8480417008
 20
316.5472024442
 11
56.8480417008
 21
272.1037822385
  0
LINE
  5
23D
100
AcDbEntity
  8
2
100
AcDbLine
 62
7
  6
CONTINUOUS
 10
56.8480417008
 20
266.5472024442
 11
56.8480417008
 21
222.1037822385
  0
LINE
  5
23E
100
AcDbEntity
  8
2
100
AcDbLine
 62
7
  6
CONTINUOUS
 10
56.8480417008
 20
216.5472024442
 11
56.8480417008
 21
172.1037822385
  0
LINE
  5
23F
100
AcDbEntity
  8
2
100
AcDbLine
 62
7
  6
CONTINUOUS
 10
57.0006595617
 20
316.5472024442
 11
57.0006595617
 21
272.1037822385
  0
LINE
  5
240
100
AcDbEntity
  8
2
100
AcDbLine
 62
7
  6
CONTINUOUS
 10
57.0006595617
 20
266.5472024442
 11
57.0006595617
 21
222.1037822385
  0
LINE
  5
241
100
AcDbEntity
  8
2
100
AcDbLine
 62
7
  6
CONTINUOUS
 10
57.0006595617
 20
216.5472024442
 11
57.0006595617
 21
172.1037822385
  0
LINE
  5
242
100
AcDbEntity
  8
1
100
AcDbLine
 62
7
  6
CONTINUOUS
 10
58.7410814933
 20
160.8254923414
 11
58.7410814933
 21
312.8254923414
  0
LINE
  5
243
100
AcDbEntity
  8
1
100
AcDbLine
 62
7
  6
CONTINUOUS
 10
63.7410814933
 20
322.8254923414
 11
63.7410814933
 21
92.8254923414
  0
LINE
  5
244
100
AcDbEntity
  8
1
100
AcDbLine
 62
7
  6
CONTINUOUS
 10
64.2410814933
 20
92.8254923414
 11
64.2410814933
 21
322.8254923414
  0
LINE
  5
245
100
AcDbEntity
  8
1
100
AcDbLine
 62
7
  6
CONTINUOUS
 10
67.9410814933
 20
72.8254923414
 11
67.9410814933
 21
92.8254923414
  0
LINE
  5
246
100
AcDbEntity
  8
1
100
AcDbLine
 62
7
  6
CONTINUOUS
 10
69.4410814933
 20
92.8254923414
 11
69.4410814933
 21
72.8254923414
  0
LINE
  5
247
100
AcDbEntity
  8
1
100
AcDbLine
 62
7
  6
CONTINUOUS
 10
71.6942816363
 20
328.9754923414
 11
71.6942816363
 21
322.8254923414
  0
LINE
  5
248
100
AcDbEntity
  8
1
100
AcDbLine
 62
7
  6
CONTINUOUS
 10
33.2410814933
 20
137.8254923414
 11
48.7410814933
 21
137.8254923414
  0
LINE
  5
249
100
AcDbEntity
  8
1
100
AcDbLine
 62
7
  6
CONTINUOUS
 10
48.7410814933
 20
139.8254923414
 11
33.2410814933
 21
139.8254923414
  0
LINE
  5
24A
100
AcDbEntity
  8
1
100
AcDbLine
 62
7
  6
CONTINUOUS
 10
93.518918039
 20
328.9754923414
 11
93.518918039
 21
322.8254923414
  0
LINE
  5
24B
100
AcDbEntity
  8
1
100
AcDbLine
 62
7
  6
CONTINUOUS
 10
48.7410814933
 20
160.8254923414
 11
58.7410814933
 21
160.8254923414
  0
LINE
  5
24C
100
AcDbEntity
  8
1
100
AcDbLine
 62
7
  6
CONTINUOUS
 10
53.7410814933
 20
165.8254923414
 11
48.7410814933
 21
165.8254923414
  0
LINE
  5
24D
100
AcDbEntity
  8
1
100
AcDbLine
 62
7
  6
CONTINUOUS
 10
53.7410814933
 20
170.8254923414
 11
48.7410814933
 21
170.8254923414
  0
LINE
  5
24E
100
AcDbEntity
  8
2
100
AcDbLine
 62
7
  6
CONTINUOUS
 10
57.0006595617
 20
172.1037822385
 11
56.8480417008
 21
172.1037822385
  0
LINE
  5
24F
100
AcDbEntity
  8
2
100
AcDbLine
 62
7
  6
CONTINUOUS
 10
55.840505599
 20
172.1213688466
 11
55.7370574428
 21
172.1213688466
  0
LINE
  5
250
100
AcDbEntity
  8
2
100
AcDbLine
 62
7
  6
CONTINUOUS
 10
52.7850154761
 20
172.1728969308
 11
52.7410814933
 21
172.1728969308
  0
LINE
  5
251
100
AcDbEntity
  8
2
100
AcDbLine
 62
7
  6
CONTINUOUS
 10
56.8480417008
 20
171.9538050843
 11
52.8884636323
 21
172.0229197766
  0
LINE
  5
252
100
AcDbEntity
  8
2
100
AcDbLine
 62
7
  6
CONTINUOUS
 10
52.7850154761
 20
172.1728969308
 11
55.7370574428
 21
172.1213688466
  0
LINE
  5
253
100
AcDbEntity
  8
2
100
AcDbLine
 62
7
  6
CONTINUOUS
 10
55.840505599
 20
172.1213688466
 11
56.8480417008
 21
172.1037822385
  0
LINE
  5
254
100
AcDbEntity
  8
1
100
AcDbLine
 62
7
  6
CONTINUOUS
 10
119.8468814933
 20
339.8254923414
 11
119.8468814933
 21
322.8254923414
  0
LINE
  5
255
100
AcDbEntity
  8
1
100
AcDbLine
 62
7
  6
CONTINUOUS
 10
121.9210814933
 20
322.8254923414
 11
121.9210814933
 21
339.8254923414
  0
LINE
  5
256
100
AcDbEntity
  8
1
100
AcDbLine
 62
7
  6
CONTINUOUS
 10
131.4796413623
 20
328.9754923414
 11
131.4796413623
 21
322.8254923414
  0
LINE
  5
257
100
AcDbEntity
  8
1
100
AcDbLine
 62
7
  6
CONTINUOUS
 10
152.3910814933
 20
339.8254923414
 11
152.3910814933
 21
328.9754923414
  0
LINE
  5
258
100
AcDbEntity
  8
1
100
AcDbLine
 62
7
  6
CONTINUOUS
 10
154.4652814933
 20
328.9754923414
 11
154.4652814933
 21
339.8254923414
  0
LINE
  5
259
100
AcDbEntity
  8
1
100
AcDbLine
 62
7
  6
CONTINUOUS
 10
162.7274378683
 20
328.9754923414
 11
162.7274378683
 21
322.8254923414
  0
LINE
  5
25A
100
AcDbEntity
  8
2
100
AcDbLine
 62
7
  6
CONTINUOUS
 10
56.8480417008
 20
216.5472024442
 11
55.840505599
 21
216.5296158361
  0
LINE
  5
25B
100
AcDbEntity
  8
2
100
AcDbLine
 62
7
  6
CONTINUOUS
 10
55.7370574428
 20
216.5296158361
 11
52.7850154761
 21
216.4780877519
  0
LINE
  5
25C
100
AcDbEntity
  8
2
100
AcDbLine
 62
7
  6
CONTINUOUS
 10
52.8884636323
 20
216.6280649062
 11
56.8480417007
 21
216.6971795984
  0
LINE
  5
25D
100
AcDbEntity
  8
2
100
AcDbLine
 62
7
  6
CONTINUOUS
 10
52.7410814933
 20
216.4780877519
 11
52.7850154761
 21
216.4780877519
  0
LINE
  5
25E
100
AcDbEntity
  8
2
100
AcDbLine
 62
7
  6
CONTINUOUS
 10
55.7370574428
 20
216.5296158361
 11
55.840505599
 21
216.5296158361
  0
LINE
  5
25F
100
AcDbEntity
  8
2
100
AcDbLine
 62
7
  6
CONTINUOUS
 10
56.8480417008
 20
216.5472024442
 11
57.0006595617
 21
216.5472024442
  0
LINE
  5
260
100
AcDbEntity
  8
1
100
AcDbLine
 62
7
  6
CONTINUOUS
 10
48.7410814933
 20
218.7054923414
 11
44.1018510087
 21
218.7054923414
  0
LINE
  5
261
100
AcDbEntity
  8
2
100
AcDbLine
 62
7
  6
CONTINUOUS
 10
56.8480417008
 20
221.9538050843
 11
52.8884636323
 21
222.0229197766
  0
LINE
  5
262
100
AcDbEntity
  8
2
100
AcDbLine
 62
7
  6
CONTINUOUS
 10
52.7850154761
 20
222.1728969308
 11
55.7370574428
 21
222.1213688466
  0
LINE
  5
263
100
AcDbEntity
  8
2
100
AcDbLine
 62
7
  6
CONTINUOUS
 10
55.840505599
 20
222.1213688466
 11
56.8480417008
 21
222.1037822385
  0
LINE
  5
264
100
AcDbEntity
  8
2
100
AcDbLine
 62
7
  6
CONTINUOUS
 10
57.0006595617
 20
222.1037822385
 11
56.8480417008
 21
222.1037822385
  0
LINE
  5
265
100
AcDbEntity
  8
2
100
AcDbLine
 62
7
  6
CONTINUOUS
 10
55.840505599
 20
222.1213688466
 11
55.7370574428
 21
222.1213688466
  0
LINE
  5
266
100
AcDbEntity
  8
2
100
AcDbLine
 62
7
  6
CONTINUOUS
 10
52.7850154761
 20
222.1728969308
 11
52.7410814933
 21
222.1728969308
  0
LINE
  5
267
100
AcDbEntity
  8
1
100
AcDbLine
 62
7
  6
CONTINUOUS
 10
44.1018510087
 20
232.5054923414
 11
48.7410814933
 21
232.5054923414
  0
LINE
  5
268
100
AcDbEntity
  8
1
100
AcDbLine
 62
7
  6
CONTINUOUS
 10
185.7410814933
 20
92.8254923414
 11
185.9186784714
 21
82.650968277
  0
LINE
  5
269
100
AcDbEntity
  8
1
100
AcDbLine
 62
7
  6
CONTINUOUS
 10
177.4410814933
 20
322.8254923414
 11
177.4410814933
 21
322.3648843555
  0
LINE
  5
26A
100
AcDbEntity
  8
1
100
AcDbLine
 62
7
  6
CONTINUOUS
 10
177.4410814933
 20
93.2861003272
 11
177.4410814933
 21
92.8254923414
  0
LINE
  5
26B
100
AcDbEntity
  8
1
100
AcDbLine
 62
7
  6
CONTINUOUS
 10
184.4410814933
 20
92.8254923414
 11
184.4410814933
 21
102.8254923414
  0
LINE
  5
26C
100
AcDbEntity
  8
1
100
AcDbLine
 62
7
  6
CONTINUOUS
 10
184.4410814933
 20
312.8254923414
 11
184.4410814933
 21
322.8254923414
  0
LINE
  5
26D
100
AcDbEntity
  8
1
100
AcDbLine
 62
7
  6
CONTINUOUS
 10
185.9186784714
 20
333.0000164058
 11
185.7410814933
 21
322.8254923414
  0
LINE
  5
26E
100
AcDbEntity
  8
1
100
AcDbLine
 62
7
  6
CONTINUOUS
 10
195.3410814933
 20
337.8254923414
 11
195.3410814933
 21
335.8254923414
  0
LINE
  5
26F
100
AcDbEntity
  8
1
100
AcDbLine
 62
7
  6
CONTINUOUS
 10
195.3410814933
 20
79.8254923414
 11
195.3410814933
 21
77.8254923414
  0
LINE
  5
270
100
AcDbEntity
  8
1
100
AcDbLine
 62
7
  6
CONTINUOUS
 10
205.3410814933
 20
77.8254923414
 11
205.3410814933
 21
79.8254923414
  0
LINE
  5
271
100
AcDbEntity
  8
1
100
AcDbLine
 62
7
  6
CONTINUOUS
 10
205.3410814933
 20
335.8254923414
 11
205.3410814933
 21
337.8254923414
  0
LINE
  5
272
100
AcDbEntity
  8
2
100
AcDbLine
 62
7
  6
CONTINUOUS
 10
56.8480417008
 20
266.5472024442
 11
55.840505599
 21
266.5296158361
  0
LINE
  5
273
100
AcDbEntity
  8
2
100
AcDbLine
 62
7
  6
CONTINUOUS
 10
55.7370574428
 20
266.5296158361
 11
52.7850154761
 21
266.4780877519
  0
LINE
  5
274
100
AcDbEntity
  8
2
100
AcDbLine
 62
7
  6
CONTINUOUS
 10
52.8884636323
 20
266.6280649062
 11
56.8480417007
 21
266.6971795984
  0
LINE
  5
275
100
AcDbEntity
  8
2
100
AcDbLine
 62
7
  6
CONTINUOUS
 10
52.7410814933
 20
266.4780877519
 11
52.7850154761
 21
266.4780877519
  0
LINE
  5
276
100
AcDbEntity
  8
2
100
AcDbLine
 62
7
  6
CONTINUOUS
 10
55.7370574428
 20
266.5296158361
 11
55.840505599
 21
266.5296158361
  0
LINE
  5
277
100
AcDbEntity
  8
2
100
AcDbLine
 62
7
  6
CONTINUOUS
 10
56.8480417008
 20
266.5472024442
 11
57.0006595617
 21
266.5472024442
  0
LINE
  5
278
100
AcDbEntity
  8
1
100
AcDbLine
 62
7
  6
CONTINUOUS
 10
213.3410814933
 20
337.8254923414
 11
213.3410814933
 21
335.8254923414
  0
LINE
  5
279
100
AcDbEntity
  8
2
100
AcDbLine
 62
7
  6
CONTINUOUS
 10
57.0006595617
 20
272.1037822385
 11
56.8480417008
 21
272.1037822385
  0
LINE
  5
27A
100
AcDbEntity
  8
2
100
AcDbLine
 62
7
  6
CONTINUOUS
 10
55.840505599
 20
272.1213688466
 11
55.7370574428
 21
272.1213688466
  0
LINE
  5
27B
100
AcDbEntity
  8
2
100
AcDbLine
 62
7
  6
CONTINUOUS
 10
52.7850154761
 20
272.1728969308
 11
52.7410814933
 21
272.1728969308
  0
LINE
  5
27C
100
AcDbEntity
  8
2
100
AcDbLine
 62
7
  6
CONTINUOUS
 10
56.8480417008
 20
271.9538050843
 11
52.8884636323
 21
272.0229197766
  0
LINE
  5
27D
100
AcDbEntity
  8
2
100
AcDbLine
 62
7
  6
CONTINUOUS
 10
52.7850154761
 20
272.1728969308
 11
55.7370574428
 21
272.1213688466
  0
LINE
  5
27E
100
AcDbEntity
  8
2
100
AcDbLine
 62
7
  6
CONTINUOUS
 10
55.840505599
 20
272.1213688466
 11
56.8480417008
 21
272.1037822385
  0
LINE
  5
27F
100
AcDbEntity
  8
1
100
AcDbLine
 62
7
  6
CONTINUOUS
 10
223.3410814933
 20
335.8254923414
 11
223.3410814933
 21
337.8254923414
  0
LINE
  5
280
100
AcDbEntity
  8
1
100
AcDbLine
 62
7
  6
CONTINUOUS
 10
231.3410814933
 20
337.8254923414
 11
231.3410814933
 21
335.8254923414
  0
LINE
  5
281
100
AcDbEntity
  8
1
100
AcDbLine
 62
7
  6
CONTINUOUS
 10
42.7410814933
 20
282.1075040828
 11
45.7410814933
 21
282.1075040828
  0
LINE
  5
282
100
AcDbEntity
  8
1
100
AcDbLine
 62
7
  6
CONTINUOUS
 10
241.3410814933
 20
335.8254923414
 11
241.3410814933
 21
337.8254923414
  0
LINE
  5
283
100
AcDbEntity
  8
1
100
AcDbLine
 62
7
  6
CONTINUOUS
 10
40.0235284557
 20
312.8254923414
 11
52.7410814933
 21
312.8254923414
  0
LINE
  5
284
100
AcDbEntity
  8
1
100
AcDbLine
 62
7
  6
CONTINUOUS
 10
58.7410814933
 20
312.8254923414
 11
184.4410814933
 21
312.8254923414
  0
LINE
  5
285
100
AcDbEntity
  8
1
100
AcDbLine
 62
7
  6
CONTINUOUS
 10
45.7410814933
 20
314.5547030244
 11
42.7410814933
 21
314.5547030244
  0
LINE
  5
286
100
AcDbEntity
  8
1
100
AcDbLine
 62
7
  6
CONTINUOUS
 10
42.7410814933
 20
314.9870056952
 11
45.7410814933
 21
314.9870056952
  0
LINE
  5
287
100
AcDbEntity
  8
1
100
AcDbLine
 62
7
  6
CONTINUOUS
 10
261.2410814933
 20
342.8254923414
 11
261.2410814933
 21
322.8254923414
  0
LINE
  5
288
100
AcDbEntity
  8
1
100
AcDbLine
 62
7
  6
CONTINUOUS
 10
261.2410814933
 20
92.8254923414
 11
261.2410814933
 21
72.8254923414
  0
LINE
  5
289
100
AcDbEntity
  8
1
100
AcDbLine
 62
7
  6
CONTINUOUS
 10
265.7410814933
 20
342.8254923414
 11
265.7410814933
 21
72.8254923414
  0
LINE
  5
28A
100
AcDbEntity
  8
2
100
AcDbLine
 62
7
  6
CONTINUOUS
 10
56.8480417008
 20
316.5472024442
 11
55.840505599
 21
316.5296158361
  0
LINE
  5
28B
100
AcDbEntity
  8
2
100
AcDbLine
 62
7
  6
CONTINUOUS
 10
55.7370574428
 20
316.5296158361
 11
52.7850154761
 21
316.4780877519
  0
LINE
  5
28C
100
AcDbEntity
  8
2
100
AcDbLine
 62
7
  6
CONTINUOUS
 10
52.8884636323
 20
316.6280649062
 11
56.8480417007
 21
316.6971795984
  0
LINE
  5
28D
100
AcDbEntity
  8
2
100
AcDbLine
 62
7
  6
CONTINUOUS
 10
52.7410814933
 20
316.4780877519
 11
52.7850154761
 21
316.4780877519
  0
LINE
  5
28E
100
AcDbEntity
  8
2
100
AcDbLine
 62
7
  6
CONTINUOUS
 10
55.7370574428
 20
316.5296158361
 11
55.840505599
 21
316.5296158361
  0
LINE
  5
28F
100
AcDbEntity
  8
2
100
AcDbLine
 62
7
  6
CONTINUOUS
 10
56.8480417008
 20
316.5472024442
 11
57.0006595617
 21
316.5472024442
  0
LINE
  5
290
100
AcDbEntity
  8
1
100
AcDbLine
 62
7
  6
CONTINUOUS
 10
64.2410814933
 20
321.6254923414
 11
63.7410814933
 21
321.6254923414
  0
LINE
  5
291
100
AcDbEntity
  8
1
100
AcDbLine
 62
7
  6
CONTINUOUS
 10
63.7410814933
 20
322.8254923414
 11
48.7410814933
 21
322.8254923414
  0
LINE
  5
292
100
AcDbEntity
  8
1
100
AcDbLine
 62
7
  6
CONTINUOUS
 10
64.2410814933
 20
322.8254923414
 11
261.2410814933
 21
322.8254923414
  0
LINE
  5
293
100
AcDbEntity
  8
1
100
AcDbLine
 62
7
  6
CONTINUOUS
 10
162.7274378683
 20
328.9754923414
 11
131.4796413623
 21
328.9754923414
  0
LINE
  5
294
100
AcDbEntity
  8
1
100
AcDbLine
 62
7
  6
CONTINUOUS
 10
93.518918039
 20
328.9754923414
 11
71.6942816363
 21
328.9754923414
  0
LINE
  5
295
100
AcDbEntity
  8
1
100
AcDbLine
 62
7
  6
CONTINUOUS
 10
196.3410814933
 20
334.8254923414
 11
204.3410814933
 21
334.8254923414
  0
LINE
  5
296
100
AcDbEntity
  8
1
100
AcDbLine
 62
7
  6
CONTINUOUS
 10
214.3410814933
 20
334.8254923414
 11
222.3410814933
 21
334.8254923414
  0
LINE
  5
297
100
AcDbEntity
  8
1
100
AcDbLine
 62
7
  6
CONTINUOUS
 10
232.3410814933
 20
334.8254923414
 11
240.3410814933
 21
334.8254923414
  0
LINE
  5
298
100
AcDbEntity
  8
1
100
AcDbLine
 62
7
  6
CONTINUOUS
 10
240.3410814933
 20
338.8254923414
 11
232.3410814933
 21
338.8254923414
  0
LINE
  5
299
100
AcDbEntity
  8
1
100
AcDbLine
 62
7
  6
CONTINUOUS
 10
222.3410814933
 20
338.8254923414
 11
214.3410814933
 21
338.8254923414
  0
LINE
  5
29A
100
AcDbEntity
  8
1
100
AcDbLine
 62
7
  6
CONTINUOUS
 10
204.3410814933
 20
338.8254923414
 11
196.3410814933
 21
338.8254923414
  0
LINE
  5
29B
100
AcDbEntity
  8
1
100
AcDbLine
 62
7
  6
CONTINUOUS
 10
119.8468814933
 20
339.8254923414
 11
154.4652814933
 21
339.8254923414
  0
LINE
  5
29C
100
AcDbEntity
  8
1
100
AcDbLine
 62
7
  6
CONTINUOUS
 10
195.917155423
 20
342.8254923414
 11
265.7410814933
 21
342.8254923414
  0
ARC
  5
29D
100
AcDbEntity
  8
2
100
AcDbCircle
 62
7
  6
CONTINUOUS
 10
65.7337277606
 20
206.4107182785
 40
9.0
100
AcDbArc
 50
97.9148932481
 51
100.59802992
  0
ARC
  5
29E
100
AcDbEntity
  8
2
100
AcDbCircle
 62
7
  6
CONTINUOUS
 10
65.7337277606
 20
182.2402664042
 40
9.0
100
AcDbArc
 50
259.402188054
 51
262.0853803035
  0
ARC
  5
29F
100
AcDbEntity
  8
2
100
AcDbCircle
 62
7
  6
CONTINUOUS
 10
56.8506595617
 20
172.1037822385
 40
0.15
100
AcDbArc
 50
268.9999999998
 51
359.9999824807
  0
ARC
  5
2A0
100
AcDbEntity
  8
2
100
AcDbCircle
 62
7
  6
CONTINUOUS
 10
52.8910814933
 20
172.1728969308
 40
0.15
100
AcDbArc
 50
180.0
 51
269.0
  0
ARC
  5
2A1
100
AcDbEntity
  8
2
100
AcDbCircle
 62
7
  6
CONTINUOUS
 10
52.8910814933
 20
266.4780877519
 40
0.15
100
AcDbArc
 50
91.0
 51
180.0
  0
ARC
  5
2A2
100
AcDbEntity
  8
2
100
AcDbCircle
 62
7
  6
CONTINUOUS
 10
52.8910814933
 20
222.1728969308
 40
0.15
100
AcDbArc
 50
180.0
 51
269.0
  0
ARC
  5
2A3
100
AcDbEntity
  8
2
100
AcDbCircle
 62
7
  6
CONTINUOUS
 10
52.8910814933
 20
216.4780877519
 40
0.15
100
AcDbArc
 50
91.0
 51
180.0
  0
ARC
  5
2A4
100
AcDbEntity
  8
1
100
AcDbCircle
 62
7
  6
CONTINUOUS
 10
42.7410814933
 20
285.1075040828
 40
3.0
100
AcDbArc
 50
180.0
 51
270.0
  0
ARC
  5
2A5
100
AcDbEntity
  8
1
100
AcDbCircle
 62
7
  6
CONTINUOUS
 10
45.7410814933
 20
279.1075040828
 40
3.0
100
AcDbArc
 50
0.0
 51
90.0
  0
ARC
  5
2A6
100
AcDbEntity
  8
2
100
AcDbCircle
 62
7
  6
CONTINUOUS
 10
52.8910814933
 20
316.4780877519
 40
0.15
100
AcDbArc
 50
91.0
 51
180.0
  0
ARC
  5
2A7
100
AcDbEntity
  8
2
100
AcDbCircle
 62
7
  6
CONTINUOUS
 10
52.8910814933
 20
272.1728969308
 40
0.15
100
AcDbArc
 50
180.0
 51
269.0
  0
ARC
  5
2A8
100
AcDbEntity
  8
2
100
AcDbCircle
 62
7
  6
CONTINUOUS
 10
65.7337277606
 20
256.4107182785
 40
9.0
100
AcDbArc
 50
97.9148932481
 51
100.59802992
  0
ARC
  5
2A9
100
AcDbEntity
  8
2
100
AcDbCircle
 62
7
  6
CONTINUOUS
 10
65.7337277606
 20
232.2402664042
 40
9.0
100
AcDbArc
 50
259.402188054
 51
262.0853803035
  0
ARC
  5
2AA
100
AcDbEntity
  8
2
100
AcDbCircle
 62
7
  6
CONTINUOUS
 10
56.8506595617
 20
222.1037822385
 40
0.15
100
AcDbArc
 50
268.9999999998
 51
359.9999824807
  0
ARC
  5
2AB
100
AcDbEntity
  8
2
100
AcDbCircle
 62
7
  6
CONTINUOUS
 10
56.8506595617
 20
216.5472024442
 40
0.15
100
AcDbArc
 50
0.0
 51
90.0
  0
ARC
  5
2AC
100
AcDbEntity
  8
2
100
AcDbCircle
 62
7
  6
CONTINUOUS
 10
65.7337277606
 20
282.2402664042
 40
9.0
100
AcDbArc
 50
259.402188054
 51
262.0853803035
  0
ARC
  5
2AD
100
AcDbEntity
  8
2
100
AcDbCircle
 62
7
  6
CONTINUOUS
 10
56.8506595617
 20
272.1037822385
 40
0.15
100
AcDbArc
 50
269.0000000001
 51
360.0
  0
ARC
  5
2AE
100
AcDbEntity
  8
2
100
AcDbCircle
 62
7
  6
CONTINUOUS
 10
56.8506595617
 20
316.5472024442
 40
0.15
100
AcDbArc
 50
0.0
 51
90.0
  0
ARC
  5
2AF
100
AcDbEntity
  8
2
100
AcDbCircle
 62
7
  6
CONTINUOUS
 10
56.8506595617
 20
266.5472024442
 40
0.15
100
AcDbArc
 50
0.0
 51
90.0
  0
ARC
  5
2B0
100
AcDbEntity
  8
1
100
AcDbCircle
 62
7
  6
CONTINUOUS
 10
195.917155423
 20
82.8254923414
 40
10.0
100
AcDbArc
 50
181.0000000001
 51
270.0
  0
ARC
  5
2B1
100
AcDbEntity
  8
1
100
AcDbCircle
 62
7
  6
CONTINUOUS
 10
196.3410814933
 20
79.8254923414
 40
1.0
100
AcDbArc
 50
90.0
 51
180.0
  0
ARC
  5
2B2
100
AcDbEntity
  8
1
100
AcDbCircle
 62
7
  6
CONTINUOUS
 10
204.3410814933
 20
79.8254923414
 40
1.0
100
AcDbArc
 50
0.0
 51
90.0
  0
ARC
  5
2B3
100
AcDbEntity
  8
1
100
AcDbCircle
 62
7
  6
CONTINUOUS
 10
204.3410814933
 20
77.8254923414
 40
1.0
100
AcDbArc
 50
270.0
 51
360.0
  0
ARC
  5
2B4
100
AcDbEntity
  8
1
100
AcDbCircle
 62
7
  6
CONTINUOUS
 10
196.3410814933
 20
77.8254923414
 40
1.0
100
AcDbArc
 50
180.0
 51
270.0
  0
ARC
  5
2B5
100
AcDbEntity
  8
1
100
AcDbCircle
 62
7
  6
CONTINUOUS
 10
195.917155423
 20
332.8254923414
 40
10.0
100
AcDbArc
 50
90.0
 51
178.9999999997
  0
ARC
  5
2B6
100
AcDbEntity
  8
1
100
AcDbCircle
 62
7
  6
CONTINUOUS
 10
222.3410814933
 20
337.8254923414
 40
1.0
100
AcDbArc
 50
0.0
 51
90.0
  0
ARC
  5
2B7
100
AcDbEntity
  8
1
100
AcDbCircle
 62
7
  6
CONTINUOUS
 10
214.3410814933
 20
337.8254923414
 40
1.0
100
AcDbArc
 50
90.0
 51
180.0
  0
ARC
  5
2B8
100
AcDbEntity
  8
1
100
AcDbCircle
 62
7
  6
CONTINUOUS
 10
214.3410814933
 20
335.8254923414
 40
1.0
100
AcDbArc
 50
180.0
 51
270.0
  0
ARC
  5
2B9
100
AcDbEntity
  8
1
100
AcDbCircle
 62
7
  6
CONTINUOUS
 10
222.3410814933
 20
335.8254923414
 40
1.0
100
AcDbArc
 50
270.0
 51
360.0
  0
ARC
  5
2BA
100
AcDbEntity
  8
1
100
AcDbCircle
 62
7
  6
CONTINUOUS
 10
204.3410814933
 20
337.8254923414
 40
1.0
100
AcDbArc
 50
0.0
 51
90.0
  0
ARC
  5
2BB
100
AcDbEntity
  8
1
100
AcDbCircle
 62
7
  6
CONTINUOUS
 10
196.3410814933
 20
337.8254923414
 40
1.0
100
AcDbArc
 50
90.0
 51
180.0
  0
ARC
  5
2BC
100
AcDbEntity
  8
1
100
AcDbCircle
 62
7
  6
CONTINUOUS
 10
196.3410814933
 20
335.8254923414
 40
1.0
100
AcDbArc
 50
180.0
 51
270.0
  0
ARC
  5
2BD
100
AcDbEntity
  8
1
100
AcDbCircle
 62
7
  6
CONTINUOUS
 10
204.3410814933
 20
335.8254923414
 40
1.0
100
AcDbArc
 50
270.0
 51
360.0
  0
ARC
  5
2BE
100
AcDbEntity
  8
1
100
AcDbCircle
 62
7
  6
CONTINUOUS
 10
240.3410814933
 20
337.8254923414
 40
1.0
100
AcDbArc
 50
0.0
 51
90.0
  0
ARC
  5
2BF
100
AcDbEntity
  8
1
100
AcDbCircle
 62
7
  6
CONTINUOUS
 10
232.3410814933
 20
337.8254923414
 40
1.0
100
AcDbArc
 50
90.0
 51
180.0
  0
ARC
  5
2C0
100
AcDbEntity
  8
1
100
AcDbCircle
 62
7
  6
CONTINUOUS
 10
232.3410814933
 20
335.8254923414
 40
1.0
100
AcDbArc
 50
180.0
 51
270.0
  0
ARC
  5
2C1
100
AcDbEntity
  8
1
100
AcDbCircle
 62
7
  6
CONTINUOUS
 10
240.3410814933
 20
335.8254923414
 40
1.0
100
AcDbArc
 50
270.0
 51
360.0
  0
SPLINE
  5
2C2
100
AcDbEntity
  8
2
100
AcDbSpline
 62
7
  6
CONTINUOUS
 70
0
 71
3
 72
16
 73
12
 74
0
 42
0.0000001
 43
0.0000001
 44
0.0000000001
 40
0.0
 40
0.0
 40
0.0
 40
0.0
 40
0.0050940559
 40
0.0195218854
 40
0.0433220147
 40
0.0762976477
 40
0.1684672756
 40
0.2925651251
 40
0.4438181549
 40
0.6167449744
 40
1.0
 40
1.0
 40
1.0
 40
1.0
 10
56.8480417008
 20
316.6971795984
 30
0.0
 10
56.8477869632
 20
316.697175152
 30
0.0
 10
56.847838464
 20
316.6957020443
 30
0.0
 10
56.8474558584
 20
316.6940168626
 30
0.0
 10
56.8473998611
 20
316.6901950839
 30
0.0
 10
56.8471139091
 20
316.6829059047
 30
0.0
 10
56.8470078907
 20
316.6703268042
 30
0.0
 10
56.8469292127
 20
316.6519977557
 30
0.0
 10
56.8470171742
 20
316.6295585486
 30
0.0
 10
56.8473087068
 20
316.5941857178
 30
0.0
 10
56.84770727
 20
316.5663678093
 30
0.0
 10
56.8480417008
 20
316.5472024442
 30
0.0
  0
SPLINE
  5
2C3
100
AcDbEntity
  8
2
100
AcDbSpline
 62
7
  6
CONTINUOUS
 70
0
 71
3
 72
11
 73
7
 74
0
 42
0.0000001
 43
0.0000001
 44
0.0000000001
 40
0.0
 40
0.0
 40
0.0
 40
0.0
 40
0.2096754924
 40
0.4447883574
 40
0.7119535664
 40
1.0
 40
1.0
 40
1.0
 40
1.0
 10
55.840505599
 20
316.6795929904
 30
0.0
 10
55.8265666393
 20
316.6793496849
 30
0.0
 10
55.796803955
 20
316.6698628207
 30
0.0
 10
55.7629774337
 20
316.634830962
 30
0.0
 10
55.7415268183
 20
316.585955392
 30
0.0
 10
55.7368903005
 20
316.5487669837
 30
0.0
 10
55.7370574428
 20
316.5296158361
 30
0.0
  0
SPLINE
  5
2C4
100
AcDbEntity
  8
2
100
AcDbSpline
 62
7
  6
CONTINUOUS
 70
0
 71
3
 72
16
 73
12
 74
0
 42
0.0000001
 43
0.0000001
 44
0.0000000001
 40
0.0
 40
0.0
 40
0.0
 40
0.0
 40
0.3824806684
 40
0.5553415321
 40
0.7067320771
 40
0.830963095
 40
0.9234428706
 40
0.9564907084
 40
0.9803509061
 40
0.9948643621
 40
1.0
 40
1.0
 40
1.0
 40
1.0
 10
55.840505599
 20
316.5296158361
 30
0.0
 10
55.8401717942
 20
316.548742415
 30
0.0
 10
55.8397734411
 20
316.5765181984
 30
0.0
 10
55.8394821886
 20
316.6118557674
 30
0.0
 10
55.8393927957
 20
316.6343051639
 30
0.0
 10
55.8394718237
 20
316.6526630741
 30
0.0
 10
55.8395755822
 20
316.6652684048
 30
0.0
 10
55.8398639188
 20
316.6725790143
 30
0.0
 10
55.839918821
 20
316.6764128462
 30
0.0
 10
55.8403059937
 20
316.6781038192
 30
0.0
 10
55.840248783
 20
316.6795885076
 30
0.0
 10
55.840505599
 20
316.6795929904
 30
0.0
  0
SPLINE
  5
2C5
100
AcDbEntity
  8
2
100
AcDbSpline
 62
7
  6
CONTINUOUS
 70
0
 71
3
 72
11
 73
7
 74
0
 42
0.0000001
 43
0.0000001
 44
0.0000000001
 40
0.0
 40
0.0
 40
0.0
 40
0.0
 40
0.2096754924
 40
0.4447883574
 40
0.7119535664
 40
1.0
 40
1.0
 40
1.0
 40
1.0
 10
52.8884636323
 20
272.0229197765
 30
0.0
 10
52.8745246726
 20
272.023163082
 30
0.0
 10
52.8447619883
 20
272.0326499462
 30
0.0
 10
52.810935467
 20
272.0676818049
 30
0.0
 10
52.7894848516
 20
272.116557375
 30
0.0
 10
52.7848483338
 20
272.1537457832
 30
0.0
 10
52.7850154761
 20
272.1728969308
 30
0.0
  0
SPLINE
  5
2C6
100
AcDbEntity
  8
2
100
AcDbSpline
 62
7
  6
CONTINUOUS
 70
0
 71
3
 72
11
 73
7
 74
0
 42
0.0000001
 43
0.0000001
 44
0.0000000001
 40
0.0
 40
0.0
 40
0.0
 40
0.0
 40
0.2880464336
 40
0.5552116426
 40
0.7903245076
 40
1.0
 40
1.0
 40
1.0
 40
1.0
 10
55.7370574428
 20
272.1213688466
 30
0.0
 10
55.7368903005
 20
272.102217699
 30
0.0
 10
55.7415268183
 20
272.0650292908
 30
0.0
 10
55.7629774337
 20
272.0161537207
 30
0.0
 10
55.796803955
 20
271.981121862
 30
0.0
 10
55.8265666393
 20
271.9716349978
 30
0.0
 10
55.840505599
 20
271.9713916923
 30
0.0
  0
SPLINE
  5
2C7
100
AcDbEntity
  8
2
100
AcDbSpline
 62
7
  6
CONTINUOUS
 70
0
 71
3
 72
16
 73
12
 74
0
 42
0.0000001
 43
0.0000001
 44
0.0000000001
 40
0.0
 40
0.0
 40
0.0
 40
0.0
 40
0.0051359128
 40
0.0196500846
 40
0.0435112074
 40
0.0765599552
 40
0.1690440895
 40
0.2932807233
 40
0.4446761345
 40
0.6175343506
 40
1.0
 40
1.0
 40
1.0
 40
1.0
 10
55.840505599
 20
271.9713916923
 30
0.0
 10
55.8402487692
 20
271.9713961753
 30
0.0
 10
55.8403060119
 20
271.9728809488
 30
0.0
 10
55.8399188102
 20
271.9745719882
 30
0.0
 10
55.8398639198
 20
271.9784059608
 30
0.0
 10
55.839575562
 20
271.9857168723
 30
0.0
 10
55.8394718213
 20
271.998322754
 30
0.0
 10
55.8393927939
 20
272.0166814032
 30
0.0
 10
55.8394822014
 20
272.0391311917
 30
0.0
 10
55.8397734517
 20
272.0744681201
 30
0.0
 10
55.8401718581
 20
272.1022430182
 30
0.0
 10
55.840505599
 20
272.1213688466
 30
0.0
  0
SPLINE
  5
2C8
100
AcDbEntity
  8
2
100
AcDbSpline
 62
7
  6
CONTINUOUS
 70
0
 71
3
 72
16
 73
12
 74
0
 42
0.0000001
 43
0.0000001
 44
0.0000000001
 40
0.0
 40
0.0
 40
0.0
 40
0.0
 40
0.3824828419
 40
0.5553444262
 40
0.7067331882
 40
0.8309608931
 40
0.9234427753
 40
0.9564955332
 40
0.9803599747
 40
0.9948729953
 40
1.0
 40
1.0
 40
1.0
 40
1.0
 10
56.8480417008
 20
272.1037822385
 30
0.0
 10
56.8477079447
 20
272.0846555404
 30
0.0
 10
56.8473095444
 20
272.0568795664
 30
0.0
 10
56.8470182681
 20
272.0215420036
 30
0.0
 10
56.8469289205
 20
271.9990926264
 30
0.0
 10
56.8470078724
 20
271.9807353787
 30
0.0
 10
56.8471118307
 20
271.968128711
 30
0.0
 10
56.8473998897
 20
271.9608191337
 30
0.0
 10
56.8474551685
 20
271.9569821579
 30
0.0
 10
56.8478414869
 20
271.9552961292
 30
0.0
 10
56.847785287
 20
271.9538073218
 30
0.0
 10
56.8480417008
 20
271.9538050843
 30
0.0
  0
SPLINE
  5
2C9
100
AcDbEntity
  8
2
100
AcDbSpline
 62
7
  6
CONTINUOUS
 70
0
 71
3
 72
11
 73
7
 74
0
 42
0.0000001
 43
0.0000001
 44
0.0000000001
 40
0.0
 40
0.0
 40
0.0
 40
0.0
 40
0.2880296939
 40
0.5551925904
 40
0.7903160342
 40
1.0
 40
1.0
 40
1.0
 40
1.0
 10
52.7850154761
 20
316.4780877519
 30
0.0
 10
52.7848483436
 20
316.4972377817
 30
0.0
 10
52.7894842247
 20
316.5344248948
 30
0.0
 10
52.8109337361
 20
316.5833002839
 30
0.0
 10
52.844760225
 20
316.6183337426
 30
0.0
 10
52.8745241128
 20
316.6278215909
 30
0.0
 10
52.8884636323
 20
316.6280649062
 30
0.0
  0
SPLINE
  5
2CA
100
AcDbEntity
  8
2
100
AcDbSpline
 62
7
  6
CONTINUOUS
 70
0
 71
3
 72
16
 73
12
 74
0
 42
0.0000001
 43
0.0000001
 44
0.0000000001
 40
0.0
 40
0.0
 40
0.0
 40
0.0
 40
0.0050940559
 40
0.0195218854
 40
0.0433220147
 40
0.0762976477
 40
0.1684672756
 40
0.2925651251
 40
0.4438181549
 40
0.6167449744
 40
1.0
 40
1.0
 40
1.0
 40
1.0
 10
56.8480417008
 20
266.6971795984
 30
0.0
 10
56.8477869632
 20
266.697175152
 30
0.0
 10
56.847838464
 20
266.6957020443
 30
0.0
 10
56.8474558584
 20
266.6940168626
 30
0.0
 10
56.8473998611
 20
266.6901950839
 30
0.0
 10
56.8471139091
 20
266.6829059047
 30
0.0
 10
56.8470078907
 20
266.6703268042
 30
0.0
 10
56.8469292127
 20
266.6519977557
 30
0.0
 10
56.8470171742
 20
266.6295585486
 30
0.0
 10
56.8473087068
 20
266.5941857178
 30
0.0
 10
56.84770727
 20
266.5663678093
 30
0.0
 10
56.8480417008
 20
266.5472024442
 30
0.0
  0
SPLINE
  5
2CB
100
AcDbEntity
  8
2
100
AcDbSpline
 62
7
  6
CONTINUOUS
 70
0
 71
3
 72
11
 73
7
 74
0
 42
0.0000001
 43
0.0000001
 44
0.0000000001
 40
0.0
 40
0.0
 40
0.0
 40
0.0
 40
0.2096754924
 40
0.4447883574
 40
0.7119535664
 40
1.0
 40
1.0
 40
1.0
 40
1.0
 10
55.840505599
 20
266.6795929904
 30
0.0
 10
55.8265666393
 20
266.6793496849
 30
0.0
 10
55.796803955
 20
266.6698628207
 30
0.0
 10
55.7629774337
 20
266.634830962
 30
0.0
 10
55.7415268183
 20
266.585955392
 30
0.0
 10
55.7368903005
 20
266.5487669837
 30
0.0
 10
55.7370574428
 20
266.5296158361
 30
0.0
  0
SPLINE
  5
2CC
100
AcDbEntity
  8
2
100
AcDbSpline
 62
7
  6
CONTINUOUS
 70
0
 71
3
 72
16
 73
12
 74
0
 42
0.0000001
 43
0.0000001
 44
0.0000000001
 40
0.0
 40
0.0
 40
0.0
 40
0.0
 40
0.3824806684
 40
0.5553415321
 40
0.7067320771
 40
0.830963095
 40
0.9234428706
 40
0.9564907084
 40
0.9803509061
 40
0.9948643621
 40
1.0
 40
1.0
 40
1.0
 40
1.0
 10
55.840505599
 20
266.5296158361
 30
0.0
 10
55.8401717942
 20
266.548742415
 30
0.0
 10
55.8397734411
 20
266.5765181984
 30
0.0
 10
55.8394821886
 20
266.6118557674
 30
0.0
 10
55.8393927957
 20
266.6343051639
 30
0.0
 10
55.8394718237
 20
266.6526630741
 30
0.0
 10
55.8395755822
 20
266.6652684048
 30
0.0
 10
55.8398639188
 20
266.6725790143
 30
0.0
 10
55.839918821
 20
266.6764128462
 30
0.0
 10
55.8403059937
 20
266.6781038192
 30
0.0
 10
55.840248783
 20
266.6795885076
 30
0.0
 10
55.840505599
 20
266.6795929904
 30
0.0
  0
SPLINE
  5
2CD
100
AcDbEntity
  8
2
100
AcDbSpline
 62
7
  6
CONTINUOUS
 70
0
 71
3
 72
11
 73
7
 74
0
 42
0.0000001
 43
0.0000001
 44
0.0000000001
 40
0.0
 40
0.0
 40
0.0
 40
0.0
 40
0.2096754924
 40
0.4447883574
 40
0.7119535664
 40
1.0
 40
1.0
 40
1.0
 40
1.0
 10
52.8884636323
 20
222.0229197765
 30
0.0
 10
52.8745246726
 20
222.023163082
 30
0.0
 10
52.8447619883
 20
222.0326499462
 30
0.0
 10
52.810935467
 20
222.0676818049
 30
0.0
 10
52.7894848516
 20
222.116557375
 30
0.0
 10
52.7848483338
 20
222.1537457832
 30
0.0
 10
52.7850154761
 20
222.1728969308
 30
0.0
  0
SPLINE
  5
2CE
100
AcDbEntity
  8
2
100
AcDbSpline
 62
7
  6
CONTINUOUS
 70
0
 71
3
 72
11
 73
7
 74
0
 42
0.0000001
 43
0.0000001
 44
0.0000000001
 40
0.0
 40
0.0
 40
0.0
 40
0.0
 40
0.2880464336
 40
0.5552116426
 40
0.7903245076
 40
1.0
 40
1.0
 40
1.0
 40
1.0
 10
55.7370574428
 20
222.1213688466
 30
0.0
 10
55.7368903005
 20
222.102217699
 30
0.0
 10
55.7415268183
 20
222.0650292908
 30
0.0
 10
55.7629774337
 20
222.0161537207
 30
0.0
 10
55.796803955
 20
221.981121862
 30
0.0
 10
55.8265666393
 20
221.9716349978
 30
0.0
 10
55.840505599
 20
221.9713916923
 30
0.0
  0
SPLINE
  5
2CF
100
AcDbEntity
  8
2
100
AcDbSpline
 62
7
  6
CONTINUOUS
 70
0
 71
3
 72
16
 73
12
 74
0
 42
0.0000001
 43
0.0000001
 44
0.0000000001
 40
0.0
 40
0.0
 40
0.0
 40
0.0
 40
0.0051359128
 40
0.0196500846
 40
0.0435112074
 40
0.0765599552
 40
0.1690440895
 40
0.2932807233
 40
0.4446761345
 40
0.6175343506
 40
1.0
 40
1.0
 40
1.0
 40
1.0
 10
55.840505599
 20
221.9713916923
 30
0.0
 10
55.8402487692
 20
221.9713961753
 30
0.0
 10
55.8403060119
 20
221.9728809488
 30
0.0
 10
55.8399188102
 20
221.9745719882
 30
0.0
 10
55.8398639198
 20
221.9784059608
 30
0.0
 10
55.839575562
 20
221.9857168723
 30
0.0
 10
55.8394718213
 20
221.998322754
 30
0.0
 10
55.8393927939
 20
222.0166814032
 30
0.0
 10
55.8394822014
 20
222.0391311917
 30
0.0
 10
55.8397734517
 20
222.0744681201
 30
0.0
 10
55.8401718581
 20
222.1022430182
 30
0.0
 10
55.840505599
 20
222.1213688466
 30
0.0
  0
SPLINE
  5
2D0
100
AcDbEntity
  8
2
100
AcDbSpline
 62
7
  6
CONTINUOUS
 70
0
 71
3
 72
16
 73
12
 74
0
 42
0.0000001
 43
0.0000001
 44
0.0000000001
 40
0.0
 40
0.0
 40
0.0
 40
0.0
 40
0.3824806684
 40
0.5553415321
 40
0.7067320771
 40
0.830963095
 40
0.9234428706
 40
0.9564907084
 40
0.9803509061
 40
0.9948643621
 40
1.0
 40
1.0
 40
1.0
 40
1.0
 10
56.8480417008
 20
222.1037822385
 30
0.0
 10
56.8477078959
 20
222.0846556596
 30
0.0
 10
56.8473095428
 20
222.0568798762
 30
0.0
 10
56.8470182903
 20
222.0215423073
 30
0.0
 10
56.8469288975
 20
221.9990929108
 30
0.0
 10
56.8470079254
 20
221.9807350006
 30
0.0
 10
56.8471116839
 20
221.9681296698
 30
0.0
 10
56.8474000205
 20
221.9608190603
 30
0.0
 10
56.8474549227
 20
221.9569852284
 30
0.0
 10
56.8478420955
 20
221.9552942555
 30
0.0
 10
56.8477848847
 20
221.953809567
 30
0.0
 10
56.8480417008
 20
221.9538050843
 30
0.0
  0
SPLINE
  5
2D1
100
AcDbEntity
  8
2
100
AcDbSpline
 62
7
  6
CONTINUOUS
 70
0
 71
3
 72
11
 73
7
 74
0
 42
0.0000001
 43
0.0000001
 44
0.0000000001
 40
0.0
 40
0.0
 40
0.0
 40
0.0
 40
0.2880296939
 40
0.5551925904
 40
0.7903160342
 40
1.0
 40
1.0
 40
1.0
 40
1.0
 10
52.7850154761
 20
266.4780877519
 30
0.0
 10
52.7848483436
 20
266.4972377817
 30
0.0
 10
52.7894842247
 20
266.5344248948
 30
0.0
 10
52.8109337361
 20
266.5833002839
 30
0.0
 10
52.844760225
 20
266.6183337426
 30
0.0
 10
52.8745241128
 20
266.6278215909
 30
0.0
 10
52.8884636323
 20
266.6280649062
 30
0.0
  0
SPLINE
  5
2D2
100
AcDbEntity
  8
2
100
AcDbSpline
 62
7
  6
CONTINUOUS
 70
0
 71
3
 72
16
 73
12
 74
0
 42
0.0000001
 43
0.0000001
 44
0.0000000001
 40
0.0
 40
0.0
 40
0.0
 40
0.0
 40
0.0050940559
 40
0.0195218854
 40
0.0433220147
 40
0.0762976477
 40
0.1684672756
 40
0.2925651251
 40
0.4438181549
 40
0.6167449744
 40
1.0
 40
1.0
 40
1.0
 40
1.0
 10
56.8480417008
 20
216.6971795984
 30
0.0
 10
56.8477869632
 20
216.697175152
 30
0.0
 10
56.847838464
 20
216.6957020443
 30
0.0
 10
56.8474558584
 20
216.6940168626
 30
0.0
 10
56.8473998611
 20
216.6901950839
 30
0.0
 10
56.8471139091
 20
216.6829059047
 30
0.0
 10
56.8470078907
 20
216.6703268042
 30
0.0
 10
56.8469292127
 20
216.6519977557
 30
0.0
 10
56.8470171742
 20
216.6295585486
 30
0.0
 10
56.8473087068
 20
216.5941857178
 30
0.0
 10
56.84770727
 20
216.5663678093
 30
0.0
 10
56.8480417008
 20
216.5472024442
 30
0.0
  0
SPLINE
  5
2D3
100
AcDbEntity
  8
2
100
AcDbSpline
 62
7
  6
CONTINUOUS
 70
0
 71
3
 72
11
 73
7
 74
0
 42
0.0000001
 43
0.0000001
 44
0.0000000001
 40
0.0
 40
0.0
 40
0.0
 40
0.0
 40
0.2096754924
 40
0.4447883574
 40
0.7119535664
 40
1.0
 40
1.0
 40
1.0
 40
1.0
 10
55.840505599
 20
216.6795929904
 30
0.0
 10
55.8265666393
 20
216.6793496849
 30
0.0
 10
55.796803955
 20
216.6698628207
 30
0.0
 10
55.7629774337
 20
216.634830962
 30
0.0
 10
55.7415268183
 20
216.585955392
 30
0.0
 10
55.7368903005
 20
216.5487669837
 30
0.0
 10
55.7370574428
 20
216.5296158361
 30
0.0
  0
SPLINE
  5
2D4
100
AcDbEntity
  8
2
100
AcDbSpline
 62
7
  6
CONTINUOUS
 70
0
 71
3
 72
16
 73
12
 74
0
 42
0.0000001
 43
0.0000001
 44
0.0000000001
 40
0.0
 40
0.0
 40
0.0
 40
0.0
 40
0.3824806684
 40
0.5553415321
 40
0.7067320771
 40
0.830963095
 40
0.9234428706
 40
0.9564907084
 40
0.9803509061
 40
0.9948643621
 40
1.0
 40
1.0
 40
1.0
 40
1.0
 10
55.840505599
 20
216.5296158361
 30
0.0
 10
55.8401717942
 20
216.548742415
 30
0.0
 10
55.8397734411
 20
216.5765181984
 30
0.0
 10
55.8394821886
 20
216.6118557674
 30
0.0
 10
55.8393927957
 20
216.6343051639
 30
0.0
 10
55.8394718237
 20
216.6526630741
 30
0.0
 10
55.8395755822
 20
216.6652684048
 30
0.0
 10
55.8398639188
 20
216.6725790143
 30
0.0
 10
55.839918821
 20
216.6764128462
 30
0.0
 10
55.8403059937
 20
216.6781038192
 30
0.0
 10
55.840248783
 20
216.6795885076
 30
0.0
 10
55.840505599
 20
216.6795929904
 30
0.0
  0
SPLINE
  5
2D5
100
AcDbEntity
  8
2
100
AcDbSpline
 62
7
  6
CONTINUOUS
 70
0
 71
3
 72
11
 73
7
 74
0
 42
0.0000001
 43
0.0000001
 44
0.0000000001
 40
0.0
 40
0.0
 40
0.0
 40
0.0
 40
0.2096754924
 40
0.4447883574
 40
0.7119535664
 40
1.0
 40
1.0
 40
1.0
 40
1.0
 10
52.8884636323
 20
172.0229197765
 30
0.0
 10
52.8745246726
 20
172.023163082
 30
0.0
 10
52.8447619883
 20
172.0326499462
 30
0.0
 10
52.810935467
 20
172.0676818049
 30
0.0
 10
52.7894848516
 20
172.116557375
 30
0.0
 10
52.7848483338
 20
172.1537457832
 30
0.0
 10
52.7850154761
 20
172.1728969308
 30
0.0
  0
SPLINE
  5
2D6
100
AcDbEntity
  8
2
100
AcDbSpline
 62
7
  6
CONTINUOUS
 70
0
 71
3
 72
11
 73
7
 74
0
 42
0.0000001
 43
0.0000001
 44
0.0000000001
 40
0.0
 40
0.0
 40
0.0
 40
0.0
 40
0.2880464336
 40
0.5552116426
 40
0.7903245076
 40
1.0
 40
1.0
 40
1.0
 40
1.0
 10
55.7370574428
 20
172.1213688466
 30
0.0
 10
55.7368903005
 20
172.102217699
 30
0.0
 10
55.7415268183
 20
172.0650292908
 30
0.0
 10
55.7629774337
 20
172.0161537207
 30
0.0
 10
55.796803955
 20
171.981121862
 30
0.0
 10
55.8265666393
 20
171.9716349978
 30
0.0
 10
55.840505599
 20
171.9713916923
 30
0.0
  0
SPLINE
  5
2D7
100
AcDbEntity
  8
2
100
AcDbSpline
 62
7
  6
CONTINUOUS
 70
0
 71
3
 72
16
 73
12
 74
0
 42
0.0000001
 43
0.0000001
 44
0.0000000001
 40
0.0
 40
0.0
 40
0.0
 40
0.0
 40
0.0051359128
 40
0.0196500846
 40
0.0435112074
 40
0.0765599552
 40
0.1690440895
 40
0.2932807233
 40
0.4446761345
 40
0.6175343506
 40
1.0
 40
1.0
 40
1.0
 40
1.0
 10
55.840505599
 20
171.9713916923
 30
0.0
 10
55.8402487692
 20
171.9713961753
 30
0.0
 10
55.8403060119
 20
171.9728809488
 30
0.0
 10
55.8399188102
 20
171.9745719882
 30
0.0
 10
55.8398639198
 20
171.9784059608
 30
0.0
 10
55.839575562
 20
171.9857168723
 30
0.0
 10
55.8394718213
 20
171.998322754
 30
0.0
 10
55.8393927939
 20
172.0166814032
 30
0.0
 10
55.8394822014
 20
172.0391311917
 30
0.0
 10
55.8397734517
 20
172.0744681201
 30
0.0
 10
55.8401718581
 20
172.1022430182
 30
0.0
 10
55.840505599
 20
172.1213688466
 30
0.0
  0
SPLINE
  5
2D8
100
AcDbEntity
  8
2
100
AcDbSpline
 62
7
  6
CONTINUOUS
 70
0
 71
3
 72
16
 73
12
 74
0
 42
0.0000001
 43
0.0000001
 44
0.0000000001
 40
0.0
 40
0.0
 40
0.0
 40
0.0
 40
0.3824806684
 40
0.5553415321
 40
0.7067320771
 40
0.830963095
 40
0.9234428706
 40
0.9564907084
 40
0.9803509061
 40
0.9948643621
 40
1.0
 40
1.0
 40
1.0
 40
1.0
 10
56.8480417008
 20
172.1037822385
 30
0.0
 10
56.8477078959
 20
172.0846556596
 30
0.0
 10
56.8473095428
 20
172.0568798762
 30
0.0
 10
56.8470182903
 20
172.0215423073
 30
0.0
 10
56.8469288975
 20
171.9990929108
 30
0.0
 10
56.8470079254
 20
171.9807350006
 30
0.0
 10
56.8471116839
 20
171.9681296698
 30
0.0
 10
56.8474000205
 20
171.9608190603
 30
0.0
 10
56.8474549227
 20
171.9569852284
 30
0.0
 10
56.8478420955
 20
171.9552942555
 30
0.0
 10
56.8477848847
 20
171.953809567
 30
0.0
 10
56.8480417008
 20
171.9538050843
 30
0.0
  0
SPLINE
  5
2D9
100
AcDbEntity
  8
2
100
AcDbSpline
 62
7
  6
CONTINUOUS
 70
0
 71
3
 72
11
 73
7
 74
0
 42
0.0000001
 43
0.0000001
 44
0.0000000001
 40
0.0
 40
0.0
 40
0.0
 40
0.0
 40
0.2880296939
 40
0.5551925904
 40
0.7903160342
 40
1.0
 40
1.0
 40
1.0
 40
1.0
 10
52.7850154761
 20
216.4780877519
 30
0.0
 10
52.7848483436
 20
216.4972377817
 30
0.0
 10
52.7894842247
 20
216.5344248948
 30
0.0
 10
52.8109337361
 20
216.5833002839
 30
0.0
 10
52.844760225
 20
216.6183337426
 30
0.0
 10
52.8745241128
 20
216.6278215909
 30
0.0
 10
52.8884636323
 20
216.6280649062
 30
0.0
  0
SPLINE
  5
2DA
100
AcDbEntity
  8
1
100
AcDbSpline
 62
7
  6
CONTINUOUS
 70
0
 71
3
 72
11
 73
7
 74
0
 42
0.0000001
 43
0.0000001
 44
0.0000000001
 40
0.0
 40
0.0
 40
0.0
 40
0.0
 40
0.2576793725
 40
0.5132024896
 40
0.7625483649
 40
1.0
 40
1.0
 40
1.0
 40
1.0
 10
45.7410814933
 20
314.9870056952
 30
0.0
 10
46.0948968814
 20
314.9870056952
 30
0.0
 10
46.805520988
 20
315.1113504009
 30
0.0
 10
47.732166519
 20
315.6406022835
 30
0.0
 10
48.4097407799
 20
316.4282896553
 30
0.0
 10
48.6500718313
 20
317.070406204
 30
0.0
 10
48.7048127491
 20
317.3918189776
 30
0.0
  0
SPLINE
  5
2DB
100
AcDbEntity
  8
1
100
AcDbSpline
 62
7
  6
CONTINUOUS
 70
0
 71
3
 72
11
 73
7
 74
0
 42
0.0000001
 43
0.0000001
 44
0.0000000001
 40
0.0
 40
0.0
 40
0.0
 40
0.0
 40
0.2504365942
 40
0.5001131693
 40
0.7496444991
 40
1.0
 40
1.0
 40
1.0
 40
1.0
 10
42.7410814933
 20
314.9870056952
 30
0.0
 10
42.4195302475
 20
314.9870056952
 30
0.0
 10
41.7727222426
 20
314.8849368654
 30
0.0
 10
40.9031063933
 20
314.4352926142
 30
0.0
 10
40.2241228027
 20
313.7290552361
 30
0.0
 10
39.9485201863
 20
313.1346936029
 30
0.0
 10
39.8606405298
 20
312.8254923414
 30
0.0
  0
SPLINE
  5
2DC
100
AcDbEntity
  8
1
100
AcDbSpline
 62
7
  6
CONTINUOUS
 70
0
 71
3
 72
11
 73
7
 74
0
 42
0.0000001
 43
0.0000001
 44
0.0000000001
 40
0.0
 40
0.0
 40
0.0
 40
0.0
 40
0.2629416638
 40
0.5226158318
 40
0.7715456317
 40
1.0
 40
1.0
 40
1.0
 40
1.0
 10
45.7410814933
 20
314.5547030244
 30
0.0
 10
46.136730714
 20
314.5547030244
 30
0.0
 10
46.9314040971
 20
314.7106230069
 30
0.0
 10
47.9258898102
 20
315.3612638942
 30
0.0
 10
48.5806231539
 20
316.2894923872
 30
0.0
 10
48.7410814933
 20
317.0138370954
 30
0.0
 10
48.7410814933
 20
317.3575931647
 30
0.0
  0
SPLINE
  5
2DD
100
AcDbEntity
  8
1
100
AcDbSpline
 62
7
  6
CONTINUOUS
 70
0
 71
3
 72
11
 73
7
 74
0
 42
0.0000001
 43
0.0000001
 44
0.0000000001
 40
0.0
 40
0.0
 40
0.0
 40
0.0
 40
0.2502586165
 40
0.4998619466
 40
0.7496425824
 40
1.0
 40
1.0
 40
1.0
 40
1.0
 10
40.0235284557
 20
312.8254923414
 30
0.0
 10
40.1410955282
 20
313.0829941333
 30
0.0
 10
40.4510224027
 20
313.566979684
 30
0.0
 10
41.1042549404
 20
314.1259102097
 30
0.0
 10
41.8890170106
 20
314.475734139
 30
0.0
 10
42.4578987409
 20
314.5547030244
 30
0.0
 10
42.7410814933
 20
314.5547030244
 30
0.0
  0
SPLINE
  5
2DE
100
AcDbEntity
  8
1
100
AcDbSpline
 62
7
  6
CONTINUOUS
 70
0
 71
3
 72
15
 73
11
 74
0
 42
0.0000001
 43
0.0000001
 44
0.0000000001
 40
0.0
 40
0.0
 40
0.0
 40
0.0
 40
0.0269313891
 40
0.0620237187
 40
0.154598725
 40
0.2703526016
 40
0.4019003313
 40
0.5439021633
 40
0.6926304753
 40
1.0
 40
1.0
 40
1.0
 40
1.0
 10
177.4410814933
 20
322.3648843556
 30
0.0
 10
177.4410814933
 20
322.2580692329
 30
0.0
 10
177.4935197244
 20
322.0134861746
 30
0.0
 10
177.7293010536
 20
321.4470286363
 30
0.0
 10
178.2332898574
 20
320.6185538319
 30
0.0
 10
179.0098910992
 20
319.5176149317
 30
0.0
 10
179.9487129276
 20
318.2909850634
 30
0.0
 10
180.9939762168
 20
316.9824435917
 30
0.0
 10
182.4976802303
 20
315.1476406887
 30
0.0
 10
183.6588066692
 20
313.7604895914
 30
0.0
 10
184.4410814933
 20
312.8254923414
 30
0.0
  0
SPLINE
  5
2DF
100
AcDbEntity
  8
1
100
AcDbSpline
 62
7
  6
CONTINUOUS
 70
0
 71
3
 72
15
 73
11
 74
0
 42
0.0000001
 43
0.0000001
 44
0.0000000001
 40
0.0
 40
0.0
 40
0.0
 40
0.0
 40
0.3073695683
 40
0.4560978777
 40
0.5980997257
 40
0.7296474336
 40
0.8454013433
 40
0.9379763776
 40
0.9730686492
 40
1.0
 40
1.0
 40
1.0
 40
1.0
 10
184.4410814933
 20
102.8254923414
 30
0.0
 10
183.658806558
 20
101.8904949583
 30
0.0
 10
182.4976800151
 20
100.5033437357
 30
0.0
 10
180.9939758663
 20
98.6685406505
 30
0.0
 10
179.9487126037
 20
97.3599992003
 30
0.0
 10
179.0098907134
 20
96.1333692416
 30
0.0
 10
178.2332894207
 20
95.032430186
 30
0.0
 10
177.7293006702
 20
94.2039553308
 30
0.0
 10
177.4935195517
 20
93.637497988
 30
0.0
 10
177.4410814933
 20
93.3929152979
 30
0.0
 10
177.4410814933
 20
93.2861003272
 30
0.0
  0
ELLIPSE
  5
2E0
100
AcDbEntity
  8
1
100
AcDbEllipse
 62
7
  6
CONTINUOUS
 10
42.7410814933
 20
311.966703825
 30
0.0
 11
0.0
 21
-3.072637544
 31
0.0
 40
0.9763598723
 41
-1.8540650062
 42
-1.5707963268
  0
ELLIPSE
  5
2E1
100
AcDbEntity
  8
1
100
AcDbEllipse
 62
7
  6
CONTINUOUS
 10
48.7410814933
 20
312.8254923414
 30
0.0
 11
10.0
 21
0.0
 31
0.0
 40
1.0
 41
0.0
 42
1.0471975512
  0
ELLIPSE
  5
2E2
100
AcDbEntity
  8
1
100
AcDbEllipse
 62
7
  6
CONTINUOUS
 10
42.7410814933
 20
311.5239340195
 30
0.0
 11
0.0
 21
3.072637544
 31
0.0
 40
0.9763598723
 41
1.1333844427
 42
1.5707963268
  0
ELLIPSE
  5
2E3
100
AcDbEntity
  8
1
100
AcDbEllipse
 62
7
  6
CONTINUOUS
 10
53.7410814933
 20
160.8254923414
 30
0.0
 11
5.0
 21
0.0
 31
0.0
 40
1.0
 41
-0.0
 42
1.5707963268
  0
ENDSEC
  0
SECTION
  2
OBJECTS
  0
DICTIONARY
  5
C
100
AcDbDictionary
280
0
281
1
  3
ACAD_GROUP
350
D
  3
ACAD_MLINESTYLE
350
17
  3
ACAD_LAYOUT
350
1A
  3
ACAD_PLOTSETTINGS
350
19
  3
ACAD_PLOTSTYLENAME
350
E
  0
DICTIONARY
  5
D
102
{ACAD_REACTORS
330
C
102
}
100
AcDbDictionary
280
0
281
1
  0
ACDBDICTIONARYWDFLT
  5
E
102
{ACAD_REACTORS
330
C
102
}
100
AcDbDictionary
281
1
  3
Normal
350
F
100
AcDbDictionaryWithDefault
340
F
  0
DICTIONARY
  5
17
102
{ACAD_REACTORS
330
C
102
}
100
AcDbDictionary
280
0
281
1
  3
Standard
350
18
  0
DICTIONARY
  5
19
102
{ACAD_REACTORS
330
C
102
}
100
AcDbDictionary
281
1
  0
DICTIONARY
  5
1A
102
{ACAD_REACTORS
330
C
102
}
100
AcDbDictionary
281
1
  3
Model
350
2E4
  3
Layout1
350
2E5
  0
ACDBPLACEHOLDER
  5
F
102
{ACAD_REACTORS
330
E
102
}
  0
MLINESTYLE
  5
18
102
{ACAD_REACTORS
330
17
102
}
100
AcDbMlineStyle
  2
STANDARD
 70
0
  3

 62
256
 51
90.0
 52
90.0
 71
2
 49
0.5
 62
256
  6
BYLAYER
 49
-0.5
 62
256
  6
BYLAYER
  0
LAYOUT
  5
2E4
102
{ACAD_REACTORS
330
1A
102
}
100
AcDbPlotSettings
  1

  2
none_device
  4

  6

 40
0.0
 41
0.0
 42
0.0
 43
0.0
 44
210.0
 45
297.0
 46
0.0
 47
0.0
 48
0.0
 49
0.0
140
0.0
141
0.0
142
1.0
143
1.0
 70
1024
 72
1
 73
0
 74
0
  7

 75
0
147
1.0
148
0.0
149
0.0
100
AcDbLayout
  1
Model
 70
0
 71
0
 10
0.0
 20
0.0
 11
210.0
 21
297.0
 12
0.0
 22
0.0
 32
0.0
 14
0.0
 24
0.0
 34
0.0
 15
0.0
 25
0.0
 35
0.0
146
0.0
 13
0.0
 23
0.0
 33
0.0
 16
1.0
 26
0.0
 36
0.0
 17
0.0
 27
1.0
 37
0.0
 76
0
330
212
345
0
346
0
  0
LAYOUT
  5
2E5
102
{ACAD_REACTORS
330
1A
102
}
100
AcDbPlotSettings
  1

  2
none_device
  4

  6

 40
0.0
 41
0.0
 42
0.0
 43
0.0
 44
210.0
 45
297.0
 46
0.0
 47
0.0
 48
0.0
 49
0.0
140
0.0
141
0.0
142
1.0
143
1.0
 70
0
 72
1
 73
0
 74
0
  7

 75
0
147
1.0
148
0.0
149
0.0
100
AcDbLayout
  1
Layout1
 70
0
 71
1
 10
0.0
 20
0.0
 11
210.0
 21
297.0
 12
0.0
 22
0.0
 32
0.0
 14
0.0
 24
0.0
 34
0.0
 15
0.0
 25
0.0
 35
0.0
146
0.0
 13
0.0
 23
0.0
 33
0.0
 16
1.0
 26
0.0
 36
0.0
 17
0.0
 27
1.0
 37
0.0
 76
0
330
213
345
0
346
0
  0
ENDSEC
  0
EOF
