999
DXF file: C:\Users\sesa63760\Dev\_Creo\CAD\MCADPP0003519_3D-CAD\drw0001_6.dxf
999
Pro/ENGINEER 2019471 by Parametric Technology Corporation
  0
SECTION
  2
HEADER
  9
$ACADVER
  1
AC1024
  9
$DWGCODEPAGE
  3
ANSI_1252
  9
$EXTMAX
 10
75.8437769379
 20
107.2647702407
 30
0.0
  9
$EXTMIN
 10
0.0
 20
0.0
 30
0.0
  9
$LIMMIN
 10
0.0
 20
0.0
  9
$LIMMAX
 10
75.8437769379
 20
107.2647702407
  9
$VIEWCTR
 10
37.9218884689
 20
53.6323851204
  9
$VIEWSIZE
 40
107.2647702407
  9
$CLAYER
  8
0
  9
$LTSCALE
 40
6.992073912
  9
$CELTYPE
  6
BYLAYER
  9
$DIMSCALE
 40
1.0
  9
$DIMASZ
 40
0.9029021064
  9
$DIMEXO
 40
1.0
  9
$DIMDLI
 40
4.8308874301
  9
$DIMEXE
 40
1.0
  9
$DIMCEN
 40
1.1441575492
  9
$DIMLFAC
 40
1.0
  9
$DIMBLK
  1
_FILLED
  9
$DIMALT
 70
0
  9
$DIMALTF
 40
0.0393700787
  9
$DIMTXT
 40
1.264062949
  9
$DIMTOL
 70
1
  9
$DIMLIM
 70
0
  9
$DIMTFAC
 40
1.0
  9
$DIMTP
 40
0.01
  9
$DIMTM
 40
0.01
  9
$DIMGAP
 40
0.625
  9
$DIMDSEP
 70
46
  9
$AUNITS
 70
0
  9
$PDMODE
 70
3
  9
$PDSIZE
 40
0.3125
  9
$HANDSEED
  5
24A
  9
$TILEMODE
 70
1
  9
$MEASUREMENT
 70
1
  9
$INSUNITS
 70
4
  0
ENDSEC
  0
SECTION
  2
CLASSES
  0
CLASS
  1
ACDBDICTIONARYWDFLT
  2
AcDbDictionaryWithDefault
  3
AutoCAD 2000
 90
0
 91
1
280
0
281
0
  0
CLASS
  1
ACDBPLACEHOLDER
  2
AcDbPlaceHolder
  3
AutoCAD 2000
 90
0
 91
1
280
0
281
0
  0
CLASS
  1
LAYOUT
  2
AcDbLayout
  3
AutoCAD 2000
 90
0
 91
0
280
0
281
0
  0
ENDSEC
  0
SECTION
  2
TABLES
  0
TABLE
  2
VPORT
  5
8
100
AcDbSymbolTable
 70
2
  0
VPORT
  5
1F4
100
AcDbSymbolTableRecord
100
AcDbViewportTableRecord
  2
*ACTIVE
 70
0
 10
0.0
 20
0.0
 11
1.0
 21
1.0
 12
37.9218884689
 22
53.6323851204
 13
0.0
 23
0.0
 14
1.0
 24
1.0
 15
0.0
 25
0.0
 16
0.0
 26
0.0
 36
1.0
 17
0.0
 27
0.0
 37
0.0
 40
107.2647702407
 41
0.7070707071
 42
50.0
 43
0.0
 44
0.0
 50
0.0
 51
0.0
 71
0
 72
100
 73
1
 74
1
 75
0
 76
0
 77
0
 78
0
  0
ENDTAB
  0
TABLE
  2
LTYPE
  5
5
100
AcDbSymbolTable
 70
6
  0
LTYPE
  5
14
100
AcDbSymbolTableRecord
100
AcDbLinetypeTableRecord
  2
BYBLOCK
 70
0
  3

 72
65
 73
0
 40
0.0
  0
LTYPE
  5
15
100
AcDbSymbolTableRecord
100
AcDbLinetypeTableRecord
  2
BYLAYER
 70
0
  3

 72
65
 73
0
 40
0.0
  0
LTYPE
  5
16
100
AcDbSymbolTableRecord
100
AcDbLinetypeTableRecord
  2
CONTINUOUS
 70
64
  3
Solid line
 72
65
 73
0
 40
0.0
  0
LTYPE
  5
1F5
100
AcDbSymbolTableRecord
100
AcDbLinetypeTableRecord
  2
CENTER
 70
64
  3
____ _ ____ _ ____ _ ____ _ ____ _ ____ _ ____
 72
65
 73
4
 40
0.6
 49
0.375
 74
0
 49
-0.075
 74
0
 49
0.075
 74
0
 49
-0.075
 74
0
  0
LTYPE
  5
1F6
100
AcDbSymbolTableRecord
100
AcDbLinetypeTableRecord
  2
HIDDEN
 70
64
  3
- - - - - - - - - - - - - - - - - - - -
 72
65
 73
2
 40
0.2
 49
0.1
 74
0
 49
-0.1
 74
0
  0
LTYPE
  5
1F7
100
AcDbSymbolTableRecord
100
AcDbLinetypeTableRecord
  2
PHANTOM
 70
64
  3
_____ _ _ _____ _ _ _____ _ _ _____
 72
65
 73
6
 40
0.8
 49
0.45
 74
0
 49
-0.05
 74
0
 49
0.1
 74
0
 49
-0.05
 74
0
 49
0.1
 74
0
 49
-0.05
 74
0
  0
LTYPE
  5
1F8
100
AcDbSymbolTableRecord
100
AcDbLinetypeTableRecord
  2
DOT
 70
64
  3
. . . . . . . . . . . . . . . . . . . .
 72
65
 73
2
 40
0.2
 49
0.1
 74
0
 49
-0.1
 74
0
  0
LTYPE
  5
1F9
100
AcDbSymbolTableRecord
100
AcDbLinetypeTableRecord
  2
DASHED
 70
64
  3
- - - - - - - - - - - - - - - - - - - -
 72
65
 73
2
 40
0.2
 49
0.1
 74
0
 49
-0.1
 74
0
  0
ENDTAB
  0
TABLE
  2
LAYER
  5
2
100
AcDbSymbolTable
 70
36
  0
LAYER
  5
10
100
AcDbSymbolTableRecord
100
AcDbLayerTableRecord
  2
0
 70
0
 62
7
  6
CONTINUOUS
370
-3
390
F
  0
LAYER
  5
1FA
100
AcDbSymbolTableRecord
100
AcDbLayerTableRecord
  2
DEFAULT_1
 70
0
 62
7
  6
CENTER
370
-3
390
F
  0
LAYER
  5
1FB
100
AcDbSymbolTableRecord
100
AcDbLayerTableRecord
  2
DEFAULT_2
 70
0
 62
8
  6
HIDDEN
370
-3
390
F
  0
LAYER
  5
1FC
100
AcDbSymbolTableRecord
100
AcDbLayerTableRecord
  2
DEFAULT_3
 70
0
 62
7
  6
PHANTOM
370
-3
390
F
  0
LAYER
  5
1FD
100
AcDbSymbolTableRecord
100
AcDbLayerTableRecord
  2
00_COMPONENTS
 70
0
 62
7
  6
CONTINUOUS
370
-3
390
F
  0
LAYER
  5
1FE
100
AcDbSymbolTableRecord
100
AcDbLayerTableRecord
  2
01_1_DEFAULT_DATUMS
 70
0
 62
7
  6
CONTINUOUS
370
-3
390
F
  0
LAYER
  5
1FF
100
AcDbSymbolTableRecord
100
AcDbLayerTableRecord
  2
01_PLANES
 70
0
 62
7
  6
CONTINUOUS
370
-3
390
F
  0
LAYER
  5
200
100
AcDbSymbolTableRecord
100
AcDbLayerTableRecord
  2
02_COORD_SYS
 70
0
 62
7
  6
CONTINUOUS
370
-3
390
F
  0
LAYER
  5
201
100
AcDbSymbolTableRecord
100
AcDbLayerTableRecord
  2
03_AXES
 70
0
 62
7
  6
CONTINUOUS
370
-3
390
F
  0
LAYER
  5
202
100
AcDbSymbolTableRecord
100
AcDbLayerTableRecord
  2
04_POINTS
 70
0
 62
7
  6
CONTINUOUS
370
-3
390
F
  0
LAYER
  5
203
100
AcDbSymbolTableRecord
100
AcDbLayerTableRecord
  2
05_CURVES
 70
0
 62
7
  6
CONTINUOUS
370
-3
390
F
  0
LAYER
  5
204
100
AcDbSymbolTableRecord
100
AcDbLayerTableRecord
  2
06_SURFS
 70
0
 62
7
  6
CONTINUOUS
370
-3
390
F
  0
LAYER
  5
205
100
AcDbSymbolTableRecord
100
AcDbLayerTableRecord
  2
07_COSMETICS
 70
0
 62
7
  6
CONTINUOUS
370
-3
390
F
  0
LAYER
  5
206
100
AcDbSymbolTableRecord
100
AcDbLayerTableRecord
  2
10_NOTES
 70
0
 62
7
  6
CONTINUOUS
370
-3
390
F
  0
LAYER
  5
207
100
AcDbSymbolTableRecord
100
AcDbLayerTableRecord
  2
11_NOTES_PUB
 70
0
 62
7
  6
CONTINUOUS
370
-3
390
F
  0
LAYER
  5
208
100
AcDbSymbolTableRecord
100
AcDbLayerTableRecord
  2
13_REF_GTOL
 70
0
 62
7
  6
CONTINUOUS
370
-3
390
F
  0
LAYER
  5
209
100
AcDbSymbolTableRecord
100
AcDbLayerTableRecord
  2
16_MISC
 70
0
 62
7
  6
CONTINUOUS
370
-3
390
F
  0
LAYER
  5
20A
100
AcDbSymbolTableRecord
100
AcDbLayerTableRecord
  2
17_NO_PRINT
 70
0
 62
7
  6
CONTINUOUS
370
-3
390
F
  0
LAYER
  5
20B
100
AcDbSymbolTableRecord
100
AcDbLayerTableRecord
  2
18_DATUM_CAMS_JOINTS
 70
0
 62
7
  6
CONTINUOUS
370
-3
390
F
  0
LAYER
  5
20C
100
AcDbSymbolTableRecord
100
AcDbLayerTableRecord
  2
19_DATUM_FUNCTIONAL
 70
0
 62
7
  6
CONTINUOUS
370
-3
390
F
  0
LAYER
  5
20D
100
AcDbSymbolTableRecord
100
AcDbLayerTableRecord
  2
20_DATUM_KINEMATIC_SCHEME
 70
0
 62
7
  6
CONTINUOUS
370
-3
390
F
  0
ENDTAB
  0
TABLE
  2
STYLE
  5
3
100
AcDbSymbolTable
 70
1
  0
STYLE
  5
11
100
AcDbSymbolTableRecord
100
AcDbTextStyleTableRecord
  2
STANDARD
 70
0
 40
0.0
 41
0.8
 50
0.0
 71
0
 42
0.2
  3
txt
  4

  0
STYLE
  5
20E
100
AcDbSymbolTableRecord
100
AcDbTextStyleTableRecord
  2
TEXTSTYLE_1
 70
0
 40
0.0
 41
0.8
 50
0.0
 71
0
 42
0.2
  3
gdt
  4

  0
ENDTAB
  0
TABLE
  2
VIEW
  5
6
100
AcDbSymbolTable
 70
0
  0
ENDTAB
  0
TABLE
  2
UCS
  5
7
100
AcDbSymbolTable
 70
0
  0
ENDTAB
  0
TABLE
  2
APPID
  5
9
100
AcDbSymbolTable
 70
1
  0
APPID
  5
20F
100
AcDbSymbolTableRecord
100
AcDbRegAppTableRecord
  2
ACAD
 70
0
  0
ENDTAB
  0
TABLE
  2
BLOCK_RECORD
  5
1
100
AcDbSymbolTable
 70
0
  0
BLOCK_RECORD
  5
210
100
AcDbSymbolTableRecord
100
AcDbBlockTableRecord
  2
*Model_Space
  0
BLOCK_RECORD
  5
211
100
AcDbSymbolTableRecord
100
AcDbBlockTableRecord
  2
*Paper_Space
  0
BLOCK_RECORD
  5
212
100
AcDbSymbolTableRecord
100
AcDbBlockTableRecord
  2
_FILLED
  0
ENDTAB
  0
TABLE
  2
DIMSTYLE
  5
A
100
AcDbSymbolTable
 70
1
100
AcDbDimStyleTable
 71
0
  0
DIMSTYLE
105
213
100
AcDbSymbolTableRecord
100
AcDbDimStyleTableRecord
  2
STANDARD
 70
0
  3

  4

 40
1.0
 41
0.9029021064
 42
1.0
 43
0.38
 44
1.0
 45
0.0
 46
0.0
 47
0.01
 48
0.01
140
1.264062949
141
0.09
142
0.0
143
25.4
144
1.0
145
0.0
146
1.0
147
0.625
 71
1
 72
0
 73
0
 74
0
 75
0
 76
0
 77
1
 78
8
 79
2
170
0
171
1
172
0
173
0
174
0
175
0
176
0
177
0
178
0
270
2
179
2
271
2
272
2
273
2
274
2
275
0
280
0
281
0
282
0
283
1
284
8
285
0
286
0
287
3
288
0
340
11
278
46
341
212
342
212
343
212
344
212
  0
ENDTAB
  0
ENDSEC
  0
SECTION
  2
BLOCKS
  0
BLOCK
  5
20
100
AcDbEntity
  8
0
100
AcDbBlockBegin
  2
*Model_Space
 70
0
 10
0.0
 20
0.0
 30
0.0
  3
*Model_Space
  1

  0
ENDBLK
  5
21
100
AcDbEntity
  8
0
100
AcDbBlockEnd
  0
BLOCK
  5
1C
100
AcDbEntity
  8
0
100
AcDbBlockBegin
  2
*Paper_Space
 70
0
 10
0.0
 20
0.0
 30
0.0
  3
*Paper_Space
  1

  0
ENDBLK
  5
1D
100
AcDbEntity
  8
0
100
AcDbBlockEnd
  0
BLOCK
  5
214
100
AcDbEntity
  8
0
100
AcDbBlockBegin
  2
_FILLED
 70
64
 10
0.0
 20
0.0
  3
_FILLED
  1

  0
SOLID
  5
215
100
AcDbEntity
  8
0
  6
BYBLOCK
 62
0
100
AcDbTrace
 10
0.0
 20
0.0
 11
-1.0
 21
0.25
 12
-1.0
 22
-0.25
 13
-1.0
 23
-0.25
  0
ENDBLK
  5
216
100
AcDbEntity
  8
0
  6
BYBLOCK
 62
0
100
AcDbBlockEnd
  0
ENDSEC
  0
SECTION
  2
ENTITIES
  0
LINE
  5
217
100
AcDbEntity
  8
0
100
AcDbLine
 62
7
  6
CONTINUOUS
 10
37.1033436112
 20
11.0323851204
 11
40.0533436112
 21
11.0323851204
  0
LINE
  5
218
100
AcDbEntity
  8
0
100
AcDbLine
 62
7
  6
CONTINUOUS
 10
35.6033436112
 20
12.5323851204
 11
41.5533436112
 21
12.5323851204
  0
LINE
  5
219
100
AcDbEntity
  8
0
100
AcDbLine
 62
7
  6
CONTINUOUS
 10
37.1033436112
 20
11.0323851204
 11
35.6033436112
 21
12.5323851204
  0
LINE
  5
21A
100
AcDbEntity
  8
0
100
AcDbLine
 62
7
  6
CONTINUOUS
 10
8.5783436112
 20
55.4323851204
 11
8.5783436112
 21
51.1323851204
  0
LINE
  5
21B
100
AcDbEntity
  8
0
100
AcDbLine
 62
7
  6
CONTINUOUS
 10
27.578630801
 20
23.7323851204
 11
49.5780564214
 21
23.7323851204
  0
LINE
  5
21C
100
AcDbEntity
  8
0
100
AcDbLine
 62
7
  6
CONTINUOUS
 10
11.5783436112
 20
56.4323851204
 11
11.5783436112
 21
51.1323851204
  0
LINE
  5
21D
100
AcDbEntity
  8
0
100
AcDbLine
 62
7
  6
CONTINUOUS
 10
16.0783436112
 20
56.4323851204
 11
16.0783436112
 21
94.2323851204
  0
LINE
  5
21E
100
AcDbEntity
  8
0
100
AcDbLine
 62
7
  6
CONTINUOUS
 10
16.5108163714
 20
78.4323851183
 11
16.5108163714
 21
94.2323851204
  0
LINE
  5
21F
100
AcDbEntity
  8
0
100
AcDbLine
 62
7
  6
CONTINUOUS
 10
18.3283436112
 20
41.6323851204
 11
18.3283436112
 21
46.1323851204
  0
LINE
  5
220
100
AcDbEntity
  8
0
100
AcDbLine
 62
7
  6
CONTINUOUS
 10
18.4723743483
 20
96.2323851204
 11
18.4723743483
 21
78.4323851204
  0
LINE
  5
221
100
AcDbEntity
  8
0
100
AcDbLine
 62
7
  6
CONTINUOUS
 10
20.6783436112
 20
41.6323851204
 11
20.6783436112
 21
35.1323851204
  0
LINE
  5
222
100
AcDbEntity
  8
0
100
AcDbLine
 62
7
  6
CONTINUOUS
 10
20.6783436112
 20
35.1323851204
 11
56.4783436112
 21
35.1323851204
  0
LINE
  5
223
100
AcDbEntity
  8
0
100
AcDbLine
 62
7
  6
CONTINUOUS
 10
27.5783436112
 20
51.1323851204
 11
27.5783436112
 21
46.1323851204
  0
LINE
  5
224
100
AcDbEntity
  8
0
100
AcDbLine
 62
7
  6
CONTINUOUS
 10
27.5783436112
 20
35.1323851204
 11
27.5783436112
 21
23.7323851204
  0
LINE
  5
225
100
AcDbEntity
  8
0
100
AcDbLine
 62
7
  6
CONTINUOUS
 10
18.328512441
 20
41.6323851204
 11
58.8281747813
 21
41.6323851204
  0
LINE
  5
226
100
AcDbEntity
  8
0
100
AcDbLine
 62
7
  6
CONTINUOUS
 10
58.8281747813
 20
46.1323851204
 11
18.328512441
 21
46.1323851204
  0
LINE
  5
227
100
AcDbEntity
  8
0
100
AcDbLine
 62
7
  6
CONTINUOUS
 10
35.6033436112
 20
12.5323851204
 11
35.6033436112
 21
23.7323851204
  0
LINE
  5
228
100
AcDbEntity
  8
0
100
AcDbLine
 62
7
  6
CONTINUOUS
 10
8.5783436112
 20
51.1323851204
 11
68.5783436112
 21
51.1323851204
  0
LINE
  5
229
100
AcDbEntity
  8
0
100
AcDbLine
 62
7
  6
CONTINUOUS
 10
41.5533436112
 20
12.5323851204
 11
41.5533436112
 21
23.7323851204
  0
LINE
  5
22A
100
AcDbEntity
  8
0
100
AcDbLine
 62
7
  6
CONTINUOUS
 10
68.5783436112
 20
55.4323851204
 11
8.5783436112
 21
55.4323851204
  0
LINE
  5
22B
100
AcDbEntity
  8
0
100
AcDbLine
 62
7
  6
CONTINUOUS
 10
9.5783436112
 20
56.4323851204
 11
67.5783436112
 21
56.4323851204
  0
LINE
  5
22C
100
AcDbEntity
  8
0
100
AcDbLine
 62
7
  6
CONTINUOUS
 10
49.3461943328
 20
64.4323851204
 11
27.8104928895
 21
64.4323851204
  0
LINE
  5
22D
100
AcDbEntity
  8
0
100
AcDbLine
 62
7
  6
CONTINUOUS
 10
49.5783436112
 20
51.1323851204
 11
49.5783436112
 21
46.1323851204
  0
LINE
  5
22E
100
AcDbEntity
  8
0
100
AcDbLine
 62
7
  6
CONTINUOUS
 10
49.5783436112
 20
35.1323851204
 11
49.5783436112
 21
23.7323851204
  0
LINE
  5
22F
100
AcDbEntity
  8
0
100
AcDbLine
 62
7
  6
CONTINUOUS
 10
48.3890520463
 20
66.4323851204
 11
28.767635176
 21
66.4323851204
  0
LINE
  5
230
100
AcDbEntity
  8
0
100
AcDbLine
 62
7
  6
CONTINUOUS
 10
56.4783436112
 20
41.6323851204
 11
56.4783436112
 21
35.1323851204
  0
LINE
  5
231
100
AcDbEntity
  8
0
100
AcDbLine
 62
7
  6
CONTINUOUS
 10
58.684312874
 20
78.4323851204
 11
58.684312874
 21
96.2323851204
  0
LINE
  5
232
100
AcDbEntity
  8
0
100
AcDbLine
 62
7
  6
CONTINUOUS
 10
58.8283436112
 20
41.6323851204
 11
58.8283436112
 21
46.1323851204
  0
LINE
  5
233
100
AcDbEntity
  8
0
100
AcDbLine
 62
7
  6
CONTINUOUS
 10
60.6458708509
 20
94.2323851204
 11
60.6458708509
 21
78.4323851204
  0
LINE
  5
234
100
AcDbEntity
  8
0
100
AcDbLine
 62
7
  6
CONTINUOUS
 10
61.0783436112
 20
56.4323851204
 11
61.0783436112
 21
94.2323851204
  0
LINE
  5
235
100
AcDbEntity
  8
0
100
AcDbLine
 62
7
  6
CONTINUOUS
 10
65.5783436112
 20
51.1323851204
 11
65.5783436112
 21
56.4323851204
  0
LINE
  5
236
100
AcDbEntity
  8
0
100
AcDbLine
 62
7
  6
CONTINUOUS
 10
16.5108163714
 20
78.4323851183
 11
60.6458708509
 21
78.4323851204
  0
LINE
  5
237
100
AcDbEntity
  8
0
100
AcDbLine
 62
7
  6
CONTINUOUS
 10
68.5783436112
 20
55.4323851204
 11
68.5783436112
 21
51.1323851204
  0
LINE
  5
238
100
AcDbEntity
  8
0
100
AcDbLine
 62
7
  6
CONTINUOUS
 10
40.0533436112
 20
11.0323851204
 11
41.5533436112
 21
12.5323851204
  0
LINE
  5
239
100
AcDbEntity
  8
0
100
AcDbLine
 62
7
  6
CONTINUOUS
 10
61.0783436112
 20
94.2323851204
 11
16.0783436112
 21
94.2323851204
  0
LINE
  5
23A
100
AcDbEntity
  8
0
100
AcDbLine
 62
7
  6
CONTINUOUS
 10
18.0783451209
 20
96.2323851204
 11
59.0783314838
 21
96.2323851204
  0
ARC
  5
23B
100
AcDbEntity
  8
0
100
AcDbCircle
 62
7
  6
CONTINUOUS
 10
18.0783436112
 20
94.2323851204
 40
2.0
100
AcDbArc
 50
90.0
 51
180.0
  0
ARC
  5
23C
100
AcDbEntity
  8
0
100
AcDbCircle
 62
7
  6
CONTINUOUS
 10
59.0783436112
 20
94.2323851204
 40
2.0
100
AcDbArc
 50
0.0
 51
90.0
  0
ARC
  5
23D
100
AcDbEntity
  8
0
100
AcDbCircle
 62
7
  6
CONTINUOUS
 10
18.4733674426
 20
94.2998181821
 40
1.9325671934
100
AcDbArc
 50
90.029442762
 51
101.3308451039
  0
ARC
  5
23E
100
AcDbEntity
  8
0
100
AcDbCircle
 62
7
  6
CONTINUOUS
 10
9.5783436112
 20
55.4323851204
 40
1.0
100
AcDbArc
 50
90.0
 51
180.0
  0
ARC
  5
23F
100
AcDbEntity
  8
0
100
AcDbCircle
 62
7
  6
CONTINUOUS
 10
67.5783436112
 20
55.4323851204
 40
1.0
100
AcDbArc
 50
0.0
 51
90.0
  0
SPLINE
  5
240
100
AcDbEntity
  8
0
100
AcDbSpline
 62
7
  6
CONTINUOUS
 70
0
 71
3
 72
23
 73
19
 74
0
 42
0.0000001
 43
0.0000001
 44
0.0000000001
 40
0.0
 40
0.0
 40
0.0
 40
0.0
 40
0.0750703208
 40
0.1490351059
 40
0.2208057624
 40
0.2894469862
 40
0.3542276527
 40
0.4147968896
 40
0.4713081431
 40
0.5246419878
 40
0.5762861851
 40
0.6280861261
 40
0.6817137405
 40
0.7383183401
 40
0.798464362
 40
0.8622720601
 40
0.9295579347
 40
1.0
 40
1.0
 40
1.0
 40
1.0
 10
58.6843135632
 20
78.4323851203
 30
0.0
 10
58.6843126204
 20
77.9594112077
 30
0.0
 10
58.6720644934
 20
77.0203628639
 30
0.0
 10
58.6117355378
 20
75.6302730918
 30
0.0
 10
58.5044582832
 20
74.2834814392
 30
0.0
 10
58.3369346096
 20
73.0008386228
 30
0.0
 10
58.0953207487
 20
71.8014291555
 30
0.0
 10
57.7631549904
 20
70.7023650635
 30
0.0
 10
57.3216107073
 20
69.7196572763
 30
0.0
 10
56.7591814953
 20
68.865380251
 30
0.0
 10
56.0655053029
 20
68.1535329505
 30
0.0
 10
55.248697368
 20
67.584917856
 30
0.0
 10
54.3182623325
 20
67.1545313827
 30
0.0
 10
53.2880256156
 20
66.8436476593
 30
0.0
 10
52.1682775033
 20
66.6339718927
 30
0.0
 10
50.9692951236
 20
66.5063563665
 30
0.0
 10
49.7007011287
 20
66.4425759063
 30
0.0
 10
48.8328663362
 20
66.4323853918
 30
0.0
 10
48.3890523375
 20
66.4323851204
 30
0.0
  0
SPLINE
  5
241
100
AcDbEntity
  8
0
100
AcDbSpline
 62
7
  6
CONTINUOUS
 70
0
 71
3
 72
23
 73
19
 74
0
 42
0.0000001
 43
0.0000001
 44
0.0000000001
 40
0.0
 40
0.0
 40
0.0
 40
0.0
 40
0.0704443233
 40
0.1377329901
 40
0.2015411679
 40
0.2616864563
 40
0.3182907218
 40
0.3719183445
 40
0.4237183842
 40
0.4753627542
 40
0.5286967572
 40
0.5852084042
 40
0.6457786553
 40
0.7105613163
 40
0.7792051163
 40
0.8509752808
 40
0.9249342261
 40
1.0
 40
1.0
 40
1.0
 40
1.0
 10
28.7676343001
 20
66.4323851203
 30
0.0
 10
28.3238060689
 20
66.4323855538
 30
0.0
 10
27.4559394611
 20
66.4425781077
 30
0.0
 10
26.1873106942
 20
66.5063614745
 30
0.0
 10
24.9883127437
 20
66.6339836948
 30
0.0
 10
23.868570292
 20
66.8436699586
 30
0.0
 10
22.8383426007
 20
67.1545600234
 30
0.0
 10
21.9079125525
 20
67.5849549295
 30
0.0
 10
21.091114377
 20
68.153588064
 30
0.0
 10
20.3974521028
 20
68.8654523439
 30
0.0
 10
19.8350333107
 20
69.7197413086
 30
0.0
 10
19.3934966782
 20
70.7024632477
 30
0.0
 10
19.0613339845
 20
71.8015506261
 30
0.0
 10
18.8197241657
 20
73.000996967
 30
0.0
 10
18.652211624
 20
74.2836671356
 30
0.0
 10
18.5449423195
 20
75.6304355479
 30
0.0
 10
18.4846169764
 20
77.0204568903
 30
0.0
 10
18.4723727708
 20
77.9594398481
 30
0.0
 10
18.472372275
 20
78.4323851203
 30
0.0
  0
SPLINE
  5
242
100
AcDbEntity
  8
0
100
AcDbSpline
 62
7
  6
CONTINUOUS
 70
0
 71
3
 72
23
 73
19
 74
0
 42
0.0000001
 43
0.0000001
 44
0.0000000001
 40
0.0
 40
0.0
 40
0.0
 40
0.0
 40
0.0789234648
 40
0.156463006
 40
0.2313299048
 40
0.302423272
 40
0.3689454282
 40
0.430537553
 40
0.4874261399
 40
0.5405247885
 40
0.5913758731
 40
0.6418466085
 40
0.6936749236
 40
0.7481228857
 40
0.8058885093
 40
0.8672055255
 40
0.9319958462
 40
1.0
 40
1.0
 40
1.0
 40
1.0
 10
60.6458708509
 20
78.4323851204
 30
0.0
 10
60.645870774
 20
77.8676447302
 30
0.0
 10
60.6313317877
 20
76.7480045119
 30
0.0
 10
60.5628125276
 20
75.0938739068
 30
0.0
 10
60.4394399634
 20
73.4989247403
 30
0.0
 10
60.2485588829
 20
71.9897109957
 30
0.0
 10
59.9745391977
 20
70.5893678768
 30
0.0
 10
59.6003104139
 20
69.316935653
 30
0.0
 10
59.1090473041
 20
68.1873498525
 30
0.0
 10
58.4867849609
 20
67.2123992747
 30
0.0
 10
57.7270966874
 20
66.4007914091
 30
0.0
 10
56.8345679604
 20
65.7540988039
 30
0.0
 10
55.8211540994
 20
65.2623168817
 30
0.0
 10
54.699186449
 20
64.9066790145
 30
0.0
 10
53.4791614914
 20
64.6656562552
 30
0.0
 10
52.1706772444
 20
64.5181633143
 30
0.0
 10
50.7831280489
 20
64.4443911529
 30
0.0
 10
49.8328011034
 20
64.4323851242
 30
0.0
 10
49.3461943328
 20
64.4323851204
 30
0.0
  0
SPLINE
  5
243
100
AcDbEntity
  8
0
100
AcDbSpline
 62
7
  6
CONTINUOUS
 70
0
 71
3
 72
16
 73
12
 74
0
 42
0.0000001
 43
0.0000001
 44
0.0000000001
 40
0.0
 40
0.0
 40
0.0
 40
0.0
 40
0.152445298
 40
0.3094003381
 40
0.4636896147
 40
0.6071369756
 40
0.7329765517
 40
0.7885286621
 40
0.8389819736
 40
0.9257758569
 40
1.0
 40
1.0
 40
1.0
 40
1.0
 10
49.3461943955
 20
64.4323851204
 30
0.0
 10
49.3461943953
 20
64.5539277715
 30
0.0
 10
49.3353359964
 20
64.8007266448
 30
0.0
 10
49.2859384114
 20
65.1676932456
 30
0.0
 10
49.1992246411
 20
65.5204818605
 30
0.0
 10
49.0798578167
 20
65.8374569706
 30
0.0
 10
48.9498780864
 20
66.0633919723
 30
0.0
 10
48.8332117755
 20
66.2072916641
 30
0.0
 10
48.7226209266
 20
66.3144422374
 30
0.0
 10
48.5774331181
 20
66.4059303958
 30
0.0
 10
48.4482300445
 20
66.4323851222
 30
0.0
 10
48.3890521017
 20
66.4323851204
 30
0.0
  0
SPLINE
  5
244
100
AcDbEntity
  8
0
100
AcDbSpline
 62
7
  6
CONTINUOUS
 70
0
 71
3
 72
13
 73
9
 74
0
 42
0.0000001
 43
0.0000001
 44
0.0000000001
 40
0.0
 40
0.0
 40
0.0
 40
0.0
 40
0.2514748564
 40
0.5018711015
 40
0.6269602792
 40
0.7516299971
 40
0.8759095653
 40
1.0
 40
1.0
 40
1.0
 40
1.0
 10
16.5108163714
 20
94.2323851204
 30
0.0
 10
16.5108163714
 20
94.4605551232
 30
0.0
 10
16.5883777514
 20
94.9194834394
 30
0.0
 10
16.8707848243
 20
95.4265917433
 30
0.0
 10
17.1862302195
 20
95.7554916764
 30
0.0
 10
17.4610565515
 20
95.9576210428
 30
0.0
 10
17.7657327056
 20
96.108725089
 30
0.0
 10
17.9832710737
 20
96.1726014641
 30
0.0
 10
18.093668181
 20
96.1947177646
 30
0.0
  0
SPLINE
  5
245
100
AcDbEntity
  8
0
100
AcDbSpline
 62
7
  6
CONTINUOUS
 70
0
 71
3
 72
15
 73
11
 74
0
 42
0.0000001
 43
0.0000001
 44
0.0000000001
 40
0.0
 40
0.0
 40
0.0
 40
0.0
 40
0.1237703825
 40
0.2478171667
 40
0.3721206046
 40
0.4968919499
 40
0.622136897
 40
0.7477878268
 40
0.8738522272
 40
1.0
 40
1.0
 40
1.0
 40
1.0
 10
58.684312874
 20
96.2323851203
 30
0.0
 10
58.8124752177
 20
96.2323850429
 30
0.0
 10
59.0698112529
 20
96.2064901496
 30
0.0
 10
59.4402663545
 20
96.0918924817
 30
0.0
 10
59.7816929391
 20
95.9056120338
 30
0.0
 10
60.0808233433
 20
95.6551932408
 30
0.0
 10
60.3261312392
 20
95.350102556
 30
0.0
 10
60.5084629607
 20
95.00215657
 30
0.0
 10
60.6205609298
 20
94.6248575667
 30
0.0
 10
60.6458708509
 20
94.3630092154
 30
0.0
 10
60.6458708509
 20
94.2323851204
 30
0.0
  0
SPLINE
  5
246
100
AcDbEntity
  8
0
100
AcDbSpline
 62
7
  6
CONTINUOUS
 70
0
 71
3
 72
16
 73
12
 74
0
 42
0.0000001
 43
0.0000001
 44
0.0000000001
 40
0.0
 40
0.0
 40
0.0
 40
0.0
 40
0.0742241428
 40
0.1610180259
 40
0.2114713369
 40
0.2670234475
 40
0.3928630244
 40
0.5363103848
 40
0.6905996619
 40
0.8475547022
 40
1.0
 40
1.0
 40
1.0
 40
1.0
 10
28.7676351766
 20
66.4323851204
 30
0.0
 10
28.7084572341
 20
66.4323851236
 30
0.0
 10
28.5792541614
 20
66.405930394
 30
0.0
 10
28.4340663536
 20
66.314442238
 30
0.0
 10
28.3234755043
 20
66.2072916656
 30
0.0
 10
28.2068091959
 20
66.0633919717
 30
0.0
 10
28.0768294658
 20
65.83745697
 30
0.0
 10
27.9574626415
 20
65.5204818597
 30
0.0
 10
27.8707488737
 20
65.1676932446
 30
0.0
 10
27.8213512886
 20
64.8007266442
 30
0.0
 10
27.8104928903
 20
64.5539277711
 30
0.0
 10
27.8104928903
 20
64.4323851204
 30
0.0
  0
SPLINE
  5
247
100
AcDbEntity
  8
0
100
AcDbSpline
 62
7
  6
CONTINUOUS
 70
0
 71
3
 72
26
 73
22
 74
0
 42
0.0000001
 43
0.0000001
 44
0.0000000001
 40
0.0
 40
0.0
 40
0.0
 40
0.0
 40
0.0679466512
 40
0.1326960114
 40
0.1939702996
 40
0.2517087124
 40
0.3061401024
 40
0.3579648035
 40
0.408445313
 40
0.4337385436
 40
0.4593654786
 40
0.485555549
 40
0.5125227099
 40
0.5694245106
 40
0.5996165176
 40
0.6310423437
 40
0.6975681742
 40
0.7686762072
 40
0.8435434947
 40
0.9210968495
 40
1.0
 40
1.0
 40
1.0
 40
1.0
 10
27.8104928895
 20
64.4323851204
 30
0.0
 10
27.3242369531
 20
64.4323852046
 30
0.0
 10
26.3744964069
 20
64.4443536678
 30
0.0
 10
24.9877795093
 20
64.5179881465
 30
0.0
 10
23.6799082777
 20
64.6653061044
 30
0.0
 10
22.4603062087
 20
64.9059747236
 30
0.0
 10
21.3383622322
 20
65.2611687162
 30
0.0
 10
20.3248488139
 20
65.7525802006
 30
0.0
 10
19.5805720974
 20
66.2913627222
 30
0.0
 10
19.0586342797
 20
66.7968745814
 30
0.0
 10
18.6995498925
 20
67.2169678671
 30
0.0
 10
18.373003796
 20
67.6775000231
 30
0.0
 10
17.9738238028
 20
68.3574305773
 30
0.0
 10
17.6468500766
 20
69.1089229996
 30
0.0
 10
17.3806756233
 20
69.9144813272
 30
0.0
 10
17.1409564474
 20
70.8001098858
 30
0.0
 10
16.9082685697
 20
71.9888707008
 30
0.0
 10
16.7173245351
 20
73.4983273696
 30
0.0
 10
16.5937783864
 20
75.0936929005
 30
0.0
 10
16.5253692616
 20
76.7479862591
 30
0.0
 10
16.5108163921
 20
77.8677196854
 30
0.0
 10
16.5108163714
 20
78.4323851204
 30
0.0
  0
ENDSEC
  0
SECTION
  2
OBJECTS
  0
DICTIONARY
  5
C
100
AcDbDictionary
280
0
281
1
  3
ACAD_GROUP
350
D
  3
ACAD_MLINESTYLE
350
17
  3
ACAD_LAYOUT
350
1A
  3
ACAD_PLOTSETTINGS
350
19
  3
ACAD_PLOTSTYLENAME
350
E
  0
DICTIONARY
  5
D
102
{ACAD_REACTORS
330
C
102
}
100
AcDbDictionary
280
0
281
1
  0
ACDBDICTIONARYWDFLT
  5
E
102
{ACAD_REACTORS
330
C
102
}
100
AcDbDictionary
281
1
  3
Normal
350
F
100
AcDbDictionaryWithDefault
340
F
  0
DICTIONARY
  5
17
102
{ACAD_REACTORS
330
C
102
}
100
AcDbDictionary
280
0
281
1
  3
Standard
350
18
  0
DICTIONARY
  5
19
102
{ACAD_REACTORS
330
C
102
}
100
AcDbDictionary
281
1
  0
DICTIONARY
  5
1A
102
{ACAD_REACTORS
330
C
102
}
100
AcDbDictionary
281
1
  3
Model
350
248
  3
Layout1
350
249
  0
ACDBPLACEHOLDER
  5
F
102
{ACAD_REACTORS
330
E
102
}
  0
MLINESTYLE
  5
18
102
{ACAD_REACTORS
330
17
102
}
100
AcDbMlineStyle
  2
STANDARD
 70
0
  3

 62
256
 51
90.0
 52
90.0
 71
2
 49
0.5
 62
256
  6
BYLAYER
 49
-0.5
 62
256
  6
BYLAYER
  0
LAYOUT
  5
248
102
{ACAD_REACTORS
330
1A
102
}
100
AcDbPlotSettings
  1

  2
none_device
  4

  6

 40
0.0
 41
0.0
 42
0.0
 43
0.0
 44
210.0
 45
297.0
 46
0.0
 47
0.0
 48
0.0
 49
0.0
140
0.0
141
0.0
142
1.0
143
1.0
 70
1024
 72
1
 73
0
 74
0
  7

 75
0
147
1.0
148
0.0
149
0.0
100
AcDbLayout
  1
Model
 70
0
 71
0
 10
0.0
 20
0.0
 11
210.0
 21
297.0
 12
0.0
 22
0.0
 32
0.0
 14
0.0
 24
0.0
 34
0.0
 15
0.0
 25
0.0
 35
0.0
146
0.0
 13
0.0
 23
0.0
 33
0.0
 16
1.0
 26
0.0
 36
0.0
 17
0.0
 27
1.0
 37
0.0
 76
0
330
210
345
0
346
0
  0
LAYOUT
  5
249
102
{ACAD_REACTORS
330
1A
102
}
100
AcDbPlotSettings
  1

  2
none_device
  4

  6

 40
0.0
 41
0.0
 42
0.0
 43
0.0
 44
210.0
 45
297.0
 46
0.0
 47
0.0
 48
0.0
 49
0.0
140
0.0
141
0.0
142
1.0
143
1.0
 70
0
 72
1
 73
0
 74
0
  7

 75
0
147
1.0
148
0.0
149
0.0
100
AcDbLayout
  1
Layout1
 70
0
 71
1
 10
0.0
 20
0.0
 11
210.0
 21
297.0
 12
0.0
 22
0.0
 32
0.0
 14
0.0
 24
0.0
 34
0.0
 15
0.0
 25
0.0
 35
0.0
146
0.0
 13
0.0
 23
0.0
 33
0.0
 16
1.0
 26
0.0
 36
0.0
 17
0.0
 27
1.0
 37
0.0
 76
0
330
211
345
0
346
0
  0
ENDSEC
  0
EOF
