999
DXF file: C:\Users\sesa63760\Dev\_Creo\CAD\MCADPP0003731_3D-CAD\drw0001_1.dxf
999
Pro/ENGINEER 2019471 by Parametric Technology Corporation
  0
SECTION
  2
HEADER
  9
$ACADVER
  1
AC1024
  9
$DWGCODEPAGE
  3
ANSI_1252
  9
$EXTMAX
 10
152.3157039123
 20
215.4179241046
 30
0.0
  9
$EXTMIN
 10
0.0
 20
0.0
 30
0.0
  9
$LIMMIN
 10
0.0
 20
0.0
  9
$LIMMAX
 10
152.3157039123
 20
215.4179241046
  9
$VIEWCTR
 10
76.1578519562
 20
107.7089620523
  9
$VIEWSIZE
 40
215.4179241046
  9
$CLAYER
  8
0
  9
$LTSCALE
 40
14.042057275
  9
$CELTYPE
  6
BYLAYER
  9
$DIMSCALE
 40
1.0
  9
$DIMASZ
 40
1.8132821894
  9
$DIMEXO
 40
1.0
  9
$DIMDLI
 40
9.7017850263
  9
$DIMEXE
 40
1.0
  9
$DIMCEN
 40
2.2977911904
  9
$DIMLFAC
 40
1.0
  9
$DIMBLK
  1
_FILLED
  9
$DIMALT
 70
0
  9
$DIMALTF
 40
0.0393700787
  9
$DIMTXT
 40
2.5385950652
  9
$DIMTOL
 70
1
  9
$DIMLIM
 70
0
  9
$DIMTFAC
 40
1.0
  9
$DIMTP
 40
0.01
  9
$DIMTM
 40
0.01
  9
$DIMGAP
 40
0.625
  9
$DIMDSEP
 70
46
  9
$AUNITS
 70
0
  9
$PDMODE
 70
3
  9
$PDSIZE
 40
0.3125
  9
$HANDSEED
  5
342
  9
$TILEMODE
 70
1
  9
$MEASUREMENT
 70
1
  9
$INSUNITS
 70
4
  0
ENDSEC
  0
SECTION
  2
CLASSES
  0
CLASS
  1
ACDBDICTIONARYWDFLT
  2
AcDbDictionaryWithDefault
  3
AutoCAD 2000
 90
0
 91
1
280
0
281
0
  0
CLASS
  1
ACDBPLACEHOLDER
  2
AcDbPlaceHolder
  3
AutoCAD 2000
 90
0
 91
1
280
0
281
0
  0
CLASS
  1
LAYOUT
  2
AcDbLayout
  3
AutoCAD 2000
 90
0
 91
0
280
0
281
0
  0
ENDSEC
  0
SECTION
  2
TABLES
  0
TABLE
  2
VPORT
  5
8
100
AcDbSymbolTable
 70
2
  0
VPORT
  5
1F4
100
AcDbSymbolTableRecord
100
AcDbViewportTableRecord
  2
*ACTIVE
 70
0
 10
0.0
 20
0.0
 11
1.0
 21
1.0
 12
76.1578519562
 22
107.7089620523
 13
0.0
 23
0.0
 14
1.0
 24
1.0
 15
0.0
 25
0.0
 16
0.0
 26
0.0
 36
1.0
 17
0.0
 27
0.0
 37
0.0
 40
215.4179241046
 41
0.7070707071
 42
50.0
 43
0.0
 44
0.0
 50
0.0
 51
0.0
 71
0
 72
100
 73
1
 74
1
 75
0
 76
0
 77
0
 78
0
  0
ENDTAB
  0
TABLE
  2
LTYPE
  5
5
100
AcDbSymbolTable
 70
6
  0
LTYPE
  5
14
100
AcDbSymbolTableRecord
100
AcDbLinetypeTableRecord
  2
BYBLOCK
 70
0
  3

 72
65
 73
0
 40
0.0
  0
LTYPE
  5
15
100
AcDbSymbolTableRecord
100
AcDbLinetypeTableRecord
  2
BYLAYER
 70
0
  3

 72
65
 73
0
 40
0.0
  0
LTYPE
  5
16
100
AcDbSymbolTableRecord
100
AcDbLinetypeTableRecord
  2
CONTINUOUS
 70
64
  3
Solid line
 72
65
 73
0
 40
0.0
  0
LTYPE
  5
1F5
100
AcDbSymbolTableRecord
100
AcDbLinetypeTableRecord
  2
CENTER
 70
64
  3
____ _ ____ _ ____ _ ____ _ ____ _ ____ _ ____
 72
65
 73
4
 40
0.6
 49
0.375
 74
0
 49
-0.075
 74
0
 49
0.075
 74
0
 49
-0.075
 74
0
  0
LTYPE
  5
1F6
100
AcDbSymbolTableRecord
100
AcDbLinetypeTableRecord
  2
HIDDEN
 70
64
  3
- - - - - - - - - - - - - - - - - - - -
 72
65
 73
2
 40
0.2
 49
0.1
 74
0
 49
-0.1
 74
0
  0
LTYPE
  5
1F7
100
AcDbSymbolTableRecord
100
AcDbLinetypeTableRecord
  2
PHANTOM
 70
64
  3
_____ _ _ _____ _ _ _____ _ _ _____
 72
65
 73
6
 40
0.8
 49
0.45
 74
0
 49
-0.05
 74
0
 49
0.1
 74
0
 49
-0.05
 74
0
 49
0.1
 74
0
 49
-0.05
 74
0
  0
LTYPE
  5
1F8
100
AcDbSymbolTableRecord
100
AcDbLinetypeTableRecord
  2
DOT
 70
64
  3
. . . . . . . . . . . . . . . . . . . .
 72
65
 73
2
 40
0.2
 49
0.1
 74
0
 49
-0.1
 74
0
  0
LTYPE
  5
1F9
100
AcDbSymbolTableRecord
100
AcDbLinetypeTableRecord
  2
DASHED
 70
64
  3
- - - - - - - - - - - - - - - - - - - -
 72
65
 73
2
 40
0.2
 49
0.1
 74
0
 49
-0.1
 74
0
  0
ENDTAB
  0
TABLE
  2
LAYER
  5
2
100
AcDbSymbolTable
 70
36
  0
LAYER
  5
10
100
AcDbSymbolTableRecord
100
AcDbLayerTableRecord
  2
0
 70
0
 62
7
  6
CONTINUOUS
370
-3
390
F
  0
LAYER
  5
1FA
100
AcDbSymbolTableRecord
100
AcDbLayerTableRecord
  2
DEFAULT_1
 70
0
 62
7
  6
CENTER
370
-3
390
F
  0
LAYER
  5
1FB
100
AcDbSymbolTableRecord
100
AcDbLayerTableRecord
  2
DEFAULT_2
 70
0
 62
8
  6
HIDDEN
370
-3
390
F
  0
LAYER
  5
1FC
100
AcDbSymbolTableRecord
100
AcDbLayerTableRecord
  2
DEFAULT_3
 70
0
 62
7
  6
PHANTOM
370
-3
390
F
  0
LAYER
  5
1FD
100
AcDbSymbolTableRecord
100
AcDbLayerTableRecord
  2
00_COMPONENTS
 70
0
 62
7
  6
CONTINUOUS
370
-3
390
F
  0
LAYER
  5
1FE
100
AcDbSymbolTableRecord
100
AcDbLayerTableRecord
  2
01_1_DEFAULT_DATUMS
 70
0
 62
7
  6
CONTINUOUS
370
-3
390
F
  0
LAYER
  5
1FF
100
AcDbSymbolTableRecord
100
AcDbLayerTableRecord
  2
01_PLANES
 70
0
 62
7
  6
CONTINUOUS
370
-3
390
F
  0
LAYER
  5
200
100
AcDbSymbolTableRecord
100
AcDbLayerTableRecord
  2
02_COORD_SYS
 70
0
 62
7
  6
CONTINUOUS
370
-3
390
F
  0
LAYER
  5
201
100
AcDbSymbolTableRecord
100
AcDbLayerTableRecord
  2
03_AXES
 70
0
 62
7
  6
CONTINUOUS
370
-3
390
F
  0
LAYER
  5
202
100
AcDbSymbolTableRecord
100
AcDbLayerTableRecord
  2
04_POINTS
 70
0
 62
7
  6
CONTINUOUS
370
-3
390
F
  0
LAYER
  5
203
100
AcDbSymbolTableRecord
100
AcDbLayerTableRecord
  2
05_CURVES
 70
0
 62
7
  6
CONTINUOUS
370
-3
390
F
  0
LAYER
  5
204
100
AcDbSymbolTableRecord
100
AcDbLayerTableRecord
  2
06_SURFS
 70
0
 62
7
  6
CONTINUOUS
370
-3
390
F
  0
LAYER
  5
205
100
AcDbSymbolTableRecord
100
AcDbLayerTableRecord
  2
07_COSMETICS
 70
0
 62
7
  6
CONTINUOUS
370
-3
390
F
  0
LAYER
  5
206
100
AcDbSymbolTableRecord
100
AcDbLayerTableRecord
  2
10_NOTES
 70
0
 62
7
  6
CONTINUOUS
370
-3
390
F
  0
LAYER
  5
207
100
AcDbSymbolTableRecord
100
AcDbLayerTableRecord
  2
11_NOTES_PUB
 70
0
 62
7
  6
CONTINUOUS
370
-3
390
F
  0
LAYER
  5
208
100
AcDbSymbolTableRecord
100
AcDbLayerTableRecord
  2
13_REF_GTOL
 70
0
 62
7
  6
CONTINUOUS
370
-3
390
F
  0
LAYER
  5
209
100
AcDbSymbolTableRecord
100
AcDbLayerTableRecord
  2
16_MISC
 70
0
 62
7
  6
CONTINUOUS
370
-3
390
F
  0
LAYER
  5
20A
100
AcDbSymbolTableRecord
100
AcDbLayerTableRecord
  2
17_NO_PRINT
 70
0
 62
7
  6
CONTINUOUS
370
-3
390
F
  0
LAYER
  5
20B
100
AcDbSymbolTableRecord
100
AcDbLayerTableRecord
  2
18_DATUM_CAMS_JOINTS
 70
0
 62
7
  6
CONTINUOUS
370
-3
390
F
  0
LAYER
  5
20C
100
AcDbSymbolTableRecord
100
AcDbLayerTableRecord
  2
19_DATUM_FUNCTIONAL
 70
0
 62
7
  6
CONTINUOUS
370
-3
390
F
  0
LAYER
  5
20D
100
AcDbSymbolTableRecord
100
AcDbLayerTableRecord
  2
20_DATUM_KINEMATIC_SCHEME
 70
0
 62
7
  6
CONTINUOUS
370
-3
390
F
  0
ENDTAB
  0
TABLE
  2
STYLE
  5
3
100
AcDbSymbolTable
 70
1
  0
STYLE
  5
11
100
AcDbSymbolTableRecord
100
AcDbTextStyleTableRecord
  2
STANDARD
 70
0
 40
0.0
 41
0.8
 50
0.0
 71
0
 42
0.2
  3
txt
  4

  0
STYLE
  5
20E
100
AcDbSymbolTableRecord
100
AcDbTextStyleTableRecord
  2
TEXTSTYLE_1
 70
0
 40
0.0
 41
0.8
 50
0.0
 71
0
 42
0.2
  3
gdt
  4

  0
ENDTAB
  0
TABLE
  2
VIEW
  5
6
100
AcDbSymbolTable
 70
0
  0
ENDTAB
  0
TABLE
  2
UCS
  5
7
100
AcDbSymbolTable
 70
0
  0
ENDTAB
  0
TABLE
  2
APPID
  5
9
100
AcDbSymbolTable
 70
1
  0
APPID
  5
20F
100
AcDbSymbolTableRecord
100
AcDbRegAppTableRecord
  2
ACAD
 70
0
  0
ENDTAB
  0
TABLE
  2
BLOCK_RECORD
  5
1
100
AcDbSymbolTable
 70
0
  0
BLOCK_RECORD
  5
210
100
AcDbSymbolTableRecord
100
AcDbBlockTableRecord
  2
*Model_Space
  0
BLOCK_RECORD
  5
211
100
AcDbSymbolTableRecord
100
AcDbBlockTableRecord
  2
*Paper_Space
  0
BLOCK_RECORD
  5
212
100
AcDbSymbolTableRecord
100
AcDbBlockTableRecord
  2
_FILLED
  0
ENDTAB
  0
TABLE
  2
DIMSTYLE
  5
A
100
AcDbSymbolTable
 70
1
100
AcDbDimStyleTable
 71
0
  0
DIMSTYLE
105
213
100
AcDbSymbolTableRecord
100
AcDbDimStyleTableRecord
  2
STANDARD
 70
0
  3

  4

 40
1.0
 41
1.8132821894
 42
1.0
 43
0.38
 44
1.0
 45
0.0
 46
0.0
 47
0.01
 48
0.01
140
2.5385950652
141
0.09
142
0.0
143
25.4
144
1.0
145
0.0
146
1.0
147
0.625
 71
1
 72
0
 73
0
 74
0
 75
0
 76
0
 77
1
 78
8
 79
2
170
0
171
1
172
0
173
0
174
0
175
0
176
0
177
0
178
0
270
2
179
2
271
2
272
2
273
2
274
2
275
0
280
0
281
0
282
0
283
1
284
8
285
0
286
0
287
3
288
0
340
11
278
46
341
212
342
212
343
212
344
212
  0
ENDTAB
  0
ENDSEC
  0
SECTION
  2
BLOCKS
  0
BLOCK
  5
20
100
AcDbEntity
  8
0
100
AcDbBlockBegin
  2
*Model_Space
 70
0
 10
0.0
 20
0.0
 30
0.0
  3
*Model_Space
  1

  0
ENDBLK
  5
21
100
AcDbEntity
  8
0
100
AcDbBlockEnd
  0
BLOCK
  5
1C
100
AcDbEntity
  8
0
100
AcDbBlockBegin
  2
*Paper_Space
 70
0
 10
0.0
 20
0.0
 30
0.0
  3
*Paper_Space
  1

  0
ENDBLK
  5
1D
100
AcDbEntity
  8
0
100
AcDbBlockEnd
  0
BLOCK
  5
214
100
AcDbEntity
  8
0
100
AcDbBlockBegin
  2
_FILLED
 70
64
 10
0.0
 20
0.0
  3
_FILLED
  1

  0
SOLID
  5
215
100
AcDbEntity
  8
0
  6
BYBLOCK
 62
0
100
AcDbTrace
 10
0.0
 20
0.0
 11
-1.0
 21
0.25
 12
-1.0
 22
-0.25
 13
-1.0
 23
-0.25
  0
ENDBLK
  5
216
100
AcDbEntity
  8
0
  6
BYBLOCK
 62
0
100
AcDbBlockEnd
  0
ENDSEC
  0
SECTION
  2
ENTITIES
  0
LINE
  5
217
100
AcDbEntity
  8
0
100
AcDbLine
 62
7
  6
CONTINUOUS
 10
68.8463055389
 20
33.4769865571
 11
30.662380381
 21
55.5219873012
  0
LINE
  5
218
100
AcDbEntity
  8
0
100
AcDbLine
 62
7
  6
CONTINUOUS
 10
71.2214673281
 20
33.6235250446
 11
70.1607844118
 21
34.2358967582
  0
LINE
  5
219
100
AcDbEntity
  8
0
100
AcDbLine
 62
7
  6
CONTINUOUS
 10
17.6703740876
 20
102.138795107
 11
17.6703740876
 21
82.2927043258
  0
LINE
  5
21A
100
AcDbEntity
  8
0
100
AcDbLine
 62
7
  6
CONTINUOUS
 10
20.4093806293
 20
116.3123834342
 11
20.4093806293
 21
103.8029718664
  0
LINE
  5
21B
100
AcDbEntity
  8
0
100
AcDbLine
 62
7
  6
CONTINUOUS
 10
20.4093806293
 20
80.7113739361
 11
20.4093806293
 21
71.7296800832
  0
LINE
  5
21C
100
AcDbEntity
  8
0
100
AcDbLine
 62
7
  6
CONTINUOUS
 10
74.5028182882
 20
174.9759119539
 11
33.1372438112
 21
151.0936289524
  0
LINE
  5
21D
100
AcDbEntity
  8
0
100
AcDbLine
 62
7
  6
CONTINUOUS
 10
33.1372438112
 20
149.8688169092
 11
30.7620667431
 21
148.4975159752
  0
LINE
  5
21E
100
AcDbEntity
  8
0
100
AcDbLine
 62
7
  6
CONTINUOUS
 10
40.5626674529
 20
58.953766315
 11
39.8555577278
 21
59.3620070696
  0
LINE
  5
21F
100
AcDbEntity
  8
0
100
AcDbLine
 62
7
  6
CONTINUOUS
 10
33.1380147501
 20
63.3219440697
 11
32.430905025
 21
63.7301848242
  0
LINE
  5
220
100
AcDbEntity
  8
0
100
AcDbLine
 62
7
  6
CONTINUOUS
 10
48.2701616906
 20
54.7488915873
 11
47.5630519654
 21
55.1571323418
  0
LINE
  5
221
100
AcDbEntity
  8
0
100
AcDbLine
 62
7
  6
CONTINUOUS
 10
56.4019182305
 20
50.7889714
 11
55.6948085054
 21
51.1972121545
  0
LINE
  5
222
100
AcDbEntity
  8
0
100
AcDbLine
 62
7
  6
CONTINUOUS
 10
57.179086337
 20
50.5011608482
 11
20.4093806293
 21
71.7296800832
  0
LINE
  5
223
100
AcDbEntity
  8
0
100
AcDbLine
 62
7
  6
CONTINUOUS
 10
25.5055435253
 20
88.6538359586
 11
25.5055435254
 21
94.9409045705
  0
LINE
  5
224
100
AcDbEntity
  8
0
100
AcDbLine
 62
7
  6
CONTINUOUS
 10
25.7435676375
 20
88.7418127737
 11
25.7435676375
 21
94.5813564107
  0
LINE
  5
225
100
AcDbEntity
  8
0
100
AcDbLine
 62
7
  6
CONTINUOUS
 10
97.8619531935
 20
180.7688210698
 11
100.8028020094
 21
182.4666676856
  0
LINE
  5
226
100
AcDbEntity
  8
0
100
AcDbLine
 62
7
  6
CONTINUOUS
 10
98.8271902884
 20
182.0782339523
 11
80.5104933809
 21
171.5074575889
  0
LINE
  5
227
100
AcDbEntity
  8
0
100
AcDbLine
 62
7
  6
CONTINUOUS
 10
96.9887285548
 20
179.8743858813
 11
97.8626887756
 21
180.3787583722
  0
LINE
  5
228
100
AcDbEntity
  8
0
100
AcDbLine
 62
7
  6
CONTINUOUS
 10
82.9671353024
 20
170.3129837848
 11
94.1746927697
 21
176.7809940469
  0
LINE
  5
229
100
AcDbEntity
  8
0
100
AcDbLine
 62
7
  6
CONTINUOUS
 10
17.6703740876
 20
82.2927043258
 11
49.1757796667
 21
64.1034614295
  0
LINE
  5
22A
100
AcDbEntity
  8
0
100
AcDbLine
 62
7
  6
CONTINUOUS
 10
63.1179577675
 20
56.3794143235
 11
65.239286943
 21
55.1546920599
  0
LINE
  5
22B
100
AcDbEntity
  8
0
100
AcDbLine
 62
7
  6
CONTINUOUS
 10
65.2387402725
 20
55.8534615687
 11
63.1174110971
 21
57.0781838322
  0
LINE
  5
22C
100
AcDbEntity
  8
0
100
AcDbLine
 62
7
  6
CONTINUOUS
 10
30.662380381
 20
65.8102418322
 11
30.662380381
 21
55.5219873012
  0
LINE
  5
22D
100
AcDbEntity
  8
0
100
AcDbLine
 62
7
  6
CONTINUOUS
 10
30.7620667431
 20
148.4975159752
 11
30.7620667431
 21
122.2896702579
  0
LINE
  5
22E
100
AcDbEntity
  8
0
100
AcDbLine
 62
7
  6
CONTINUOUS
 10
31.2627004642
 20
91.3949556736
 11
31.2627004642
 21
85.5554120365
  0
LINE
  5
22F
100
AcDbEntity
  8
0
100
AcDbLine
 62
7
  6
CONTINUOUS
 10
32.4302010742
 20
113.2098248718
 11
32.4302359232
 21
110.7603377408
  0
LINE
  5
230
100
AcDbEntity
  8
0
100
AcDbLine
 62
7
  6
CONTINUOUS
 10
32.430905025
 20
63.7301848242
 11
32.430889958
 21
64.7892154505
  0
LINE
  5
231
100
AcDbEntity
  8
0
100
AcDbLine
 62
7
  6
CONTINUOUS
 10
33.1372438112
 20
151.0936289524
 11
33.1372438112
 21
149.8688169092
  0
LINE
  5
232
100
AcDbEntity
  8
0
100
AcDbLine
 62
7
  6
CONTINUOUS
 10
33.1373107993
 20
112.8015841173
 11
33.1373456484
 21
110.3520969862
  0
LINE
  5
233
100
AcDbEntity
  8
0
100
AcDbLine
 62
7
  6
CONTINUOUS
 10
33.1380147501
 20
63.3219440697
 11
33.1379996832
 21
64.380974696
  0
LINE
  5
234
100
AcDbEntity
  8
0
100
AcDbLine
 62
7
  6
CONTINUOUS
 10
107.5287390182
 20
178.4210391115
 11
105.4074275066
 21
177.1963066499
  0
LINE
  5
235
100
AcDbEntity
  8
0
100
AcDbLine
 62
7
  6
CONTINUOUS
 10
106.4138589043
 20
175.4530529905
 11
108.5351704159
 21
176.6777854521
  0
LINE
  5
236
100
AcDbEntity
  8
0
100
AcDbLine
 62
7
  6
CONTINUOUS
 10
84.3816939078
 20
169.4963369502
 11
94.1744045594
 21
175.1478228493
  0
LINE
  5
237
100
AcDbEntity
  8
0
100
AcDbLine
 62
7
  6
CONTINUOUS
 10
68.1391958138
 20
56.8289452332
 11
68.8463055389
 21
56.4207044786
  0
LINE
  5
238
100
AcDbEntity
  8
0
100
AcDbLine
 62
7
  6
CONTINUOUS
 10
68.2388821759
 20
56.8864988376
 11
68.9459919011
 21
56.4782580831
  0
LINE
  5
239
100
AcDbEntity
  8
0
100
AcDbLine
 62
7
  6
CONTINUOUS
 10
34.759499477
 20
83.504736263
 11
34.759499477
 21
89.3442799
  0
LINE
  5
23A
100
AcDbEntity
  8
0
100
AcDbLine
 62
7
  6
CONTINUOUS
 10
34.7982196503
 20
89.575896881
 11
34.7982196503
 21
89.3666348691
  0
LINE
  5
23B
100
AcDbEntity
  8
0
100
AcDbLine
 62
7
  6
CONTINUOUS
 10
39.854853777
 20
108.8416471172
 11
39.854888626
 21
106.3921599861
  0
LINE
  5
23C
100
AcDbEntity
  8
0
100
AcDbLine
 62
7
  6
CONTINUOUS
 10
39.8555577278
 20
59.3620070696
 11
39.8555414992
 21
60.5026878588
  0
LINE
  5
23D
100
AcDbEntity
  8
0
100
AcDbLine
 62
7
  6
CONTINUOUS
 10
106.1104440091
 20
174.608080148
 11
108.938859358
 21
176.2403911627
  0
LINE
  5
23E
100
AcDbEntity
  8
0
100
AcDbLine
 62
7
  6
CONTINUOUS
 10
102.6758006489
 20
171.8734721344
 11
100.9788499325
 21
170.8941423669
  0
LINE
  5
23F
100
AcDbEntity
  8
0
100
AcDbLine
 62
7
  6
CONTINUOUS
 10
106.4345721765
 20
172.788318679
 11
110.6771951997
 21
175.2367852011
  0
LINE
  5
240
100
AcDbEntity
  8
0
100
AcDbLine
 62
7
  6
CONTINUOUS
 10
103.3317685873
 20
170.9228537561
 11
106.4993661338
 21
172.7509107166
  0
LINE
  5
241
100
AcDbEntity
  8
0
100
AcDbLine
 62
7
  6
CONTINUOUS
 10
102.3777497302
 20
170.0865658387
 11
92.8668562373
 21
164.5977198618
  0
LINE
  5
242
100
AcDbEntity
  8
0
100
AcDbLine
 62
7
  6
CONTINUOUS
 10
40.5478887084
 20
79.9693303877
 11
25.5055435254
 21
88.6538359586
  0
LINE
  5
243
100
AcDbEntity
  8
0
100
AcDbLine
 62
7
  6
CONTINUOUS
 10
40.2786323037
 20
80.3183355258
 11
34.759499477
 21
83.504736263
  0
LINE
  5
244
100
AcDbEntity
  8
0
100
AcDbLine
 62
7
  6
CONTINUOUS
 10
31.2627004642
 20
85.5554120365
 11
25.7435676375
 21
88.7418127737
  0
LINE
  5
245
100
AcDbEntity
  8
0
100
AcDbLine
 62
7
  6
CONTINUOUS
 10
34.759499477
 20
87.3935904111
 11
34.6030173392
 21
87.4839333717
  0
LINE
  5
246
100
AcDbEntity
  8
0
100
AcDbLine
 62
7
  6
CONTINUOUS
 10
34.759499477
 20
89.3442799
 11
40.2786323037
 21
86.1578791629
  0
LINE
  5
247
100
AcDbEntity
  8
0
100
AcDbLine
 62
7
  6
CONTINUOUS
 10
25.7435676375
 20
94.5813564107
 11
31.2627004642
 21
91.3949556736
  0
LINE
  5
248
100
AcDbEntity
  8
0
100
AcDbLine
 62
7
  6
CONTINUOUS
 10
40.2786323037
 20
86.1578791629
 11
40.2786323037
 21
80.3183355258
  0
LINE
  5
249
100
AcDbEntity
  8
0
100
AcDbLine
 62
7
  6
CONTINUOUS
 10
40.5478887084
 20
86.2563989996
 11
40.5478887084
 21
79.9693303877
  0
LINE
  5
24A
100
AcDbEntity
  8
0
100
AcDbLine
 62
7
  6
CONTINUOUS
 10
40.5619635021
 20
108.4334063627
 11
40.5619983512
 21
105.9839192316
  0
LINE
  5
24B
100
AcDbEntity
  8
0
100
AcDbLine
 62
7
  6
CONTINUOUS
 10
40.562667453
 20
58.953766315
 11
40.5626512244
 21
60.0944471042
  0
LINE
  5
24C
100
AcDbEntity
  8
0
100
AcDbLine
 62
7
  6
CONTINUOUS
 10
42.9950649882
 20
118.4931141779
 11
42.9950649882
 21
116.0436069262
  0
LINE
  5
24D
100
AcDbEntity
  8
0
100
AcDbLine
 62
7
  6
CONTINUOUS
 10
31.4691764683
 20
122.6979312248
 11
20.4093806293
 21
116.3123834342
  0
LINE
  5
24E
100
AcDbEntity
  8
0
100
AcDbLine
 62
7
  6
CONTINUOUS
 10
25.5055435254
 20
94.9409045705
 11
40.5478887084
 21
86.2563989996
  0
LINE
  5
24F
100
AcDbEntity
  8
0
100
AcDbLine
 62
7
  6
CONTINUOUS
 10
49.1757796667
 20
83.9495522106
 11
17.6703740876
 21
102.138795107
  0
LINE
  5
250
100
AcDbEntity
  8
0
100
AcDbLine
 62
7
  6
CONTINUOUS
 10
47.5623480147
 20
104.6367723895
 11
47.5623828637
 21
102.1872852584
  0
LINE
  5
251
100
AcDbEntity
  8
0
100
AcDbLine
 62
7
  6
CONTINUOUS
 10
47.5630519654
 20
55.1571323418
 11
47.5630392218
 21
56.0528626423
  0
LINE
  5
252
100
AcDbEntity
  8
0
100
AcDbLine
 62
7
  6
CONTINUOUS
 10
48.2694577398
 20
104.2285316349
 11
48.2694925888
 21
101.7790445039
  0
LINE
  5
253
100
AcDbEntity
  8
0
100
AcDbLine
 62
7
  6
CONTINUOUS
 10
48.2701616906
 20
54.7488915873
 11
48.270148947
 21
55.6446218878
  0
LINE
  5
254
100
AcDbEntity
  8
0
100
AcDbLine
 62
7
  6
CONTINUOUS
 10
49.1757796667
 20
83.9495522106
 11
49.1757796667
 21
64.1034614295
  0
LINE
  5
255
100
AcDbEntity
  8
0
100
AcDbLine
 62
7
  6
CONTINUOUS
 10
50.4904280747
 20
114.16576218
 11
50.4904280747
 21
111.7162549283
  0
LINE
  5
256
100
AcDbEntity
  8
0
100
AcDbLine
 62
7
  6
CONTINUOUS
 10
23.3272047853
 20
105.5757953608
 11
17.6703740876
 21
102.138795107
  0
LINE
  5
257
100
AcDbEntity
  8
0
100
AcDbLine
 62
7
  6
CONTINUOUS
 10
32.4302010742
 20
113.2098248718
 11
42.287955263
 21
118.9013549324
  0
LINE
  5
258
100
AcDbEntity
  8
0
100
AcDbLine
 62
7
  6
CONTINUOUS
 10
42.9950649882
 20
118.4931141779
 11
33.1373107993
 21
112.8015841173
  0
LINE
  5
259
100
AcDbEntity
  8
0
100
AcDbLine
 62
7
  6
CONTINUOUS
 10
124.7676696411
 20
165.080145636
 11
125.5475585799
 21
165.5303710177
  0
LINE
  5
25A
100
AcDbEntity
  8
0
100
AcDbLine
 62
7
  6
CONTINUOUS
 10
125.5475585799
 20
165.5303710177
 11
127.6688700915
 21
166.7551034793
  0
LINE
  5
25B
100
AcDbEntity
  8
0
100
AcDbLine
 62
7
  6
CONTINUOUS
 10
107.2917098468
 20
156.2695018289
 11
116.8027519169
 21
161.7584335514
  0
LINE
  5
25C
100
AcDbEntity
  8
0
100
AcDbLine
 62
7
  6
CONTINUOUS
 10
118.2523362911
 20
162.3087039644
 11
121.4198912985
 21
164.1367363749
  0
LINE
  5
25D
100
AcDbEntity
  8
0
100
AcDbLine
 62
7
  6
CONTINUOUS
 10
121.4841752918
 20
164.0996228337
 11
125.7267983151
 21
166.5480893558
  0
LINE
  5
25E
100
AcDbEntity
  8
0
100
AcDbLine
 62
7
  6
CONTINUOUS
 10
117.8988421415
 20
161.1256671877
 11
119.5952428001
 21
162.1047316468
  0
LINE
  5
25F
100
AcDbEntity
  8
0
100
AcDbLine
 62
7
  6
CONTINUOUS
 10
123.8588981103
 20
164.3612372095
 11
124.7676696411
 21
164.8856997077
  0
LINE
  5
260
100
AcDbEntity
  8
0
100
AcDbLine
 62
7
  6
CONTINUOUS
 10
108.7062684521
 20
155.4528549944
 11
116.8024637066
 21
160.1252623537
  0
LINE
  5
261
100
AcDbEntity
  8
0
100
AcDbLine
 62
7
  6
CONTINUOUS
 10
54.8326103644
 20
87.3865524644
 11
23.3272047853
 21
105.5757953608
  0
LINE
  5
262
100
AcDbEntity
  8
0
100
AcDbLine
 62
7
  6
CONTINUOUS
 10
65.2387402725
 20
55.8534615686
 11
65.2137461493
 21
55.9384346296
  0
LINE
  5
263
100
AcDbEntity
  8
0
100
AcDbLine
 62
7
  6
CONTINUOUS
 10
54.8326103644
 20
67.3694146605
 11
54.8326103644
 21
87.3865524644
  0
LINE
  5
264
100
AcDbEntity
  8
0
100
AcDbLine
 62
7
  6
CONTINUOUS
 10
55.6941045546
 20
100.6768522021
 11
55.6941394036
 21
98.2273650711
  0
LINE
  5
265
100
AcDbEntity
  8
0
100
AcDbLine
 62
7
  6
CONTINUOUS
 10
55.6948085054
 20
51.1972121545
 11
55.6948062165
 21
51.3580909889
  0
LINE
  5
266
100
AcDbEntity
  8
0
100
AcDbLine
 62
7
  6
CONTINUOUS
 10
56.4012142797
 20
100.2686114476
 11
56.4012491288
 21
97.8191243165
  0
LINE
  5
267
100
AcDbEntity
  8
0
100
AcDbLine
 62
7
  6
CONTINUOUS
 10
56.4019182305
 20
50.7889714
 11
56.4019159417
 21
50.9498502344
  0
LINE
  5
268
100
AcDbEntity
  8
0
100
AcDbLine
 62
7
  6
CONTINUOUS
 10
57.179086337
 20
95.0838641992
 11
57.179086337
 21
50.5011608482
  0
LINE
  5
269
100
AcDbEntity
  8
0
100
AcDbLine
 62
7
  6
CONTINUOUS
 10
57.9857911613
 20
109.8384101821
 11
57.9857911613
 21
107.3889029303
  0
LINE
  5
26A
100
AcDbEntity
  8
0
100
AcDbLine
 62
7
  6
CONTINUOUS
 10
33.1373456484
 20
110.3520969862
 11
42.9950649882
 21
116.0436069262
  0
LINE
  5
26B
100
AcDbEntity
  8
0
100
AcDbLine
 62
7
  6
CONTINUOUS
 10
112.6867434462
 20
152.9309112098
 11
71.3211689692
 21
129.0486282083
  0
LINE
  5
26C
100
AcDbEntity
  8
0
100
AcDbLine
 62
7
  6
CONTINUOUS
 10
71.3211689692
 20
127.8238161651
 11
68.9459919011
 21
126.4525152311
  0
LINE
  5
26D
100
AcDbEntity
  8
0
100
AcDbLine
 62
7
  6
CONTINUOUS
 10
39.854853777
 20
108.8416471172
 11
49.7833183496
 21
114.5740029345
  0
LINE
  5
26E
100
AcDbEntity
  8
0
100
AcDbLine
 62
7
  6
CONTINUOUS
 10
50.4904280747
 20
114.16576218
 11
40.5619635021
 21
108.4334063627
  0
LINE
  5
26F
100
AcDbEntity
  8
0
100
AcDbLine
 62
7
  6
CONTINUOUS
 10
134.6551805285
 20
162.5121490323
 11
132.5338690169
 21
161.2874165707
  0
LINE
  5
270
100
AcDbEntity
  8
0
100
AcDbLine
 62
7
  6
CONTINUOUS
 10
117.8985539312
 20
159.49249599
 11
119.5949545898
 21
160.4715604492
  0
LINE
  5
271
100
AcDbEntity
  8
0
100
AcDbLine
 62
7
  6
CONTINUOUS
 10
57.179086337
 20
95.0838641992
 11
20.4093806293
 21
116.3123834342
  0
LINE
  5
272
100
AcDbEntity
  8
0
100
AcDbLine
 62
7
  6
CONTINUOUS
 10
40.5619983512
 20
105.9839192316
 11
39.854888626
 21
106.3921599861
  0
LINE
  5
273
100
AcDbEntity
  8
0
100
AcDbLine
 62
7
  6
CONTINUOUS
 10
33.1373456484
 20
110.3520969862
 11
32.4302359232
 21
110.7603377408
  0
LINE
  5
274
100
AcDbEntity
  8
0
100
AcDbLine
 62
7
  6
CONTINUOUS
 10
48.2694925888
 20
101.7790445039
 11
47.5623828637
 21
102.1872852584
  0
LINE
  5
275
100
AcDbEntity
  8
0
100
AcDbLine
 62
7
  6
CONTINUOUS
 10
56.4012491288
 20
97.8191243165
 11
55.6941394036
 21
98.2273650711
  0
LINE
  5
276
100
AcDbEntity
  8
0
100
AcDbLine
 62
7
  6
CONTINUOUS
 10
65.2387402725
 20
55.8534615686
 11
65.2230982744
 21
55.946962035
  0
LINE
  5
277
100
AcDbEntity
  8
0
100
AcDbLine
 62
7
  6
CONTINUOUS
 10
63.117411097
 20
57.0781838322
 11
63.1179577675
 21
56.3794143235
  0
LINE
  5
278
100
AcDbEntity
  8
0
100
AcDbLine
 62
7
  6
CONTINUOUS
 10
65.2387402725
 20
55.8534615687
 11
65.239286943
 21
55.1546920599
  0
LINE
  5
279
100
AcDbEntity
  8
0
100
AcDbLine
 62
7
  6
CONTINUOUS
 10
62.2508788463
 20
97.6021249065
 11
62.250873653
 21
98.0121407028
  0
LINE
  5
27A
100
AcDbEntity
  8
0
100
AcDbLine
 62
7
  6
CONTINUOUS
 10
62.2508788464
 20
53.4293441398
 11
62.2508788464
 21
56.2871025998
  0
LWPOLYLINE
  5
27B
100
AcDbEntity
  8
0
100
AcDbPolyline
 62
7
  6
CONTINUOUS
 90
4
 70
0
 10
62.6948986514
 20
100.7180107122
 10
60.3668652574
 20
81.840878586
 10
60.4523787878
 20
73.0084863038
 10
63.117411097
 20
57.0781838322
  0
LINE
  5
27C
100
AcDbEntity
  8
0
100
AcDbLine
 62
7
  6
CONTINUOUS
 10
133.324687269
 20
159.9176294048
 11
135.4459987806
 21
161.1423618664
  0
LINE
  5
27D
100
AcDbEntity
  8
0
100
AcDbLine
 62
7
  6
CONTINUOUS
 10
40.5619983512
 20
105.9839192316
 11
50.4904280747
 21
111.7162549283
  0
LINE
  5
27E
100
AcDbEntity
  8
0
100
AcDbLine
 62
7
  6
CONTINUOUS
 10
25.7435676375
 20
94.5813564107
 11
25.9359388641
 21
94.6924213272
  0
LINE
  5
27F
100
AcDbEntity
  8
0
100
AcDbLine
 62
7
  6
CONTINUOUS
 10
117.9051135378
 20
147.6733160378
 11
115.6565795625
 21
146.375132091
  0
LINE
  5
280
100
AcDbEntity
  8
0
100
AcDbLine
 62
7
  6
CONTINUOUS
 10
115.6565795625
 20
144.8084766199
 11
112.6867434462
 21
143.0938511736
  0
LINE
  5
281
100
AcDbEntity
  8
0
100
AcDbLine
 62
7
  6
CONTINUOUS
 10
47.5623480147
 20
104.6367723895
 11
57.2786814362
 21
110.2466509366
  0
LINE
  5
282
100
AcDbEntity
  8
0
100
AcDbLine
 62
7
  6
CONTINUOUS
 10
128.3992090285
 20
157.0223755825
 11
117.1914307817
 21
150.5542379059
  0
LINE
  5
283
100
AcDbEntity
  8
0
100
AcDbLine
 62
7
  6
CONTINUOUS
 10
132.9806135647
 20
159.0949314762
 11
135.8090289135
 21
160.727242491
  0
LINE
  5
284
100
AcDbEntity
  8
0
100
AcDbLine
 62
7
  6
CONTINUOUS
 10
137.0111154463
 20
160.0332332082
 11
118.0058891695
 21
149.0650986301
  0
LINE
  5
285
100
AcDbEntity
  8
0
100
AcDbLine
 62
7
  6
CONTINUOUS
 10
40.5619635021
 20
108.4334063627
 11
39.854853777
 21
108.8416471172
  0
LINE
  5
286
100
AcDbEntity
  8
0
100
AcDbLine
 62
7
  6
CONTINUOUS
 10
33.1373107993
 20
112.8015841173
 11
32.4302010742
 21
113.2098248718
  0
LINE
  5
287
100
AcDbEntity
  8
0
100
AcDbLine
 62
7
  6
CONTINUOUS
 10
48.2694577398
 20
104.2285316349
 11
47.5623480147
 21
104.6367723895
  0
LINE
  5
288
100
AcDbEntity
  8
0
100
AcDbLine
 62
7
  6
CONTINUOUS
 10
56.4012142797
 20
100.2686114476
 11
55.6941045546
 21
100.6768522021
  0
LINE
  5
289
100
AcDbEntity
  8
0
100
AcDbLine
 62
7
  6
CONTINUOUS
 10
60.1295444776
 20
99.2368629664
 11
62.250873653
 21
98.0121407028
  0
LINE
  5
28A
100
AcDbEntity
  8
0
100
AcDbLine
 62
7
  6
CONTINUOUS
 10
64.8162289048
 20
99.4932890711
 11
62.6948986513
 21
100.7180107122
  0
LINE
  5
28B
100
AcDbEntity
  8
0
100
AcDbLine
 62
7
  6
CONTINUOUS
 10
65.4811542479
 20
105.5110581842
 11
65.4811542479
 21
103.0615509324
  0
LINE
  5
28C
100
AcDbEntity
  8
0
100
AcDbLine
 62
7
  6
CONTINUOUS
 10
68.2388821759
 20
56.8864988376
 11
68.2388821759
 21
101.4694119898
  0
LINE
  5
28D
100
AcDbEntity
  8
0
100
AcDbLine
 62
7
  6
CONTINUOUS
 10
68.8463055389
 20
56.4207044786
 11
68.8463055389
 21
33.4769865571
  0
LINE
  5
28E
100
AcDbEntity
  8
0
100
AcDbLine
 62
7
  6
CONTINUOUS
 10
68.9459919011
 20
56.4782580831
 11
68.9459919011
 21
126.4525152311
  0
LINE
  5
28F
100
AcDbEntity
  8
0
100
AcDbLine
 62
7
  6
CONTINUOUS
 10
71.2214673281
 20
34.84827867
 11
71.2214673281
 21
33.6235250446
  0
LINE
  5
290
100
AcDbEntity
  8
0
100
AcDbLine
 62
7
  6
CONTINUOUS
 10
71.3211689692
 20
129.0486282083
 11
71.3211689692
 21
127.8238161651
  0
LINE
  5
291
100
AcDbEntity
  8
0
100
AcDbLine
 62
7
  6
CONTINUOUS
 10
57.9857911613
 20
109.8384101821
 11
48.2694577398
 21
104.2285316349
  0
LINE
  5
292
100
AcDbEntity
  8
0
100
AcDbLine
 62
7
  6
CONTINUOUS
 10
25.7435676375
 20
88.7912584235
 11
25.5055435253
 21
88.6538359586
  0
LINE
  5
293
100
AcDbEntity
  8
0
100
AcDbLine
 62
7
  6
CONTINUOUS
 10
48.2694925888
 20
101.7790445039
 11
57.9857911613
 21
107.3889029303
  0
LINE
  5
294
100
AcDbEntity
  8
0
100
AcDbLine
 62
7
  6
CONTINUOUS
 10
31.2627004642
 20
91.3949556736
 11
31.4550716908
 21
91.5060205901
  0
LINE
  5
295
100
AcDbEntity
  8
0
100
AcDbLine
 62
7
  6
CONTINUOUS
 10
118.0604428943
 20
71.7563505516
 11
118.3434822921
 21
71.5929413759
  0
LINE
  5
296
100
AcDbEntity
  8
0
100
AcDbLine
 62
7
  6
CONTINUOUS
 10
68.2388821759
 20
101.4694119898
 11
65.4811542479
 21
103.0615509324
  0
LINE
  5
297
100
AcDbEntity
  8
0
100
AcDbLine
 62
7
  6
CONTINUOUS
 10
62.6527135395
 20
104.6945149942
 11
57.9857911613
 21
107.3889029303
  0
LINE
  5
298
100
AcDbEntity
  8
0
100
AcDbLine
 62
7
  6
CONTINUOUS
 10
55.157350453
 20
109.0218669921
 11
50.4904280747
 21
111.7162549283
  0
LINE
  5
299
100
AcDbEntity
  8
0
100
AcDbLine
 62
7
  6
CONTINUOUS
 10
47.6619873664
 20
113.34921899
 11
42.9950649882
 21
116.0436069262
  0
LINE
  5
29A
100
AcDbEntity
  8
0
100
AcDbLine
 62
7
  6
CONTINUOUS
 10
40.1666242799
 20
117.6765709879
 11
31.4691764683
 21
122.6979312249
  0
LINE
  5
29B
100
AcDbEntity
  8
0
100
AcDbLine
 62
7
  6
CONTINUOUS
 10
65.4811542479
 20
105.5110581842
 11
64.7740445227
 21
105.9192989387
  0
LINE
  5
29C
100
AcDbEntity
  8
0
100
AcDbLine
 62
7
  6
CONTINUOUS
 10
57.9857911613
 20
109.8384101821
 11
57.2786814362
 21
110.2466509366
  0
LINE
  5
29D
100
AcDbEntity
  8
0
100
AcDbLine
 62
7
  6
CONTINUOUS
 10
50.4904280747
 20
114.16576218
 11
49.7833183496
 21
114.5740029345
  0
LINE
  5
29E
100
AcDbEntity
  8
0
100
AcDbLine
 62
7
  6
CONTINUOUS
 10
42.9950649882
 20
118.4931141779
 11
42.287955263
 21
118.9013549324
  0
LINE
  5
29F
100
AcDbEntity
  8
0
100
AcDbLine
 62
7
  6
CONTINUOUS
 10
34.759499477
 20
89.3442799
 11
34.9794484594
 21
89.4712667463
  0
LINE
  5
2A0
100
AcDbEntity
  8
0
100
AcDbLine
 62
7
  6
CONTINUOUS
 10
55.6941045546
 20
100.6768522021
 11
64.7740445227
 21
105.9192989387
  0
LINE
  5
2A1
100
AcDbEntity
  8
0
100
AcDbLine
 62
7
  6
CONTINUOUS
 10
65.4811542479
 20
105.5110581842
 11
56.4012142797
 21
100.2686114476
  0
LINE
  5
2A2
100
AcDbEntity
  8
0
100
AcDbLine
 62
7
  6
CONTINUOUS
 10
128.8440661265
 20
141.9283215218
 11
105.1914427717
 21
128.2725545748
  0
LINE
  5
2A3
100
AcDbEntity
  8
0
100
AcDbLine
 62
7
  6
CONTINUOUS
 10
31.2627004642
 20
85.5554120365
 11
34.759499477
 21
87.5742778368
  0
LINE
  5
2A4
100
AcDbEntity
  8
0
100
AcDbLine
 62
7
  6
CONTINUOUS
 10
56.4012491288
 20
97.8191243165
 11
65.4811542479
 21
103.0615509324
  0
LINE
  5
2A5
100
AcDbEntity
  8
0
100
AcDbLine
 62
7
  6
CONTINUOUS
 10
60.1295444776
 20
99.2368629664
 11
62.6948986514
 21
100.7180107122
  0
LINE
  5
2A6
100
AcDbEntity
  8
0
100
AcDbLine
 62
7
  6
CONTINUOUS
 10
105.1914427717
 20
125.0065307969
 11
128.1369564014
 21
138.2540501907
  0
LINE
  5
2A7
100
AcDbEntity
  8
0
100
AcDbLine
 62
7
  6
CONTINUOUS
 10
105.1914427717
 20
124.1900424892
 11
128.8440661265
 21
137.8458094362
  0
LINE
  5
2A8
100
AcDbEntity
  8
0
100
AcDbLine
 62
7
  6
CONTINUOUS
 10
40.2786323037
 20
86.1578791629
 11
40.4985812861
 21
86.2848660091
  0
LINE
  5
2A9
100
AcDbEntity
  8
0
100
AcDbLine
 62
7
  6
CONTINUOUS
 10
49.1757796667
 20
83.9495522106
 11
54.8326103644
 21
87.3865524644
  0
LINE
  5
2AA
100
AcDbEntity
  8
0
100
AcDbLine
 62
7
  6
CONTINUOUS
 10
68.2388821759
 20
101.4694119898
 11
64.8162289048
 21
99.4932890711
  0
LINE
  5
2AB
100
AcDbEntity
  8
0
100
AcDbLine
 62
7
  6
CONTINUOUS
 10
62.250873653
 20
98.0121407028
 11
57.179086337
 21
95.0838641992
  0
LINE
  5
2AC
100
AcDbEntity
  8
0
100
AcDbLine
 62
7
  6
CONTINUOUS
 10
40.2786323037
 20
80.3183355258
 11
40.5478887084
 21
80.4737898556
  0
LINE
  5
2AD
100
AcDbEntity
  8
0
100
AcDbLine
 62
7
  6
CONTINUOUS
 10
133.5638037066
 20
129.9285527708
 11
134.1317366852
 21
130.2840978111
  0
LINE
  5
2AE
100
AcDbEntity
  8
0
100
AcDbLine
 62
7
  6
CONTINUOUS
 10
132.2028093533
 20
130.8172679483
 11
132.9099131905
 21
131.2255121022
  0
LINE
  5
2AF
100
AcDbEntity
  8
0
100
AcDbLine
 62
7
  6
CONTINUOUS
 10
128.1369564014
 20
87.6309003286
 11
128.8440661265
 21
87.2226595741
  0
LINE
  5
2B0
100
AcDbEntity
  8
0
100
AcDbLine
 62
7
  6
CONTINUOUS
 10
68.9459919011
 20
126.4525152311
 11
30.7620667431
 21
148.4975159752
  0
LINE
  5
2B1
100
AcDbEntity
  8
0
100
AcDbLine
 62
7
  6
CONTINUOUS
 10
94.1744045594
 20
175.1478228493
 11
94.1746927697
 21
176.7809940469
  0
LINE
  5
2B2
100
AcDbEntity
  8
0
100
AcDbLine
 62
7
  6
CONTINUOUS
 10
34.0551526868
 20
63.8514681415
 11
33.1380147501
 21
63.3219440697
  0
LINE
  5
2B3
100
AcDbEntity
  8
0
100
AcDbLine
 62
7
  6
CONTINUOUS
 10
71.3211689692
 20
127.8238161651
 11
33.1372438112
 21
149.8688169092
  0
LINE
  5
2B4
100
AcDbEntity
  8
0
100
AcDbLine
 62
7
  6
CONTINUOUS
 10
71.3211689692
 20
129.0486282083
 11
33.1372438112
 21
151.0936289524
  0
LINE
  5
2B5
100
AcDbEntity
  8
0
100
AcDbLine
 62
7
  6
CONTINUOUS
 10
97.8645935176
 20
179.368716449
 11
97.8619531935
 21
180.7688210698
  0
LINE
  5
2B6
100
AcDbEntity
  8
0
100
AcDbLine
 62
7
  6
CONTINUOUS
 10
100.9785649179
 20
169.2790801977
 11
100.9788499325
 21
170.8941423669
  0
LINE
  5
2B7
100
AcDbEntity
  8
0
100
AcDbLine
 62
7
  6
CONTINUOUS
 10
54.8326103644
 20
67.3694146605
 11
49.1757796667
 21
64.1034614295
  0
LINE
  5
2B8
100
AcDbEntity
  8
0
100
AcDbLine
 62
7
  6
CONTINUOUS
 10
41.5505157734
 20
59.5241161435
 11
40.562667453
 21
58.953766315
  0
LINE
  5
2B9
100
AcDbEntity
  8
0
100
AcDbLine
 62
7
  6
CONTINUOUS
 10
137.0111154463
 20
98.4214454296
 11
132.9099131905
 21
100.7892220897
  0
LINE
  5
2BA
100
AcDbEntity
  8
0
100
AcDbLine
 62
7
  6
CONTINUOUS
 10
132.9099131905
 20
102.2258509244
 11
132.2028093533
 21
102.6340882796
  0
LINE
  5
2BB
100
AcDbEntity
  8
0
100
AcDbLine
 62
7
  6
CONTINUOUS
 10
105.1914427717
 20
128.2725545748
 11
105.1914427717
 21
124.1900424892
  0
LINE
  5
2BC
100
AcDbEntity
  8
0
100
AcDbLine
 62
7
  6
CONTINUOUS
 10
105.1914427717
 20
77.6494047128
 11
105.1914427717
 21
73.5668926271
  0
LINE
  5
2BD
100
AcDbEntity
  8
0
100
AcDbLine
 62
7
  6
CONTINUOUS
 10
106.4138589043
 20
174.7831843721
 11
106.4138589043
 21
175.4530529905
  0
LINE
  5
2BE
100
AcDbEntity
  8
0
100
AcDbLine
 62
7
  6
CONTINUOUS
 10
106.4993661338
 20
169.0940922581
 11
106.4993661338
 21
172.7509107166
  0
LINE
  5
2BF
100
AcDbEntity
  8
0
100
AcDbLine
 62
7
  6
CONTINUOUS
 10
108.5351704159
 20
176.0074176332
 11
108.5351704159
 21
176.6777854521
  0
LINE
  5
2C0
100
AcDbEntity
  8
0
100
AcDbLine
 62
7
  6
CONTINUOUS
 10
137.0111154463
 20
133.4969046515
 11
134.1317366852
 21
130.2840978111
  0
LINE
  5
2C1
100
AcDbEntity
  8
0
100
AcDbLine
 62
7
  6
CONTINUOUS
 10
49.04587886
 20
55.1967641456
 11
48.2701616906
 21
54.7488915873
  0
LINE
  5
2C2
100
AcDbEntity
  8
0
100
AcDbLine
 62
7
  6
CONTINUOUS
 10
110.6771951997
 20
175.2367852011
 11
110.6771951997
 21
166.6820898402
  0
LINE
  5
2C3
100
AcDbEntity
  8
0
100
AcDbLine
 62
7
  6
CONTINUOUS
 10
112.6867434462
 20
143.0938511736
 11
112.6867434462
 21
152.9309112098
  0
LINE
  5
2C4
100
AcDbEntity
  8
0
100
AcDbLine
 62
7
  6
CONTINUOUS
 10
112.9695849811
 20
64.734647824
 11
112.9695849811
 21
68.8171599096
  0
LINE
  5
2C5
100
AcDbEntity
  8
0
100
AcDbLine
 62
7
  6
CONTINUOUS
 10
115.6565795625
 20
146.375132091
 11
115.6565795625
 21
144.8084766199
  0
LINE
  5
2C6
100
AcDbEntity
  8
0
100
AcDbLine
 62
7
  6
CONTINUOUS
 10
112.7132252128
 20
64.5866393262
 11
112.6602616795
 21
57.5480813136
  0
LINE
  5
2C7
100
AcDbEntity
  8
0
100
AcDbLine
 62
7
  6
CONTINUOUS
 10
117.9051135378
 20
147.6733160378
 11
118.0058891696
 21
149.0650986301
  0
LINE
  5
2C8
100
AcDbEntity
  8
0
100
AcDbLine
 62
7
  6
CONTINUOUS
 10
132.9099131905
 20
102.2258509244
 11
132.2028093533
 21
101.8176067705
  0
LINE
  5
2C9
100
AcDbEntity
  8
0
100
AcDbLine
 62
7
  6
CONTINUOUS
 10
62.2508788464
 20
55.8788090631
 11
63.1179577675
 21
56.3794143235
  0
LINE
  5
2CA
100
AcDbEntity
  8
0
100
AcDbLine
 62
7
  6
CONTINUOUS
 10
132.9099131905
 20
96.0949572873
 11
137.0111154463
 21
98.4214454296
  0
LINE
  5
2CB
100
AcDbEntity
  8
0
100
AcDbLine
 62
7
  6
CONTINUOUS
 10
118.3434822921
 20
71.5929413759
 11
118.3434822921
 21
71.9197624487
  0
LINE
  5
2CC
100
AcDbEntity
  8
0
100
AcDbLine
 62
7
  6
CONTINUOUS
 10
116.8024637066
 20
160.1252623537
 11
116.8027519169
 21
161.7584335514
  0
LINE
  5
2CD
100
AcDbEntity
  8
0
100
AcDbLine
 62
7
  6
CONTINUOUS
 10
117.8985539312
 20
159.49249599
 11
117.8988421415
 21
161.1256671877
  0
LINE
  5
2CE
100
AcDbEntity
  8
0
100
AcDbLine
 62
7
  6
CONTINUOUS
 10
119.5949545898
 20
160.4715604492
 11
119.5952428001
 21
162.1047316468
  0
LINE
  5
2CF
100
AcDbEntity
  8
0
100
AcDbLine
 62
7
  6
CONTINUOUS
 10
64.6013101378
 20
55.5230198074
 11
62.2508788464
 21
54.1659611819
  0
LINE
  5
2D0
100
AcDbEntity
  8
0
100
AcDbLine
 62
7
  6
CONTINUOUS
 10
56.5412419465
 20
50.8694121477
 11
56.4019182305
 21
50.7889714
  0
LINE
  5
2D1
100
AcDbEntity
  8
0
100
AcDbLine
 62
7
  6
CONTINUOUS
 10
57.179086337
 20
50.5011608482
 11
62.2508788464
 21
53.4293441398
  0
LINE
  5
2D2
100
AcDbEntity
  8
0
100
AcDbLine
 62
7
  6
CONTINUOUS
 10
65.239286943
 20
55.1546920599
 11
68.2388821759
 21
56.8864988376
  0
LINE
  5
2D3
100
AcDbEntity
  8
0
100
AcDbLine
 62
7
  6
CONTINUOUS
 10
128.8440661265
 20
91.3051716598
 11
105.1914427717
 21
77.6494047128
  0
LINE
  5
2D4
100
AcDbEntity
  8
0
100
AcDbLine
 62
7
  6
CONTINUOUS
 10
68.9459919011
 20
56.4782580831
 11
68.8463055389
 21
56.4207044786
  0
LINE
  5
2D5
100
AcDbEntity
  8
0
100
AcDbLine
 62
7
  6
CONTINUOUS
 10
105.1914427717
 20
74.3833809349
 11
128.1369564014
 21
87.6309003286
  0
LINE
  5
2D6
100
AcDbEntity
  8
0
100
AcDbLine
 62
7
  6
CONTINUOUS
 10
105.1914427717
 20
73.5668926271
 11
128.8440661265
 21
87.2226595741
  0
LINE
  5
2D7
100
AcDbEntity
  8
0
100
AcDbLine
 62
7
  6
CONTINUOUS
 10
124.7676696411
 20
165.080145636
 11
124.7676696411
 21
163.8365695911
  0
LINE
  5
2D8
100
AcDbEntity
  8
0
100
AcDbLine
 62
7
  6
CONTINUOUS
 10
125.886717474
 20
75.9480042424
 11
125.886717474
 21
76.2748253153
  0
LINE
  5
2D9
100
AcDbEntity
  8
0
100
AcDbLine
 62
7
  6
CONTINUOUS
 10
128.1369564014
 20
87.6309003286
 11
128.1369564014
 21
90.8969241065
  0
LINE
  5
2DA
100
AcDbEntity
  8
0
100
AcDbLine
 62
7
  6
CONTINUOUS
 10
128.1369564014
 20
138.2540501907
 11
128.1369564014
 21
141.5200739686
  0
LINE
  5
2DB
100
AcDbEntity
  8
0
100
AcDbLine
 62
7
  6
CONTINUOUS
 10
128.8440661265
 20
87.2226595741
 11
128.8440661265
 21
91.3051716598
  0
LINE
  5
2DC
100
AcDbEntity
  8
0
100
AcDbLine
 62
7
  6
CONTINUOUS
 10
128.8440661265
 20
137.8458094362
 11
128.8440661265
 21
141.9283215218
  0
LINE
  5
2DD
100
AcDbEntity
  8
0
100
AcDbLine
 62
7
  6
CONTINUOUS
 10
112.9695849811
 20
68.8171599096
 11
137.0111154463
 21
82.6974611412
  0
LINE
  5
2DE
100
AcDbEntity
  8
0
100
AcDbLine
 62
7
  6
CONTINUOUS
 10
133.5638037066
 20
129.9285527708
 11
132.2028093533
 21
130.714305451
  0
LINE
  5
2DF
100
AcDbEntity
  8
0
100
AcDbLine
 62
7
  6
CONTINUOUS
 10
115.6565795625
 20
144.8084766199
 11
112.6867434462
 21
146.5230735117
  0
LINE
  5
2E0
100
AcDbEntity
  8
0
100
AcDbLine
 62
7
  6
CONTINUOUS
 10
128.1369564014
 20
138.2540501907
 11
128.8440661265
 21
137.8458094362
  0
LINE
  5
2E1
100
AcDbEntity
  8
0
100
AcDbLine
 62
7
  6
CONTINUOUS
 10
132.2028093533
 20
101.8176067705
 11
132.2028093533
 21
130.8172679483
  0
LINE
  5
2E2
100
AcDbEntity
  8
0
100
AcDbLine
 62
7
  6
CONTINUOUS
 10
132.9099131905
 20
96.0949572873
 11
132.9099131905
 21
102.2258509244
  0
LINE
  5
2E3
100
AcDbEntity
  8
0
100
AcDbLine
 62
7
  6
CONTINUOUS
 10
133.324687269
 20
159.2935003666
 11
133.324687269
 21
159.9176294048
  0
LINE
  5
2E4
100
AcDbEntity
  8
0
100
AcDbLine
 62
7
  6
CONTINUOUS
 10
135.4459987806
 20
160.5177336277
 11
135.4459987806
 21
161.1423618664
  0
LINE
  5
2E5
100
AcDbEntity
  8
0
100
AcDbLine
 62
7
  6
CONTINUOUS
 10
118.3434822921
 20
71.5929413759
 11
125.886717474
 21
75.9480042424
  0
LINE
  5
2E6
100
AcDbEntity
  8
0
100
AcDbLine
 62
7
  6
CONTINUOUS
 10
112.7132252128
 20
64.5866393262
 11
112.9695849811
 21
64.734647824
  0
LINE
  5
2E7
100
AcDbEntity
  8
0
100
AcDbLine
 62
7
  6
CONTINUOUS
 10
115.6565795625
 20
146.375132091
 11
112.6867434462
 21
148.0897289829
  0
LINE
  5
2E8
100
AcDbEntity
  8
0
100
AcDbLine
 62
7
  6
CONTINUOUS
 10
117.9051135378
 20
147.6733160378
 11
112.6867434462
 21
150.6860752572
  0
LINE
  5
2E9
100
AcDbEntity
  8
0
100
AcDbLine
 62
7
  6
CONTINUOUS
 10
118.0058891695
 20
149.0650986301
 11
112.6867434462
 21
152.1360393714
  0
LINE
  5
2EA
100
AcDbEntity
  8
0
100
AcDbLine
 62
7
  6
CONTINUOUS
 10
112.6867434462
 20
152.9309112098
 11
74.5028182882
 21
174.9759119539
  0
LINE
  5
2EB
100
AcDbEntity
  8
0
100
AcDbLine
 62
7
  6
CONTINUOUS
 10
117.1914307817
 20
150.5542379059
 11
107.2917098468
 21
156.2695018289
  0
LINE
  5
2EC
100
AcDbEntity
  8
0
100
AcDbLine
 62
7
  6
CONTINUOUS
 10
92.8668562373
 20
164.5977198618
 11
82.9671353024
 21
170.3129837848
  0
LINE
  5
2ED
100
AcDbEntity
  8
0
100
AcDbLine
 62
7
  6
CONTINUOUS
 10
137.0111154463
 20
82.6974611412
 11
137.0111154463
 21
98.4214454296
  0
LINE
  5
2EE
100
AcDbEntity
  8
0
100
AcDbLine
 62
7
  6
CONTINUOUS
 10
137.0111154463
 20
133.4969046515
 11
137.0111154463
 21
160.0332332082
  0
LINE
  5
2EF
100
AcDbEntity
  8
0
100
AcDbLine
 62
7
  6
CONTINUOUS
 10
68.8463055389
 20
33.4769865571
 11
71.2214673281
 21
34.84827867
  0
LINE
  5
2F0
100
AcDbEntity
  8
0
100
AcDbLine
 62
7
  6
CONTINUOUS
 10
71.2214673281
 20
33.6235250446
 11
112.6602616795
 21
57.5480813136
  0
LINE
  5
2F1
100
AcDbEntity
  8
0
100
AcDbLine
 62
7
  6
CONTINUOUS
 10
105.4074275066
 20
177.1963066499
 11
106.4138589043
 21
175.4530529905
  0
LINE
  5
2F2
100
AcDbEntity
  8
0
100
AcDbLine
 62
7
  6
CONTINUOUS
 10
108.5351704159
 20
176.6777854521
 11
107.5287390183
 21
178.4210391115
  0
LINE
  5
2F3
100
AcDbEntity
  8
0
100
AcDbLine
 62
7
  6
CONTINUOUS
 10
133.5638037066
 20
129.9285527708
 11
132.9099131905
 21
131.2255121022
  0
LINE
  5
2F4
100
AcDbEntity
  8
0
100
AcDbLine
 62
7
  6
CONTINUOUS
 10
116.8024637066
 20
160.1252623537
 11
117.8985539312
 21
159.49249599
  0
LINE
  5
2F5
100
AcDbEntity
  8
0
100
AcDbLine
 62
7
  6
CONTINUOUS
 10
116.8027519169
 20
161.7584335514
 11
117.8988421415
 21
161.1256671877
  0
LINE
  5
2F6
100
AcDbEntity
  8
0
100
AcDbLine
 62
7
  6
CONTINUOUS
 10
100.9788499325
 20
170.8941423669
 11
102.3777497302
 21
170.0865658387
  0
LINE
  5
2F7
100
AcDbEntity
  8
0
100
AcDbLine
 62
7
  6
CONTINUOUS
 10
119.5949545898
 20
160.4715604492
 11
126.984318856
 21
156.2058261976
  0
LINE
  5
2F8
100
AcDbEntity
  8
0
100
AcDbLine
 62
7
  6
CONTINUOUS
 10
94.1744045594
 20
175.1478228493
 11
101.2609104764
 21
171.0569227495
  0
LINE
  5
2F9
100
AcDbEntity
  8
0
100
AcDbLine
 62
7
  6
CONTINUOUS
 10
118.2523362911
 20
162.3087039644
 11
103.3317685873
 21
170.9228537561
  0
LINE
  5
2FA
100
AcDbEntity
  8
0
100
AcDbLine
 62
7
  6
CONTINUOUS
 10
119.5952428001
 20
162.1047316468
 11
128.3992090285
 21
157.0223755825
  0
LINE
  5
2FB
100
AcDbEntity
  8
0
100
AcDbLine
 62
7
  6
CONTINUOUS
 10
94.1746927697
 20
176.7809940469
 11
102.6758006489
 21
171.8734721343
  0
LINE
  5
2FC
100
AcDbEntity
  8
0
100
AcDbLine
 62
7
  6
CONTINUOUS
 10
106.4345721765
 20
172.788318679
 11
106.4993661338
 21
172.7509107166
  0
LINE
  5
2FD
100
AcDbEntity
  8
0
100
AcDbLine
 62
7
  6
CONTINUOUS
 10
121.4198912985
 20
164.1367363749
 11
121.4841752918
 21
164.0996228337
  0
LINE
  5
2FE
100
AcDbEntity
  8
0
100
AcDbLine
 62
7
  6
CONTINUOUS
 10
132.9806135647
 20
159.0949314762
 11
123.8588981103
 21
164.3612372095
  0
LINE
  5
2FF
100
AcDbEntity
  8
0
100
AcDbLine
 62
7
  6
CONTINUOUS
 10
106.1104440091
 20
174.608080148
 11
96.9887285548
 21
179.8743858813
  0
LINE
  5
300
100
AcDbEntity
  8
0
100
AcDbLine
 62
7
  6
CONTINUOUS
 10
137.0111154463
 20
160.0332332082
 11
135.8090289135
 21
160.727242491
  0
LINE
  5
301
100
AcDbEntity
  8
0
100
AcDbLine
 62
7
  6
CONTINUOUS
 10
126.5185602361
 20
166.0909757389
 11
125.7267983151
 21
166.5480893558
  0
LINE
  5
302
100
AcDbEntity
  8
0
100
AcDbLine
 62
7
  6
CONTINUOUS
 10
110.6771951997
 20
175.2367852011
 11
108.938859358
 21
176.2403911627
  0
LINE
  5
303
100
AcDbEntity
  8
0
100
AcDbLine
 62
7
  6
CONTINUOUS
 10
99.4786060844
 20
181.7021473754
 11
98.8271902884
 21
182.0782339523
  0
LINE
  5
304
100
AcDbEntity
  8
0
100
AcDbLine
 62
7
  6
CONTINUOUS
 10
132.5338690169
 20
161.2874165707
 11
133.324687269
 21
159.9176294048
  0
LINE
  5
305
100
AcDbEntity
  8
0
100
AcDbLine
 62
7
  6
CONTINUOUS
 10
135.4459987806
 20
161.1423618664
 11
134.6551805285
 21
162.5121490323
  0
SPLINE
  5
306
100
AcDbEntity
  8
0
100
AcDbSpline
 62
7
  6
CONTINUOUS
 70
0
 71
3
 72
11
 73
7
 74
0
 42
0.0000001
 43
0.0000001
 44
0.0000000001
 40
0.0
 40
0.0
 40
0.0
 40
0.0
 40
0.2624975978
 40
0.5172429427
 40
0.7633243656
 40
1.0
 40
1.0
 40
1.0
 40
1.0
 10
107.5287390183
 20
178.4210391115
 30
0.0
 10
107.2466103897
 20
178.7004957855
 30
0.0
 10
106.6752162507
 20
179.235834164
 30
0.0
 10
105.7864974222
 20
179.9742621286
 30
0.0
 10
104.8842527865
 20
180.6318464111
 30
0.0
 10
104.265437293
 20
181.021079806
 30
0.0
 10
103.9553621481
 20
181.2000977244
 30
0.0
  0
SPLINE
  5
307
100
AcDbEntity
  8
0
100
AcDbSpline
 62
7
  6
CONTINUOUS
 70
0
 71
3
 72
10
 73
6
 74
0
 42
0.0000001
 43
0.0000001
 44
0.0000000001
 40
0.0
 40
0.0
 40
0.0
 40
0.0
 40
0.2658510159
 40
0.521224852
 40
1.0
 40
1.0
 40
1.0
 40
1.0
 10
103.9553621481
 20
181.2000977244
 30
0.0
 10
103.6937667318
 20
181.3511264917
 30
0.0
 10
103.1711116966
 20
181.6309642638
 30
0.0
 10
102.1338301894
 20
182.0956394333
 30
0.0
 10
101.3343225693
 20
182.350865276
 30
0.0
 10
100.8028020094
 20
182.4666676856
 30
0.0
  0
SPLINE
  5
308
100
AcDbEntity
  8
0
100
AcDbSpline
 62
7
  6
CONTINUOUS
 70
0
 71
3
 72
10
 73
6
 74
0
 42
0.0000001
 43
0.0000001
 44
0.0000000001
 40
0.0
 40
0.0
 40
0.0
 40
0.0
 40
0.478775148
 40
0.7341489841
 40
1.0
 40
1.0
 40
1.0
 40
1.0
 10
98.6814904978
 20
181.241935224
 30
0.0
 10
99.2130110577
 20
181.1261328144
 30
0.0
 10
100.0125186777
 20
180.8709069717
 30
0.0
 10
101.049800185
 20
180.4062318022
 30
0.0
 10
101.5724552201
 20
180.1263940301
 30
0.0
 10
101.8340506364
 20
179.9753652628
 30
0.0
  0
SPLINE
  5
309
100
AcDbEntity
  8
0
100
AcDbSpline
 62
7
  6
CONTINUOUS
 70
0
 71
3
 72
11
 73
7
 74
0
 42
0.0000001
 43
0.0000001
 44
0.0000000001
 40
0.0
 40
0.0
 40
0.0
 40
0.0
 40
0.2366756344
 40
0.4827570573
 40
0.7375024022
 40
1.0
 40
1.0
 40
1.0
 40
1.0
 10
101.8340506364
 20
179.9753652628
 30
0.0
 10
102.1441257814
 20
179.7963473444
 30
0.0
 10
102.7629412748
 20
179.4071139495
 30
0.0
 10
103.6651859106
 20
178.749529667
 30
0.0
 10
104.553904739
 20
178.0111017024
 30
0.0
 10
105.1252988781
 20
177.4757633239
 30
0.0
 10
105.4074275066
 20
177.1963066499
 30
0.0
  0
SPLINE
  5
30A
100
AcDbEntity
  8
0
100
AcDbSpline
 62
7
  6
CONTINUOUS
 70
0
 71
3
 72
11
 73
7
 74
0
 42
0.0000001
 43
0.0000001
 44
0.0000000001
 40
0.0
 40
0.0
 40
0.0
 40
0.0
 40
0.2629298204
 40
0.5178930887
 40
0.7638614093
 40
1.0
 40
1.0
 40
1.0
 40
1.0
 10
134.6551805285
 20
162.5121490323
 30
0.0
 10
134.3602573387
 20
162.8112561641
 30
0.0
 10
133.7621101928
 20
163.3837471204
 30
0.0
 10
132.8292393845
 20
164.1717607766
 30
0.0
 10
131.880609916
 20
164.8708705985
 30
0.0
 10
131.2287526085
 20
165.2827268964
 30
0.0
 10
130.9020409759
 20
165.4713496782
 30
0.0
  0
SPLINE
  5
30B
100
AcDbEntity
  8
0
100
AcDbSpline
 62
7
  6
CONTINUOUS
 70
0
 71
3
 72
10
 73
6
 74
0
 42
0.0000001
 43
0.0000001
 44
0.0000000001
 40
0.0
 40
0.0
 40
0.0
 40
0.0
 40
0.2663032685
 40
0.5218256685
 40
1.0
 40
1.0
 40
1.0
 40
1.0
 10
130.9020409759
 20
165.4713496782
 30
0.0
 10
130.6336800229
 20
165.6262844415
 30
0.0
 10
130.097531088
 20
165.9127774906
 30
0.0
 10
129.0338781312
 20
166.3856709738
 30
0.0
 10
128.2136472616
 20
166.6419157881
 30
0.0
 10
127.6688700915
 20
166.7551034793
 30
0.0
  0
SPLINE
  5
30C
100
AcDbEntity
  8
0
100
AcDbSpline
 62
7
  6
CONTINUOUS
 70
0
 71
3
 72
11
 73
7
 74
0
 42
0.0000001
 43
0.0000001
 44
0.0000000001
 40
0.0
 40
0.0
 40
0.0
 40
0.0
 40
0.2361385907
 40
0.4821069113
 40
0.7370701796
 40
1.0
 40
1.0
 40
1.0
 40
1.0
 10
128.7807294642
 20
164.2466172166
 30
0.0
 10
129.1074410968
 20
164.0579944348
 30
0.0
 10
129.7592984043
 20
163.6461381369
 30
0.0
 10
130.7079278729
 20
162.947028315
 30
0.0
 10
131.6407986812
 20
162.1590146588
 30
0.0
 10
132.238945827
 20
161.5865237025
 30
0.0
 10
132.5338690169
 20
161.2874165707
 30
0.0
  0
SPLINE
  5
30D
100
AcDbEntity
  8
0
100
AcDbSpline
 62
7
  6
CONTINUOUS
 70
0
 71
3
 72
10
 73
6
 74
0
 42
0.0000001
 43
0.0000001
 44
0.0000000001
 40
0.0
 40
0.0
 40
0.0
 40
0.0
 40
0.4781743315
 40
0.7336967315
 40
1.0
 40
1.0
 40
1.0
 40
1.0
 10
125.5475585799
 20
165.5303710177
 30
0.0
 10
126.09233575
 20
165.4171833265
 30
0.0
 10
126.9125666196
 20
165.1609385122
 30
0.0
 10
127.9762195763
 20
164.688045029
 30
0.0
 10
128.5123685113
 20
164.4015519799
 30
0.0
 10
128.7807294642
 20
164.2466172166
 30
0.0
  0
SPLINE
  5
30E
100
AcDbEntity
  8
0
100
AcDbSpline
 62
7
  6
CONTINUOUS
 70
0
 71
3
 72
17
 73
13
 74
0
 42
0.0000001
 43
0.0000001
 44
0.0000000001
 40
0.0
 40
0.0
 40
0.0
 40
0.0
 40
0.0428579803
 40
0.0874855365
 40
0.1353182087
 40
0.1872817653
 40
0.3045429422
 40
0.4382107634
 40
0.5825533132
 40
0.729712045
 40
0.871310822
 40
1.0
 40
1.0
 40
1.0
 40
1.0
 10
38.0476673302
 20
136.6988773572
 30
0.0
 10
38.1301878582
 20
136.7464761331
 30
0.0
 10
38.2865624737
 20
136.8662115627
 30
0.0
 10
38.4747882316
 20
137.104169477
 30
0.0
 10
38.6154104793
 20
137.3952469081
 30
0.0
 10
38.741757532
 20
137.8632060361
 30
0.0
 10
38.7575998507
 20
138.545524985
 30
0.0
 10
38.5809863624
 20
139.4114479144
 30
0.0
 10
38.2251329945
 20
140.2922043467
 30
0.0
 10
37.7185204728
 20
141.1161871826
 30
0.0
 10
37.1030384575
 20
141.8164258432
 30
0.0
 10
36.6221567246
 20
142.1864712113
 30
0.0
 10
36.374429661
 20
142.3294932626
 30
0.0
  0
SPLINE
  5
30F
100
AcDbEntity
  8
0
100
AcDbSpline
 62
7
  6
CONTINUOUS
 70
0
 71
3
 72
17
 73
13
 74
0
 42
0.0000001
 43
0.0000001
 44
0.0000000001
 40
0.0
 40
0.0
 40
0.0
 40
0.0
 40
0.0428579803
 40
0.0874855365
 40
0.1353182087
 40
0.1872817653
 40
0.3045429422
 40
0.4382107634
 40
0.5825533132
 40
0.729712045
 40
0.871310822
 40
1.0
 40
1.0
 40
1.0
 40
1.0
 10
50.9999045583
 20
129.2210688776
 30
0.0
 10
51.0824250863
 20
129.2686676535
 30
0.0
 10
51.2387997018
 20
129.3884030831
 30
0.0
 10
51.4270254597
 20
129.6263609973
 30
0.0
 10
51.5676477075
 20
129.9174384285
 30
0.0
 10
51.6939947602
 20
130.3853975564
 30
0.0
 10
51.7098370789
 20
131.0677165054
 30
0.0
 10
51.5332235905
 20
131.9336394348
 30
0.0
 10
51.1773702226
 20
132.814395867
 30
0.0
 10
50.6707577009
 20
133.6383787029
 30
0.0
 10
50.0552756857
 20
134.3386173636
 30
0.0
 10
49.5743939527
 20
134.7086627317
 30
0.0
 10
49.3266668891
 20
134.851684783
 30
0.0
  0
SPLINE
  5
310
100
AcDbEntity
  8
0
100
AcDbSpline
 62
7
  6
CONTINUOUS
 70
0
 71
3
 72
11
 73
7
 74
0
 42
0.0000001
 43
0.0000001
 44
0.0000000001
 40
0.0
 40
0.0
 40
0.0
 40
0.0
 40
0.2896403952
 40
0.5491094116
 40
0.7822346475
 40
1.0
 40
1.0
 40
1.0
 40
1.0
 10
62.1736485085
 20
127.4346442826
 30
0.0
 10
62.0268375033
 20
127.5194037385
 30
0.0
 10
61.734684518
 20
127.6583211617
 30
0.0
 10
61.2857197875
 20
127.7668195421
 30
0.0
 10
60.8643599645
 20
127.7562230534
 30
0.0
 10
60.6108154302
 20
127.6640104794
 30
0.0
 10
60.5004108393
 20
127.6003278599
 30
0.0
  0
SPLINE
  5
311
100
AcDbEntity
  8
0
100
AcDbSpline
 62
7
  6
CONTINUOUS
 70
0
 71
3
 72
11
 73
7
 74
0
 42
0.0000001
 43
0.0000001
 44
0.0000000001
 40
0.0
 40
0.0
 40
0.0
 40
0.0
 40
0.2896403952
 40
0.5491094116
 40
0.7822346475
 40
1.0
 40
1.0
 40
1.0
 40
1.0
 10
49.3266668891
 20
134.851684783
 30
0.0
 10
49.1798558839
 20
134.9364442388
 30
0.0
 10
48.8877028986
 20
135.075361662
 30
0.0
 10
48.4387381681
 20
135.1838600425
 30
0.0
 10
48.0173783451
 20
135.1732635537
 30
0.0
 10
47.7638338108
 20
135.0810509797
 30
0.0
 10
47.6534292199
 20
135.0173683602
 30
0.0
  0
SPLINE
  5
312
100
AcDbEntity
  8
0
100
AcDbSpline
 62
7
  6
CONTINUOUS
 70
0
 71
3
 72
11
 73
7
 74
0
 42
0.0000001
 43
0.0000001
 44
0.0000000001
 40
0.0
 40
0.0
 40
0.0
 40
0.0
 40
0.2896403952
 40
0.5491094116
 40
0.7822346475
 40
1.0
 40
1.0
 40
1.0
 40
1.0
 10
36.374429661
 20
142.3294932626
 30
0.0
 10
36.2276186557
 20
142.4142527185
 30
0.0
 10
35.9354656705
 20
142.5531701417
 30
0.0
 10
35.48650094
 20
142.6616685221
 30
0.0
 10
35.065141117
 20
142.6510720334
 30
0.0
 10
34.8115965827
 20
142.5588594594
 30
0.0
 10
34.7011919918
 20
142.4951768399
 30
0.0
  0
SPLINE
  5
313
100
AcDbEntity
  8
0
100
AcDbSpline
 62
7
  6
CONTINUOUS
 70
0
 71
3
 72
17
 73
13
 74
0
 42
0.0000001
 43
0.0000001
 44
0.0000000001
 40
0.0
 40
0.0
 40
0.0
 40
0.0
 40
0.0428579803
 40
0.0874855365
 40
0.1353182087
 40
0.1872817653
 40
0.3045429422
 40
0.4382107634
 40
0.5825533132
 40
0.729712045
 40
0.871310822
 40
1.0
 40
1.0
 40
1.0
 40
1.0
 10
37.947980968
 20
55.0439913964
 30
0.0
 10
38.030501496
 20
55.0915901723
 30
0.0
 10
38.1868761115
 20
55.2113256019
 30
0.0
 10
38.3751018694
 20
55.4492835162
 30
0.0
 10
38.5157241172
 20
55.7403609473
 30
0.0
 10
38.6420711699
 20
56.2083200753
 30
0.0
 10
38.6579134886
 20
56.8906390242
 30
0.0
 10
38.4813000002
 20
57.7565619536
 30
0.0
 10
38.1254466323
 20
58.6373183859
 30
0.0
 10
37.6188341106
 20
59.4613012218
 30
0.0
 10
37.0033520954
 20
60.1615398824
 30
0.0
 10
36.5224703624
 20
60.5315852505
 30
0.0
 10
36.2747432988
 20
60.6746073018
 30
0.0
  0
SPLINE
  5
314
100
AcDbEntity
  8
0
100
AcDbSpline
 62
7
  6
CONTINUOUS
 70
0
 71
3
 72
17
 73
13
 74
0
 42
0.0000001
 43
0.0000001
 44
0.0000000001
 40
0.0
 40
0.0
 40
0.0
 40
0.0
 40
0.0428579803
 40
0.0874855365
 40
0.1353182087
 40
0.1872817653
 40
0.3045429422
 40
0.4382107634
 40
0.5825533132
 40
0.729712045
 40
0.871310822
 40
1.0
 40
1.0
 40
1.0
 40
1.0
 10
50.9002181961
 20
47.5661829168
 30
0.0
 10
50.9827387242
 20
47.6137816927
 30
0.0
 10
51.1391133397
 20
47.7335171223
 30
0.0
 10
51.3273390975
 20
47.9714750365
 30
0.0
 10
51.4679613453
 20
48.2625524676
 30
0.0
 10
51.594308398
 20
48.7305115956
 30
0.0
 10
51.6101507167
 20
49.4128305446
 30
0.0
 10
51.4335372284
 20
50.2787534739
 30
0.0
 10
51.0776838604
 20
51.1595099062
 30
0.0
 10
50.5710713387
 20
51.9834927421
 30
0.0
 10
49.9555893235
 20
52.6837314028
 30
0.0
 10
49.4747075905
 20
53.0537767709
 30
0.0
 10
49.2269805269
 20
53.1967988221
 30
0.0
  0
SPLINE
  5
315
100
AcDbEntity
  8
0
100
AcDbSpline
 62
7
  6
CONTINUOUS
 70
0
 71
3
 72
17
 73
13
 74
0
 42
0.0000001
 43
0.0000001
 44
0.0000000001
 40
0.0
 40
0.0
 40
0.0
 40
0.0
 40
0.0428579803
 40
0.0874855365
 40
0.1353182087
 40
0.1872817653
 40
0.3045429422
 40
0.4382107634
 40
0.5825533132
 40
0.729712045
 40
0.871310822
 40
1.0
 40
1.0
 40
1.0
 40
1.0
 10
63.7471998155
 20
40.1491424164
 30
0.0
 10
63.8297203435
 20
40.1967411923
 30
0.0
 10
63.986094959
 20
40.3164766219
 30
0.0
 10
64.1743207169
 20
40.5544345362
 30
0.0
 10
64.3149429647
 20
40.8455119673
 30
0.0
 10
64.4412900174
 20
41.3134710953
 30
0.0
 10
64.4571323361
 20
41.9957900442
 30
0.0
 10
64.2805188477
 20
42.8617129736
 30
0.0
 10
63.9246654798
 20
43.7424694059
 30
0.0
 10
63.4180529581
 20
44.5664522418
 30
0.0
 10
62.8025709429
 20
45.2666909024
 30
0.0
 10
62.3216892099
 20
45.6367362705
 30
0.0
 10
62.0739621463
 20
45.7797583218
 30
0.0
  0
SPLINE
  5
316
100
AcDbEntity
  8
0
100
AcDbSpline
 62
7
  6
CONTINUOUS
 70
0
 71
3
 72
11
 73
7
 74
0
 42
0.0000001
 43
0.0000001
 44
0.0000000001
 40
0.0
 40
0.0
 40
0.0
 40
0.0
 40
0.2177660095
 40
0.4508968553
 40
0.7103699668
 40
1.0
 40
1.0
 40
1.0
 40
1.0
 10
52.5213047096
 20
57.7928203872
 30
0.0
 10
52.6123786264
 20
57.8454498724
 30
0.0
 10
52.7829193287
 20
57.9886053295
 30
0.0
 10
52.9643578011
 20
58.2853999833
 30
0.0
 10
53.0720699728
 20
58.6510554154
 30
0.0
 10
53.0933356341
 20
58.9171841539
 30
0.0
 10
53.0933356341
 20
59.0570835647
 30
0.0
  0
SPLINE
  5
317
100
AcDbEntity
  8
0
100
AcDbSpline
 62
7
  6
CONTINUOUS
 70
0
 71
3
 72
11
 73
7
 74
0
 42
0.0000001
 43
0.0000001
 44
0.0000000001
 40
0.0
 40
0.0
 40
0.0
 40
0.0
 40
0.2177660095
 40
0.4508968553
 40
0.7103699668
 40
1.0
 40
1.0
 40
1.0
 40
1.0
 10
43.2209026277
 20
63.1622885592
 30
0.0
 10
43.3119765445
 20
63.2149180444
 30
0.0
 10
43.4825172467
 20
63.3580735014
 30
0.0
 10
43.6639557192
 20
63.6548681553
 30
0.0
 10
43.7716678909
 20
64.0205235874
 30
0.0
 10
43.7929335522
 20
64.2866523259
 30
0.0
 10
43.7929335522
 20
64.4265517366
 30
0.0
  0
SPLINE
  5
318
100
AcDbEntity
  8
0
100
AcDbSpline
 62
7
  6
CONTINUOUS
 70
0
 71
3
 72
11
 73
7
 74
0
 42
0.0000001
 43
0.0000001
 44
0.0000000001
 40
0.0
 40
0.0
 40
0.0
 40
0.0
 40
0.2177660095
 40
0.4508968553
 40
0.7103699668
 40
1.0
 40
1.0
 40
1.0
 40
1.0
 10
34.4597424221
 20
68.2204323318
 30
0.0
 10
34.550816339
 20
68.273061817
 30
0.0
 10
34.7213570412
 20
68.416217274
 30
0.0
 10
34.9027955136
 20
68.7130119278
 30
0.0
 10
35.0105076853
 20
69.07866736
 30
0.0
 10
35.0317733466
 20
69.3447960984
 30
0.0
 10
35.0317733466
 20
69.4846955092
 30
0.0
  0
SPLINE
  5
319
100
AcDbEntity
  8
0
100
AcDbSpline
 62
7
  6
CONTINUOUS
 70
0
 71
3
 72
11
 73
7
 74
0
 42
0.0000001
 43
0.0000001
 44
0.0000000001
 40
0.0
 40
0.0
 40
0.0
 40
0.0
 40
0.2177660095
 40
0.4508968553
 40
0.7103699668
 40
1.0
 40
1.0
 40
1.0
 40
1.0
 10
52.5213047096
 20
92.4293428233
 30
0.0
 10
52.6123786265
 20
92.4819723085
 30
0.0
 10
52.7829193287
 20
92.6251277656
 30
0.0
 10
52.9643578011
 20
92.9219224194
 30
0.0
 10
53.0720699728
 20
93.2875778515
 30
0.0
 10
53.0933356341
 20
93.55370659
 30
0.0
 10
53.0933356341
 20
93.6936060007
 30
0.0
  0
SPLINE
  5
31A
100
AcDbEntity
  8
0
100
AcDbSpline
 62
7
  6
CONTINUOUS
 70
0
 71
3
 72
11
 73
7
 74
0
 42
0.0000001
 43
0.0000001
 44
0.0000000001
 40
0.0
 40
0.0
 40
0.0
 40
0.0
 40
0.2177660095
 40
0.4508968553
 40
0.7103699668
 40
1.0
 40
1.0
 40
1.0
 40
1.0
 10
43.2209026277
 20
97.7988109953
 30
0.0
 10
43.3119765445
 20
97.8514404805
 30
0.0
 10
43.4825172468
 20
97.9945959375
 30
0.0
 10
43.6639557192
 20
98.2913905914
 30
0.0
 10
43.7716678909
 20
98.6570460235
 30
0.0
 10
43.7929335522
 20
98.9231747619
 30
0.0
 10
43.7929335522
 20
99.0630741727
 30
0.0
  0
SPLINE
  5
31B
100
AcDbEntity
  8
0
100
AcDbSpline
 62
7
  6
CONTINUOUS
 70
0
 71
3
 72
11
 73
7
 74
0
 42
0.0000001
 43
0.0000001
 44
0.0000000001
 40
0.0
 40
0.0
 40
0.0
 40
0.0
 40
0.2177660095
 40
0.4508968553
 40
0.7103699668
 40
1.0
 40
1.0
 40
1.0
 40
1.0
 10
34.4597424221
 20
102.8569547679
 30
0.0
 10
34.550816339
 20
102.909584253
 30
0.0
 10
34.7213570412
 20
103.0527397101
 30
0.0
 10
34.9027955136
 20
103.3495343639
 30
0.0
 10
35.0105076853
 20
103.715189796
 30
0.0
 10
35.0317733466
 20
103.9813185345
 30
0.0
 10
35.0317733466
 20
104.1212179453
 30
0.0
  0
SPLINE
  5
31C
100
AcDbEntity
  8
0
100
AcDbSpline
 62
7
  6
CONTINUOUS
 70
0
 71
3
 72
17
 73
13
 74
0
 42
0.0000001
 43
0.0000001
 44
0.0000000001
 40
0.0
 40
0.0
 40
0.0
 40
0.0
 40
0.0428579803
 40
0.0874855365
 40
0.1353182087
 40
0.1872817653
 40
0.3045429422
 40
0.4382107634
 40
0.5825533132
 40
0.729712045
 40
0.871310822
 40
1.0
 40
1.0
 40
1.0
 40
1.0
 10
63.8468861777
 20
121.8040283772
 30
0.0
 10
63.9294067057
 20
121.8516271532
 30
0.0
 10
64.0857813212
 20
121.9713625827
 30
0.0
 10
64.2740070791
 20
122.209320497
 30
0.0
 10
64.4146293269
 20
122.5003979281
 30
0.0
 10
64.5409763796
 20
122.9683570561
 30
0.0
 10
64.5568186983
 20
123.650676005
 30
0.0
 10
64.3802052099
 20
124.5165989344
 30
0.0
 10
64.024351842
 20
125.3973553667
 30
0.0
 10
63.5177393203
 20
126.2213382026
 30
0.0
 10
62.9022573051
 20
126.9215768632
 30
0.0
 10
62.4213755721
 20
127.2916222313
 30
0.0
 10
62.1736485085
 20
127.4346442826
 30
0.0
  0
SPLINE
  5
31D
100
AcDbEntity
  8
0
100
AcDbSpline
 62
7
  6
CONTINUOUS
 70
0
 71
3
 72
11
 73
7
 74
0
 42
0.0000001
 43
0.0000001
 44
0.0000000001
 40
0.0
 40
0.0
 40
0.0
 40
0.0
 40
0.2896403952
 40
0.5491094116
 40
0.7822346475
 40
1.0
 40
1.0
 40
1.0
 40
1.0
 10
62.0739621463
 20
45.7797583218
 30
0.0
 10
61.9271511411
 20
45.8645177777
 30
0.0
 10
61.6349981558
 20
46.0034352009
 30
0.0
 10
61.1860334254
 20
46.1119335813
 30
0.0
 10
60.7646736023
 20
46.1013370926
 30
0.0
 10
60.5111290681
 20
46.0091245186
 30
0.0
 10
60.4007244771
 20
45.9454418991
 30
0.0
  0
SPLINE
  5
31E
100
AcDbEntity
  8
0
100
AcDbSpline
 62
7
  6
CONTINUOUS
 70
0
 71
3
 72
11
 73
7
 74
0
 42
0.0000001
 43
0.0000001
 44
0.0000000001
 40
0.0
 40
0.0
 40
0.0
 40
0.0
 40
0.2896403952
 40
0.5491094116
 40
0.7822346475
 40
1.0
 40
1.0
 40
1.0
 40
1.0
 10
49.2269805269
 20
53.1967988221
 30
0.0
 10
49.0801695217
 20
53.281558278
 30
0.0
 10
48.7880165364
 20
53.4204757012
 30
0.0
 10
48.339051806
 20
53.5289740817
 30
0.0
 10
47.9176919829
 20
53.5183775929
 30
0.0
 10
47.6641474487
 20
53.4261650189
 30
0.0
 10
47.5537428577
 20
53.3624823994
 30
0.0
  0
SPLINE
  5
31F
100
AcDbEntity
  8
0
100
AcDbSpline
 62
7
  6
CONTINUOUS
 70
0
 71
3
 72
11
 73
7
 74
0
 42
0.0000001
 43
0.0000001
 44
0.0000000001
 40
0.0
 40
0.0
 40
0.0
 40
0.0
 40
0.2896403952
 40
0.5491094116
 40
0.7822346475
 40
1.0
 40
1.0
 40
1.0
 40
1.0
 10
36.2747432988
 20
60.6746073018
 30
0.0
 10
36.1279322936
 20
60.7593667576
 30
0.0
 10
35.8357793083
 20
60.8982841809
 30
0.0
 10
35.3868145778
 20
61.0067825613
 30
0.0
 10
34.9654547548
 20
60.9961860726
 30
0.0
 10
34.7119102205
 20
60.9039734985
 30
0.0
 10
34.6015056296
 20
60.8402908791
 30
0.0
  0
SPLINE
  5
320
100
AcDbEntity
  8
0
100
AcDbSpline
 62
7
  6
CONTINUOUS
 70
0
 71
3
 72
11
 73
7
 74
0
 42
0.0000001
 43
0.0000001
 44
0.0000000001
 40
0.0
 40
0.0
 40
0.0
 40
0.0
 40
0.2723158936
 40
0.5304896312
 40
0.7732275565
 40
1.0
 40
1.0
 40
1.0
 40
1.0
 10
62.2508788464
 20
97.6021249069
 30
0.0
 10
61.5319222623
 20
93.8936783007
 30
0.0
 10
60.4340922085
 20
86.6055316522
 30
0.0
 10
59.846264099
 20
75.8779089223
 30
0.0
 10
60.3660460176
 20
65.7770422001
 30
0.0
 10
61.4885377284
 20
59.3390603289
 30
0.0
 10
62.2508788464
 20
56.2871025998
 30
0.0
  0
SPLINE
  5
321
100
AcDbEntity
  8
0
100
AcDbSpline
 62
7
  6
CONTINUOUS
 70
0
 71
3
 72
17
 73
13
 74
0
 42
0.0000001
 43
0.0000001
 44
0.0000000001
 40
0.0
 40
0.0
 40
0.0
 40
0.0
 40
0.128688864
 40
0.2702797703
 40
0.4174318348
 40
0.5617733576
 40
0.6954455149
 40
0.8127096012
 40
0.8646749146
 40
0.9125085807
 40
0.9571389861
 40
1.0
 40
1.0
 40
1.0
 40
1.0
 10
35.0317733466
 20
104.1212179453
 30
0.0
 10
35.0317733466
 20
104.3572825528
 30
0.0
 10
34.9657304209
 20
104.8536442526
 30
0.0
 10
34.7192481812
 20
105.5824413215
 30
0.0
 10
34.3394193566
 20
106.2844978892
 30
0.0
 10
33.8567939232
 20
106.9022532833
 30
0.0
 10
33.3108006043
 20
107.385809894
 30
0.0
 10
32.8166007934
 20
107.6560385528
 30
0.0
 10
32.4300133451
 20
107.7588678537
 30
0.0
 10
32.1639458614
 20
107.7784595929
 30
0.0
 10
31.916193027
 20
107.7421493738
 30
0.0
 10
31.7660874185
 20
107.6797783717
 30
0.0
 10
31.6980129933
 20
107.6404397544
 30
0.0
  0
SPLINE
  5
322
100
AcDbEntity
  8
0
100
AcDbSpline
 62
7
  6
CONTINUOUS
 70
0
 71
3
 72
17
 73
13
 74
0
 42
0.0000001
 43
0.0000001
 44
0.0000000001
 40
0.0
 40
0.0
 40
0.0
 40
0.0
 40
0.128688864
 40
0.2702797703
 40
0.4174318348
 40
0.5617733576
 40
0.6954455149
 40
0.8127096012
 40
0.8646749146
 40
0.9125085807
 40
0.9571389861
 40
1.0
 40
1.0
 40
1.0
 40
1.0
 10
43.7929335522
 20
99.0630741727
 30
0.0
 10
43.7929335522
 20
99.2991387802
 30
0.0
 10
43.7268906265
 20
99.79550048
 30
0.0
 10
43.4804083868
 20
100.5242975489
 30
0.0
 10
43.1005795622
 20
101.2263541166
 30
0.0
 10
42.6179541288
 20
101.8441095107
 30
0.0
 10
42.0719608099
 20
102.3276661215
 30
0.0
 10
41.5777609989
 20
102.5978947802
 30
0.0
 10
41.1911735507
 20
102.7007240811
 30
0.0
 10
40.9251060669
 20
102.7203158203
 30
0.0
 10
40.6773532326
 20
102.6840056012
 30
0.0
 10
40.527247624
 20
102.6216345991
 30
0.0
 10
40.4591731988
 20
102.5822959818
 30
0.0
  0
SPLINE
  5
323
100
AcDbEntity
  8
0
100
AcDbSpline
 62
7
  6
CONTINUOUS
 70
0
 71
3
 72
17
 73
13
 74
0
 42
0.0000001
 43
0.0000001
 44
0.0000000001
 40
0.0
 40
0.0
 40
0.0
 40
0.0
 40
0.128688864
 40
0.2702797703
 40
0.4174318348
 40
0.5617733576
 40
0.6954455149
 40
0.8127096012
 40
0.8646749146
 40
0.9125085807
 40
0.9571389861
 40
1.0
 40
1.0
 40
1.0
 40
1.0
 10
53.0933356341
 20
93.6936060007
 30
0.0
 10
53.0933356341
 20
93.9296706082
 30
0.0
 10
53.0272927084
 20
94.426032308
 30
0.0
 10
52.7808104687
 20
95.154829377
 30
0.0
 10
52.4009816441
 20
95.8568859446
 30
0.0
 10
51.9183562107
 20
96.4746413387
 30
0.0
 10
51.3723628918
 20
96.9581979495
 30
0.0
 10
50.8781630809
 20
97.2284266083
 30
0.0
 10
50.4915756326
 20
97.3312559091
 30
0.0
 10
50.2255081489
 20
97.3508476483
 30
0.0
 10
49.9777553145
 20
97.3145374292
 30
0.0
 10
49.827649706
 20
97.2521664271
 30
0.0
 10
49.7595752808
 20
97.2128278099
 30
0.0
  0
SPLINE
  5
324
100
AcDbEntity
  8
0
100
AcDbSpline
 62
7
  6
CONTINUOUS
 70
0
 71
3
 72
17
 73
13
 74
0
 42
0.0000001
 43
0.0000001
 44
0.0000000001
 40
0.0
 40
0.0
 40
0.0
 40
0.0
 40
0.128688864
 40
0.2702797703
 40
0.4174318348
 40
0.5617733576
 40
0.6954455149
 40
0.8127096012
 40
0.8646749146
 40
0.9125085807
 40
0.9571389861
 40
1.0
 40
1.0
 40
1.0
 40
1.0
 10
35.0317733466
 20
69.4846955092
 30
0.0
 10
35.0317733466
 20
69.7207601167
 30
0.0
 10
34.9657304209
 20
70.2171218165
 30
0.0
 10
34.7192481812
 20
70.9459188854
 30
0.0
 10
34.3394193566
 20
71.6479754531
 30
0.0
 10
33.8567939232
 20
72.2657308472
 30
0.0
 10
33.3108006043
 20
72.749287458
 30
0.0
 10
32.8166007934
 20
73.0195161167
 30
0.0
 10
32.4300133451
 20
73.1223454176
 30
0.0
 10
32.1639458614
 20
73.1419371568
 30
0.0
 10
31.916193027
 20
73.1056269377
 30
0.0
 10
31.7660874185
 20
73.0432559356
 30
0.0
 10
31.6980129933
 20
73.0039173183
 30
0.0
  0
SPLINE
  5
325
100
AcDbEntity
  8
0
100
AcDbSpline
 62
7
  6
CONTINUOUS
 70
0
 71
3
 72
17
 73
13
 74
0
 42
0.0000001
 43
0.0000001
 44
0.0000000001
 40
0.0
 40
0.0
 40
0.0
 40
0.0
 40
0.128688864
 40
0.2702797703
 40
0.4174318348
 40
0.5617733576
 40
0.6954455149
 40
0.8127096012
 40
0.8646749146
 40
0.9125085807
 40
0.9571389861
 40
1.0
 40
1.0
 40
1.0
 40
1.0
 10
43.7929335522
 20
64.4265517366
 30
0.0
 10
43.7929335522
 20
64.6626163441
 30
0.0
 10
43.7268906265
 20
65.1589780439
 30
0.0
 10
43.4804083868
 20
65.8877751128
 30
0.0
 10
43.1005795622
 20
66.5898316805
 30
0.0
 10
42.6179541288
 20
67.2075870746
 30
0.0
 10
42.0719608099
 20
67.6911436854
 30
0.0
 10
41.5777609989
 20
67.9613723441
 30
0.0
 10
41.1911735507
 20
68.064201645
 30
0.0
 10
40.9251060669
 20
68.0837933842
 30
0.0
 10
40.6773532326
 20
68.0474831651
 30
0.0
 10
40.527247624
 20
67.985112163
 30
0.0
 10
40.4591731988
 20
67.9457735458
 30
0.0
  0
SPLINE
  5
326
100
AcDbEntity
  8
0
100
AcDbSpline
 62
7
  6
CONTINUOUS
 70
0
 71
3
 72
17
 73
13
 74
0
 42
0.0000001
 43
0.0000001
 44
0.0000000001
 40
0.0
 40
0.0
 40
0.0
 40
0.0
 40
0.128688864
 40
0.2702797703
 40
0.4174318348
 40
0.5617733576
 40
0.6954455149
 40
0.8127096012
 40
0.8646749146
 40
0.9125085807
 40
0.9571389861
 40
1.0
 40
1.0
 40
1.0
 40
1.0
 10
53.0933356341
 20
59.0570835647
 30
0.0
 10
53.0933356341
 20
59.2931481721
 30
0.0
 10
53.0272927084
 20
59.7895098719
 30
0.0
 10
52.7808104687
 20
60.5183069409
 30
0.0
 10
52.4009816441
 20
61.2203635086
 30
0.0
 10
51.9183562107
 20
61.8381189026
 30
0.0
 10
51.3723628918
 20
62.3216755134
 30
0.0
 10
50.8781630809
 20
62.5919041722
 30
0.0
 10
50.4915756326
 20
62.6947334731
 30
0.0
 10
50.2255081489
 20
62.7143252122
 30
0.0
 10
49.9777553145
 20
62.6780149931
 30
0.0
 10
49.827649706
 20
62.615643991
 30
0.0
 10
49.7595752807
 20
62.5763053738
 30
0.0
  0
SPLINE
  5
327
100
AcDbEntity
  8
0
100
AcDbSpline
 62
7
  6
CONTINUOUS
 70
0
 71
3
 72
11
 73
7
 74
0
 42
0.0000001
 43
0.0000001
 44
0.0000000001
 40
0.0
 40
0.0
 40
0.0
 40
0.0
 40
0.2896403952
 40
0.5491094116
 40
0.7822346475
 40
1.0
 40
1.0
 40
1.0
 40
1.0
 10
36.2747432988
 20
55.2096749737
 30
0.0
 10
36.421554304
 20
55.1249155178
 30
0.0
 10
36.7137072893
 20
54.9859980946
 30
0.0
 10
37.1626720197
 20
54.8774997141
 30
0.0
 10
37.5840318428
 20
54.8880962029
 30
0.0
 10
37.837576377
 20
54.9803087769
 30
0.0
 10
37.947980968
 20
55.0439913964
 30
0.0
  0
SPLINE
  5
328
100
AcDbEntity
  8
0
100
AcDbSpline
 62
7
  6
CONTINUOUS
 70
0
 71
3
 72
17
 73
13
 74
0
 42
0.0000001
 43
0.0000001
 44
0.0000000001
 40
0.0
 40
0.0
 40
0.0
 40
0.0
 40
0.0428579803
 40
0.0874855365
 40
0.1353182087
 40
0.1872817653
 40
0.3045429422
 40
0.4382107634
 40
0.5825533132
 40
0.729712045
 40
0.871310822
 40
1.0
 40
1.0
 40
1.0
 40
1.0
 10
34.6015056296
 20
60.8402908791
 30
0.0
 10
34.5189851016
 20
60.7926921031
 30
0.0
 10
34.3626104861
 20
60.6729566736
 30
0.0
 10
34.1743847282
 20
60.4349987593
 30
0.0
 10
34.0337624804
 20
60.1439213282
 30
0.0
 10
33.9074154277
 20
59.6759622002
 30
0.0
 10
33.891573109
 20
58.9936432512
 30
0.0
 10
34.0681865974
 20
58.1277203219
 30
0.0
 10
34.4240399653
 20
57.2469638896
 30
0.0
 10
34.930652487
 20
56.4229810537
 30
0.0
 10
35.5461345022
 20
55.722742393
 30
0.0
 10
36.0270162352
 20
55.352697025
 30
0.0
 10
36.2747432988
 20
55.2096749737
 30
0.0
  0
SPLINE
  5
329
100
AcDbEntity
  8
0
100
AcDbSpline
 62
7
  6
CONTINUOUS
 70
0
 71
3
 72
17
 73
13
 74
0
 42
0.0000001
 43
0.0000001
 44
0.0000000001
 40
0.0
 40
0.0
 40
0.0
 40
0.0
 40
0.0428579803
 40
0.0874855365
 40
0.1353182087
 40
0.1872817653
 40
0.3045429422
 40
0.4382107634
 40
0.5825533132
 40
0.729712045
 40
0.871310822
 40
1.0
 40
1.0
 40
1.0
 40
1.0
 10
47.5537428577
 20
53.3624823994
 30
0.0
 10
47.4712223297
 20
53.3148836235
 30
0.0
 10
47.3148477142
 20
53.1951481939
 30
0.0
 10
47.1266219563
 20
52.9571902797
 30
0.0
 10
46.9859997086
 20
52.6661128485
 30
0.0
 10
46.8596526558
 20
52.1981537206
 30
0.0
 10
46.8438103371
 20
51.5158347716
 30
0.0
 10
47.0204238255
 20
50.6499118422
 30
0.0
 10
47.3762771934
 20
49.7691554099
 30
0.0
 10
47.8828897151
 20
48.9451725741
 30
0.0
 10
48.4983717304
 20
48.2449339134
 30
0.0
 10
48.9792534633
 20
47.8748885453
 30
0.0
 10
49.2269805269
 20
47.731866494
 30
0.0
  0
SPLINE
  5
32A
100
AcDbEntity
  8
0
100
AcDbSpline
 62
7
  6
CONTINUOUS
 70
0
 71
3
 72
17
 73
13
 74
0
 42
0.0000001
 43
0.0000001
 44
0.0000000001
 40
0.0
 40
0.0
 40
0.0
 40
0.0
 40
0.0428579803
 40
0.0874855365
 40
0.1353182087
 40
0.1872817653
 40
0.3045429422
 40
0.4382107634
 40
0.5825533132
 40
0.729712045
 40
0.871310822
 40
1.0
 40
1.0
 40
1.0
 40
1.0
 10
60.4007244771
 20
45.9454418991
 30
0.0
 10
60.3182039491
 20
45.8978431231
 30
0.0
 10
60.1618293336
 20
45.7781076936
 30
0.0
 10
59.9736035757
 20
45.5401497793
 30
0.0
 10
59.8329813279
 20
45.2490723482
 30
0.0
 10
59.7066342752
 20
44.7811132202
 30
0.0
 10
59.6907919565
 20
44.0987942712
 30
0.0
 10
59.8674054449
 20
43.2328713419
 30
0.0
 10
60.2232588128
 20
42.3521149096
 30
0.0
 10
60.7298713345
 20
41.5281320737
 30
0.0
 10
61.3453533497
 20
40.827893413
 30
0.0
 10
61.8262350827
 20
40.457848045
 30
0.0
 10
62.0739621463
 20
40.3148259937
 30
0.0
  0
SPLINE
  5
32B
100
AcDbEntity
  8
0
100
AcDbSpline
 62
7
  6
CONTINUOUS
 70
0
 71
3
 72
11
 73
7
 74
0
 42
0.0000001
 43
0.0000001
 44
0.0000000001
 40
0.0
 40
0.0
 40
0.0
 40
0.0
 40
0.2896403952
 40
0.5491094116
 40
0.7822346475
 40
1.0
 40
1.0
 40
1.0
 40
1.0
 10
62.1736485085
 20
121.9697119545
 30
0.0
 10
62.3204595137
 20
121.8849524986
 30
0.0
 10
62.612612499
 20
121.7460350754
 30
0.0
 10
63.0615772294
 20
121.637536695
 30
0.0
 10
63.4829370525
 20
121.6481331837
 30
0.0
 10
63.7364815867
 20
121.7403457577
 30
0.0
 10
63.8468861777
 20
121.8040283772
 30
0.0
  0
SPLINE
  5
32C
100
AcDbEntity
  8
0
100
AcDbSpline
 62
7
  6
CONTINUOUS
 70
0
 71
3
 72
11
 73
7
 74
0
 42
0.0000001
 43
0.0000001
 44
0.0000000001
 40
0.0
 40
0.0
 40
0.0
 40
0.0
 40
0.2243022705
 40
0.4662406995
 40
0.7253196063
 40
1.0
 40
1.0
 40
1.0
 40
1.0
 10
65.2137461493
 20
55.9384346296
 30
0.0
 10
64.2888659091
 20
59.0915130006
 30
0.0
 10
62.9092963059
 20
65.811648857
 30
0.0
 10
62.2073992993
 20
76.4402213902
 30
0.0
 10
62.7969995781
 20
87.8114045529
 30
0.0
 10
64.011767229
 20
95.5505797489
 30
0.0
 10
64.8162278732
 20
99.4932884755
 30
0.0
  0
SPLINE
  5
32D
100
AcDbEntity
  8
0
100
AcDbSpline
 62
7
  6
CONTINUOUS
 70
0
 71
3
 72
11
 73
7
 74
0
 42
0.0000001
 43
0.0000001
 44
0.0000000001
 40
0.0
 40
0.0
 40
0.0
 40
0.0
 40
0.2177660095
 40
0.4508968553
 40
0.7103699668
 40
1.0
 40
1.0
 40
1.0
 40
1.0
 10
49.7595752807
 20
62.5763053738
 30
0.0
 10
49.6685013639
 20
62.5236758886
 30
0.0
 10
49.4979606617
 20
62.3805204315
 30
0.0
 10
49.3165221892
 20
62.0837257777
 30
0.0
 10
49.2088100176
 20
61.7180703456
 30
0.0
 10
49.1875443563
 20
61.4519416071
 30
0.0
 10
49.1875443563
 20
61.3120421963
 30
0.0
  0
SPLINE
  5
32E
100
AcDbEntity
  8
0
100
AcDbSpline
 62
7
  6
CONTINUOUS
 70
0
 71
3
 72
11
 73
7
 74
0
 42
0.0000001
 43
0.0000001
 44
0.0000000001
 40
0.0
 40
0.0
 40
0.0
 40
0.0
 40
0.2896403952
 40
0.5491094116
 40
0.7822346475
 40
1.0
 40
1.0
 40
1.0
 40
1.0
 10
49.3266668891
 20
129.3867524549
 30
0.0
 10
49.4734778943
 20
129.301992999
 30
0.0
 10
49.7656308796
 20
129.1630755758
 30
0.0
 10
50.2145956101
 20
129.0545771953
 30
0.0
 10
50.6359554331
 20
129.0651736841
 30
0.0
 10
50.8894999674
 20
129.1573862581
 30
0.0
 10
50.9999045583
 20
129.2210688776
 30
0.0
  0
SPLINE
  5
32F
100
AcDbEntity
  8
0
100
AcDbSpline
 62
7
  6
CONTINUOUS
 70
0
 71
3
 72
11
 73
7
 74
0
 42
0.0000001
 43
0.0000001
 44
0.0000000001
 40
0.0
 40
0.0
 40
0.0
 40
0.0
 40
0.2896403952
 40
0.5491094116
 40
0.7822346475
 40
1.0
 40
1.0
 40
1.0
 40
1.0
 10
36.374429661
 20
136.8645609345
 30
0.0
 10
36.5212406662
 20
136.7798014786
 30
0.0
 10
36.8133936515
 20
136.6408840554
 30
0.0
 10
37.2623583819
 20
136.532385675
 30
0.0
 10
37.6837182049
 20
136.5429821637
 30
0.0
 10
37.9372627392
 20
136.6351947377
 30
0.0
 10
38.0476673302
 20
136.6988773572
 30
0.0
  0
SPLINE
  5
330
100
AcDbEntity
  8
0
100
AcDbSpline
 62
7
  6
CONTINUOUS
 70
0
 71
3
 72
17
 73
13
 74
0
 42
0.0000001
 43
0.0000001
 44
0.0000000001
 40
0.0
 40
0.0
 40
0.0
 40
0.0
 40
0.128688864
 40
0.2702797703
 40
0.4174318348
 40
0.5617733576
 40
0.6954455149
 40
0.8127096012
 40
0.8646749146
 40
0.9125085807
 40
0.9571389861
 40
1.0
 40
1.0
 40
1.0
 40
1.0
 10
31.1259820688
 20
106.376176577
 30
0.0
 10
31.1259820688
 20
106.1401119695
 30
0.0
 10
31.1920249945
 20
105.6437502697
 30
0.0
 10
31.4385072342
 20
104.9149532008
 30
0.0
 10
31.8183360588
 20
104.2128966331
 30
0.0
 10
32.3009614922
 20
103.595141239
 30
0.0
 10
32.8469548111
 20
103.1115846282
 30
0.0
 10
33.341154622
 20
102.8413559695
 30
0.0
 10
33.7277420703
 20
102.7385266686
 30
0.0
 10
33.993809554
 20
102.7189349294
 30
0.0
 10
34.2415623884
 20
102.7552451485
 30
0.0
 10
34.3916679969
 20
102.8176161506
 30
0.0
 10
34.4597424221
 20
102.8569547679
 30
0.0
  0
SPLINE
  5
331
100
AcDbEntity
  8
0
100
AcDbSpline
 62
7
  6
CONTINUOUS
 70
0
 71
3
 72
17
 73
13
 74
0
 42
0.0000001
 43
0.0000001
 44
0.0000000001
 40
0.0
 40
0.0
 40
0.0
 40
0.0
 40
0.128688864
 40
0.2702797703
 40
0.4174318348
 40
0.5617733576
 40
0.6954455149
 40
0.8127096012
 40
0.8646749146
 40
0.9125085807
 40
0.9571389861
 40
1.0
 40
1.0
 40
1.0
 40
1.0
 10
39.8871422743
 20
101.3180328044
 30
0.0
 10
39.8871422743
 20
101.0819681969
 30
0.0
 10
39.9531852
 20
100.5856064971
 30
0.0
 10
40.1996674397
 20
99.8568094282
 30
0.0
 10
40.5794962643
 20
99.1547528605
 30
0.0
 10
41.0621216977
 20
98.5369974664
 30
0.0
 10
41.6081150166
 20
98.0534408557
 30
0.0
 10
42.1023148276
 20
97.7832121969
 30
0.0
 10
42.4889022758
 20
97.680382896
 30
0.0
 10
42.7549697596
 20
97.6607911568
 30
0.0
 10
43.0027225939
 20
97.6971013759
 30
0.0
 10
43.1528282025
 20
97.759472378
 30
0.0
 10
43.2209026277
 20
97.7988109953
 30
0.0
  0
SPLINE
  5
332
100
AcDbEntity
  8
0
100
AcDbSpline
 62
7
  6
CONTINUOUS
 70
0
 71
3
 72
17
 73
13
 74
0
 42
0.0000001
 43
0.0000001
 44
0.0000000001
 40
0.0
 40
0.0
 40
0.0
 40
0.0
 40
0.128688864
 40
0.2702797703
 40
0.4174318348
 40
0.5617733576
 40
0.6954455149
 40
0.8127096012
 40
0.8646749146
 40
0.9125085807
 40
0.9571389861
 40
1.0
 40
1.0
 40
1.0
 40
1.0
 10
49.1875443563
 20
95.9485646324
 30
0.0
 10
49.1875443563
 20
95.7125000249
 30
0.0
 10
49.253587282
 20
95.2161383252
 30
0.0
 10
49.5000695217
 20
94.4873412562
 30
0.0
 10
49.8798983463
 20
93.7852846885
 30
0.0
 10
50.3625237797
 20
93.1675292945
 30
0.0
 10
50.9085170985
 20
92.6839726837
 30
0.0
 10
51.4027169095
 20
92.4137440249
 30
0.0
 10
51.7893043578
 20
92.310914724
 30
0.0
 10
52.0553718415
 20
92.2913229848
 30
0.0
 10
52.3031246759
 20
92.3276332039
 30
0.0
 10
52.4532302844
 20
92.3900042061
 30
0.0
 10
52.5213047096
 20
92.4293428233
 30
0.0
  0
SPLINE
  5
333
100
AcDbEntity
  8
0
100
AcDbSpline
 62
7
  6
CONTINUOUS
 70
0
 71
3
 72
17
 73
13
 74
0
 42
0.0000001
 43
0.0000001
 44
0.0000000001
 40
0.0
 40
0.0
 40
0.0
 40
0.0
 40
0.128688864
 40
0.2702797703
 40
0.4174318348
 40
0.5617733576
 40
0.6954455149
 40
0.8127096012
 40
0.8646749146
 40
0.9125085807
 40
0.9571389861
 40
1.0
 40
1.0
 40
1.0
 40
1.0
 10
31.1259820688
 20
71.7396541409
 30
0.0
 10
31.1259820688
 20
71.5035895334
 30
0.0
 10
31.1920249945
 20
71.0072278336
 30
0.0
 10
31.4385072342
 20
70.2784307647
 30
0.0
 10
31.8183360588
 20
69.576374197
 30
0.0
 10
32.3009614922
 20
68.9586188029
 30
0.0
 10
32.8469548111
 20
68.4750621922
 30
0.0
 10
33.341154622
 20
68.2048335334
 30
0.0
 10
33.7277420703
 20
68.1020042325
 30
0.0
 10
33.993809554
 20
68.0824124933
 30
0.0
 10
34.2415623884
 20
68.1187227124
 30
0.0
 10
34.3916679969
 20
68.1810937145
 30
0.0
 10
34.4597424221
 20
68.2204323318
 30
0.0
  0
SPLINE
  5
334
100
AcDbEntity
  8
0
100
AcDbSpline
 62
7
  6
CONTINUOUS
 70
0
 71
3
 72
11
 73
7
 74
0
 42
0.0000001
 43
0.0000001
 44
0.0000000001
 40
0.0
 40
0.0
 40
0.0
 40
0.0
 40
0.2177660095
 40
0.4508968553
 40
0.7103699668
 40
1.0
 40
1.0
 40
1.0
 40
1.0
 10
40.4591731988
 20
67.9457735458
 30
0.0
 10
40.368099282
 20
67.8931440606
 30
0.0
 10
40.1975585797
 20
67.7499886035
 30
0.0
 10
40.0161201073
 20
67.4531939497
 30
0.0
 10
39.9084079356
 20
67.0875385176
 30
0.0
 10
39.8871422743
 20
66.8214097791
 30
0.0
 10
39.8871422743
 20
66.6815103683
 30
0.0
  0
SPLINE
  5
335
100
AcDbEntity
  8
0
100
AcDbSpline
 62
7
  6
CONTINUOUS
 70
0
 71
3
 72
17
 73
13
 74
0
 42
0.0000001
 43
0.0000001
 44
0.0000000001
 40
0.0
 40
0.0
 40
0.0
 40
0.0
 40
0.128688864
 40
0.2702797703
 40
0.4174318348
 40
0.5617733576
 40
0.6954455149
 40
0.8127096012
 40
0.8646749146
 40
0.9125085807
 40
0.9571389861
 40
1.0
 40
1.0
 40
1.0
 40
1.0
 10
39.8871422743
 20
66.6815103683
 30
0.0
 10
39.8871422743
 20
66.4454457608
 30
0.0
 10
39.9531852
 20
65.949084061
 30
0.0
 10
40.1996674397
 20
65.2202869921
 30
0.0
 10
40.5794962643
 20
64.5182304244
 30
0.0
 10
41.0621216977
 20
63.9004750304
 30
0.0
 10
41.6081150166
 20
63.4169184196
 30
0.0
 10
42.1023148276
 20
63.1466897608
 30
0.0
 10
42.4889022758
 20
63.0438604599
 30
0.0
 10
42.7549697596
 20
63.0242687207
 30
0.0
 10
43.0027225939
 20
63.0605789398
 30
0.0
 10
43.1528282024
 20
63.1229499419
 30
0.0
 10
43.2209026277
 20
63.1622885592
 30
0.0
  0
SPLINE
  5
336
100
AcDbEntity
  8
0
100
AcDbSpline
 62
7
  6
CONTINUOUS
 70
0
 71
3
 72
17
 73
13
 74
0
 42
0.0000001
 43
0.0000001
 44
0.0000000001
 40
0.0
 40
0.0
 40
0.0
 40
0.0
 40
0.128688864
 40
0.2702797703
 40
0.4174318348
 40
0.5617733576
 40
0.6954455149
 40
0.8127096012
 40
0.8646749146
 40
0.9125085807
 40
0.9571389861
 40
1.0
 40
1.0
 40
1.0
 40
1.0
 10
49.1875443563
 20
61.3120421963
 30
0.0
 10
49.1875443563
 20
61.0759775889
 30
0.0
 10
49.2535872819
 20
60.5796158891
 30
0.0
 10
49.5000695217
 20
59.8508188201
 30
0.0
 10
49.8798983462
 20
59.1487622524
 30
0.0
 10
50.3625237797
 20
58.5310068584
 30
0.0
 10
50.9085170985
 20
58.0474502476
 30
0.0
 10
51.4027169095
 20
57.7772215888
 30
0.0
 10
51.7893043577
 20
57.6743922879
 30
0.0
 10
52.0553718415
 20
57.6548005487
 30
0.0
 10
52.3031246759
 20
57.6911107679
 30
0.0
 10
52.4532302844
 20
57.75348177
 30
0.0
 10
52.5213047096
 20
57.7928203872
 30
0.0
  0
SPLINE
  5
337
100
AcDbEntity
  8
0
100
AcDbSpline
 62
7
  6
CONTINUOUS
 70
0
 71
3
 72
11
 73
7
 74
0
 42
0.0000001
 43
0.0000001
 44
0.0000000001
 40
0.0
 40
0.0
 40
0.0
 40
0.0
 40
0.2177660095
 40
0.4508968553
 40
0.7103699668
 40
1.0
 40
1.0
 40
1.0
 40
1.0
 10
31.6980129933
 20
73.0039173183
 30
0.0
 10
31.6069390764
 20
72.9512878332
 30
0.0
 10
31.4363983742
 20
72.8081323761
 30
0.0
 10
31.2549599018
 20
72.5113377223
 30
0.0
 10
31.1472477301
 20
72.1456822902
 30
0.0
 10
31.1259820688
 20
71.8795535517
 30
0.0
 10
31.1259820688
 20
71.7396541409
 30
0.0
  0
SPLINE
  5
338
100
AcDbEntity
  8
0
100
AcDbSpline
 62
7
  6
CONTINUOUS
 70
0
 71
3
 72
11
 73
7
 74
0
 42
0.0000001
 43
0.0000001
 44
0.0000000001
 40
0.0
 40
0.0
 40
0.0
 40
0.0
 40
0.2177660095
 40
0.4508968553
 40
0.7103699668
 40
1.0
 40
1.0
 40
1.0
 40
1.0
 10
49.7595752808
 20
97.2128278099
 30
0.0
 10
49.6685013639
 20
97.1601983247
 30
0.0
 10
49.4979606617
 20
97.0170428676
 30
0.0
 10
49.3165221892
 20
96.7202482138
 30
0.0
 10
49.2088100176
 20
96.3545927817
 30
0.0
 10
49.1875443563
 20
96.0884640432
 30
0.0
 10
49.1875443563
 20
95.9485646324
 30
0.0
  0
SPLINE
  5
339
100
AcDbEntity
  8
0
100
AcDbSpline
 62
7
  6
CONTINUOUS
 70
0
 71
3
 72
11
 73
7
 74
0
 42
0.0000001
 43
0.0000001
 44
0.0000000001
 40
0.0
 40
0.0
 40
0.0
 40
0.0
 40
0.2177660095
 40
0.4508968553
 40
0.7103699668
 40
1.0
 40
1.0
 40
1.0
 40
1.0
 10
40.4591731988
 20
102.5822959818
 30
0.0
 10
40.368099282
 20
102.5296664967
 30
0.0
 10
40.1975585797
 20
102.3865110396
 30
0.0
 10
40.0161201073
 20
102.0897163858
 30
0.0
 10
39.9084079356
 20
101.7240609537
 30
0.0
 10
39.8871422743
 20
101.4579322152
 30
0.0
 10
39.8871422743
 20
101.3180328044
 30
0.0
  0
SPLINE
  5
33A
100
AcDbEntity
  8
0
100
AcDbSpline
 62
7
  6
CONTINUOUS
 70
0
 71
3
 72
11
 73
7
 74
0
 42
0.0000001
 43
0.0000001
 44
0.0000000001
 40
0.0
 40
0.0
 40
0.0
 40
0.0
 40
0.2177660095
 40
0.4508968553
 40
0.7103699668
 40
1.0
 40
1.0
 40
1.0
 40
1.0
 10
31.6980129933
 20
107.6404397544
 30
0.0
 10
31.6069390764
 20
107.5878102692
 30
0.0
 10
31.4363983742
 20
107.4446548122
 30
0.0
 10
31.2549599018
 20
107.1478601584
 30
0.0
 10
31.1472477301
 20
106.7822047262
 30
0.0
 10
31.1259820688
 20
106.5160759878
 30
0.0
 10
31.1259820688
 20
106.376176577
 30
0.0
  0
SPLINE
  5
33B
100
AcDbEntity
  8
0
100
AcDbSpline
 62
7
  6
CONTINUOUS
 70
0
 71
3
 72
17
 73
13
 74
0
 42
0.0000001
 43
0.0000001
 44
0.0000000001
 40
0.0
 40
0.0
 40
0.0
 40
0.0
 40
0.0428579803
 40
0.0874855365
 40
0.1353182087
 40
0.1872817653
 40
0.3045429422
 40
0.4382107634
 40
0.5825533132
 40
0.729712045
 40
0.871310822
 40
1.0
 40
1.0
 40
1.0
 40
1.0
 10
47.6534292199
 20
135.0173683602
 30
0.0
 10
47.5709086919
 20
134.9697695843
 30
0.0
 10
47.4145340764
 20
134.8500341547
 30
0.0
 10
47.2263083185
 20
134.6120762405
 30
0.0
 10
47.0856860707
 20
134.3209988094
 30
0.0
 10
46.959339018
 20
133.8530396814
 30
0.0
 10
46.9434966993
 20
133.1707207324
 30
0.0
 10
47.1201101877
 20
132.304797803
 30
0.0
 10
47.4759635556
 20
131.4240413708
 30
0.0
 10
47.9825760773
 20
130.6000585349
 30
0.0
 10
48.5980580925
 20
129.8998198742
 30
0.0
 10
49.0789398255
 20
129.5297745061
 30
0.0
 10
49.3266668891
 20
129.3867524549
 30
0.0
  0
SPLINE
  5
33C
100
AcDbEntity
  8
0
100
AcDbSpline
 62
7
  6
CONTINUOUS
 70
0
 71
3
 72
11
 73
7
 74
0
 42
0.0000001
 43
0.0000001
 44
0.0000000001
 40
0.0
 40
0.0
 40
0.0
 40
0.0
 40
0.2896403952
 40
0.5491094116
 40
0.7822346475
 40
1.0
 40
1.0
 40
1.0
 40
1.0
 10
62.0739621463
 20
40.3148259937
 30
0.0
 10
62.2207731515
 20
40.2300665378
 30
0.0
 10
62.5129261368
 20
40.0911491146
 30
0.0
 10
62.9618908673
 20
39.9826507342
 30
0.0
 10
63.3832506903
 20
39.9932472229
 30
0.0
 10
63.6367952246
 20
40.0854597969
 30
0.0
 10
63.7471998155
 20
40.1491424164
 30
0.0
  0
SPLINE
  5
33D
100
AcDbEntity
  8
0
100
AcDbSpline
 62
7
  6
CONTINUOUS
 70
0
 71
3
 72
17
 73
13
 74
0
 42
0.0000001
 43
0.0000001
 44
0.0000000001
 40
0.0
 40
0.0
 40
0.0
 40
0.0
 40
0.0428579803
 40
0.0874855365
 40
0.1353182087
 40
0.1872817653
 40
0.3045429422
 40
0.4382107634
 40
0.5825533132
 40
0.729712045
 40
0.871310822
 40
1.0
 40
1.0
 40
1.0
 40
1.0
 10
60.5004108393
 20
127.6003278599
 30
0.0
 10
60.4178903113
 20
127.552729084
 30
0.0
 10
60.2615156958
 20
127.4329936544
 30
0.0
 10
60.0732899379
 20
127.1950357401
 30
0.0
 10
59.9326676901
 20
126.903958309
 30
0.0
 10
59.8063206374
 20
126.435999181
 30
0.0
 10
59.7904783187
 20
125.7536802321
 30
0.0
 10
59.9670918071
 20
124.8877573027
 30
0.0
 10
60.322945175
 20
124.0070008704
 30
0.0
 10
60.8295576967
 20
123.1830180345
 30
0.0
 10
61.4450397119
 20
122.4827793739
 30
0.0
 10
61.9259214449
 20
122.1127340058
 30
0.0
 10
62.1736485085
 20
121.9697119545
 30
0.0
  0
SPLINE
  5
33E
100
AcDbEntity
  8
0
100
AcDbSpline
 62
7
  6
CONTINUOUS
 70
0
 71
3
 72
11
 73
7
 74
0
 42
0.0000001
 43
0.0000001
 44
0.0000000001
 40
0.0
 40
0.0
 40
0.0
 40
0.0
 40
0.2896403952
 40
0.5491094116
 40
0.7822346475
 40
1.0
 40
1.0
 40
1.0
 40
1.0
 10
49.2269805269
 20
47.731866494
 30
0.0
 10
49.3737915321
 20
47.6471070382
 30
0.0
 10
49.6659445174
 20
47.508189615
 30
0.0
 10
50.1149092479
 20
47.3996912345
 30
0.0
 10
50.5362690709
 20
47.4102877233
 30
0.0
 10
50.7898136052
 20
47.5025002973
 30
0.0
 10
50.9002181961
 20
47.5661829168
 30
0.0
  0
SPLINE
  5
33F
100
AcDbEntity
  8
0
100
AcDbSpline
 62
7
  6
CONTINUOUS
 70
0
 71
3
 72
17
 73
13
 74
0
 42
0.0000001
 43
0.0000001
 44
0.0000000001
 40
0.0
 40
0.0
 40
0.0
 40
0.0
 40
0.0428579803
 40
0.0874855365
 40
0.1353182087
 40
0.1872817653
 40
0.3045429422
 40
0.4382107634
 40
0.5825533132
 40
0.729712045
 40
0.871310822
 40
1.0
 40
1.0
 40
1.0
 40
1.0
 10
34.7011919918
 20
142.4951768399
 30
0.0
 10
34.6186714637
 20
142.447578064
 30
0.0
 10
34.4622968482
 20
142.3278426344
 30
0.0
 10
34.2740710904
 20
142.0898847201
 30
0.0
 10
34.1334488426
 20
141.798807289
 30
0.0
 10
34.0071017899
 20
141.330848161
 30
0.0
 10
33.9912594712
 20
140.6485292121
 30
0.0
 10
34.1678729595
 20
139.7826062827
 30
0.0
 10
34.5237263274
 20
138.9018498504
 30
0.0
 10
35.0303388492
 20
138.0778670145
 30
0.0
 10
35.6458208644
 20
137.3776283539
 30
0.0
 10
36.1267025974
 20
137.0075829858
 30
0.0
 10
36.374429661
 20
136.8645609345
 30
0.0
  0
ENDSEC
  0
SECTION
  2
OBJECTS
  0
DICTIONARY
  5
C
100
AcDbDictionary
280
0
281
1
  3
ACAD_GROUP
350
D
  3
ACAD_MLINESTYLE
350
17
  3
ACAD_LAYOUT
350
1A
  3
ACAD_PLOTSETTINGS
350
19
  3
ACAD_PLOTSTYLENAME
350
E
  0
DICTIONARY
  5
D
102
{ACAD_REACTORS
330
C
102
}
100
AcDbDictionary
280
0
281
1
  0
ACDBDICTIONARYWDFLT
  5
E
102
{ACAD_REACTORS
330
C
102
}
100
AcDbDictionary
281
1
  3
Normal
350
F
100
AcDbDictionaryWithDefault
340
F
  0
DICTIONARY
  5
17
102
{ACAD_REACTORS
330
C
102
}
100
AcDbDictionary
280
0
281
1
  3
Standard
350
18
  0
DICTIONARY
  5
19
102
{ACAD_REACTORS
330
C
102
}
100
AcDbDictionary
281
1
  0
DICTIONARY
  5
1A
102
{ACAD_REACTORS
330
C
102
}
100
AcDbDictionary
281
1
  3
Model
350
340
  3
Layout1
350
341
  0
ACDBPLACEHOLDER
  5
F
102
{ACAD_REACTORS
330
E
102
}
  0
MLINESTYLE
  5
18
102
{ACAD_REACTORS
330
17
102
}
100
AcDbMlineStyle
  2
STANDARD
 70
0
  3

 62
256
 51
90.0
 52
90.0
 71
2
 49
0.5
 62
256
  6
BYLAYER
 49
-0.5
 62
256
  6
BYLAYER
  0
LAYOUT
  5
340
102
{ACAD_REACTORS
330
1A
102
}
100
AcDbPlotSettings
  1

  2
none_device
  4

  6

 40
0.0
 41
0.0
 42
0.0
 43
0.0
 44
210.0
 45
297.0
 46
0.0
 47
0.0
 48
0.0
 49
0.0
140
0.0
141
0.0
142
1.0
143
1.0
 70
1024
 72
1
 73
0
 74
0
  7

 75
0
147
1.0
148
0.0
149
0.0
100
AcDbLayout
  1
Model
 70
0
 71
0
 10
0.0
 20
0.0
 11
210.0
 21
297.0
 12
0.0
 22
0.0
 32
0.0
 14
0.0
 24
0.0
 34
0.0
 15
0.0
 25
0.0
 35
0.0
146
0.0
 13
0.0
 23
0.0
 33
0.0
 16
1.0
 26
0.0
 36
0.0
 17
0.0
 27
1.0
 37
0.0
 76
0
330
210
345
0
346
0
  0
LAYOUT
  5
341
102
{ACAD_REACTORS
330
1A
102
}
100
AcDbPlotSettings
  1

  2
none_device
  4

  6

 40
0.0
 41
0.0
 42
0.0
 43
0.0
 44
210.0
 45
297.0
 46
0.0
 47
0.0
 48
0.0
 49
0.0
140
0.0
141
0.0
142
1.0
143
1.0
 70
0
 72
1
 73
0
 74
0
  7

 75
0
147
1.0
148
0.0
149
0.0
100
AcDbLayout
  1
Layout1
 70
0
 71
1
 10
0.0
 20
0.0
 11
210.0
 21
297.0
 12
0.0
 22
0.0
 32
0.0
 14
0.0
 24
0.0
 34
0.0
 15
0.0
 25
0.0
 35
0.0
146
0.0
 13
0.0
 23
0.0
 33
0.0
 16
1.0
 26
0.0
 36
0.0
 17
0.0
 27
1.0
 37
0.0
 76
0
330
211
345
0
346
0
  0
ENDSEC
  0
EOF
