999
DXF file: C:\Users\sesa63760\Dev\_Creo\CAD\MCADPP0003371_3D-CAD\drw0001_6.dxf
999
Pro/ENGINEER 2019471 by Parametric Technology Corporation
  0
SECTION
  2
HEADER
  9
$ACADVER
  1
AC1024
  9
$DWGCODEPAGE
  3
ANSI_1252
  9
$EXTMAX
 10
119.580354972
 20
169.1207877462
 30
0.0
  9
$EXTMIN
 10
0.0
 20
0.0
 30
0.0
  9
$LIMMIN
 10
0.0
 20
0.0
  9
$LIMMAX
 10
119.580354972
 20
169.1207877462
  9
$VIEWCTR
 10
59.790177486
 20
84.5603938731
  9
$VIEWSIZE
 40
169.1207877462
  9
$CLAYER
  8
0
  9
$LTSCALE
 40
11.0241698679
  9
$CELTYPE
  6
BYLAYER
  9
$DIMSCALE
 40
1.0
  9
$DIMASZ
 40
1.4235756544
  9
$DIMEXO
 40
1.0
  9
$DIMDLI
 40
7.6166991815
  9
$DIMEXE
 40
1.0
  9
$DIMCEN
 40
1.8039550693
  9
$DIMLFAC
 40
1.0
  9
$DIMBLK
  1
_FILLED
  9
$DIMALT
 70
0
  9
$DIMALTF
 40
0.0393700787
  9
$DIMTXT
 40
1.9930059162
  9
$DIMTOL
 70
1
  9
$DIMLIM
 70
0
  9
$DIMTFAC
 40
1.0
  9
$DIMTP
 40
0.01
  9
$DIMTM
 40
0.01
  9
$DIMGAP
 40
0.625
  9
$DIMDSEP
 70
46
  9
$AUNITS
 70
0
  9
$PDMODE
 70
3
  9
$PDSIZE
 40
0.3125
  9
$HANDSEED
  5
281
  9
$TILEMODE
 70
1
  9
$MEASUREMENT
 70
1
  9
$INSUNITS
 70
4
  0
ENDSEC
  0
SECTION
  2
CLASSES
  0
CLASS
  1
ACDBDICTIONARYWDFLT
  2
AcDbDictionaryWithDefault
  3
AutoCAD 2000
 90
0
 91
1
280
0
281
0
  0
CLASS
  1
ACDBPLACEHOLDER
  2
AcDbPlaceHolder
  3
AutoCAD 2000
 90
0
 91
1
280
0
281
0
  0
CLASS
  1
LAYOUT
  2
AcDbLayout
  3
AutoCAD 2000
 90
0
 91
0
280
0
281
0
  0
ENDSEC
  0
SECTION
  2
TABLES
  0
TABLE
  2
VPORT
  5
8
100
AcDbSymbolTable
 70
2
  0
VPORT
  5
1F4
100
AcDbSymbolTableRecord
100
AcDbViewportTableRecord
  2
*ACTIVE
 70
0
 10
0.0
 20
0.0
 11
1.0
 21
1.0
 12
59.790177486
 22
84.5603938731
 13
0.0
 23
0.0
 14
1.0
 24
1.0
 15
0.0
 25
0.0
 16
0.0
 26
0.0
 36
1.0
 17
0.0
 27
0.0
 37
0.0
 40
169.1207877462
 41
0.7070707071
 42
50.0
 43
0.0
 44
0.0
 50
0.0
 51
0.0
 71
0
 72
100
 73
1
 74
1
 75
0
 76
0
 77
0
 78
0
  0
ENDTAB
  0
TABLE
  2
LTYPE
  5
5
100
AcDbSymbolTable
 70
6
  0
LTYPE
  5
14
100
AcDbSymbolTableRecord
100
AcDbLinetypeTableRecord
  2
BYBLOCK
 70
0
  3

 72
65
 73
0
 40
0.0
  0
LTYPE
  5
15
100
AcDbSymbolTableRecord
100
AcDbLinetypeTableRecord
  2
BYLAYER
 70
0
  3

 72
65
 73
0
 40
0.0
  0
LTYPE
  5
16
100
AcDbSymbolTableRecord
100
AcDbLinetypeTableRecord
  2
CONTINUOUS
 70
64
  3
Solid line
 72
65
 73
0
 40
0.0
  0
LTYPE
  5
1F5
100
AcDbSymbolTableRecord
100
AcDbLinetypeTableRecord
  2
CENTER
 70
64
  3
____ _ ____ _ ____ _ ____ _ ____ _ ____ _ ____
 72
65
 73
4
 40
0.6
 49
0.375
 74
0
 49
-0.075
 74
0
 49
0.075
 74
0
 49
-0.075
 74
0
  0
LTYPE
  5
1F6
100
AcDbSymbolTableRecord
100
AcDbLinetypeTableRecord
  2
HIDDEN
 70
64
  3
- - - - - - - - - - - - - - - - - - - -
 72
65
 73
2
 40
0.2
 49
0.1
 74
0
 49
-0.1
 74
0
  0
LTYPE
  5
1F7
100
AcDbSymbolTableRecord
100
AcDbLinetypeTableRecord
  2
PHANTOM
 70
64
  3
_____ _ _ _____ _ _ _____ _ _ _____
 72
65
 73
6
 40
0.8
 49
0.45
 74
0
 49
-0.05
 74
0
 49
0.1
 74
0
 49
-0.05
 74
0
 49
0.1
 74
0
 49
-0.05
 74
0
  0
LTYPE
  5
1F8
100
AcDbSymbolTableRecord
100
AcDbLinetypeTableRecord
  2
DOT
 70
64
  3
. . . . . . . . . . . . . . . . . . . .
 72
65
 73
2
 40
0.2
 49
0.1
 74
0
 49
-0.1
 74
0
  0
LTYPE
  5
1F9
100
AcDbSymbolTableRecord
100
AcDbLinetypeTableRecord
  2
DASHED
 70
64
  3
- - - - - - - - - - - - - - - - - - - -
 72
65
 73
2
 40
0.2
 49
0.1
 74
0
 49
-0.1
 74
0
  0
ENDTAB
  0
TABLE
  2
LAYER
  5
2
100
AcDbSymbolTable
 70
36
  0
LAYER
  5
10
100
AcDbSymbolTableRecord
100
AcDbLayerTableRecord
  2
0
 70
0
 62
7
  6
CONTINUOUS
370
-3
390
F
  0
LAYER
  5
1FA
100
AcDbSymbolTableRecord
100
AcDbLayerTableRecord
  2
DEFAULT_1
 70
0
 62
7
  6
CENTER
370
-3
390
F
  0
LAYER
  5
1FB
100
AcDbSymbolTableRecord
100
AcDbLayerTableRecord
  2
DEFAULT_2
 70
0
 62
8
  6
HIDDEN
370
-3
390
F
  0
LAYER
  5
1FC
100
AcDbSymbolTableRecord
100
AcDbLayerTableRecord
  2
DEFAULT_3
 70
0
 62
7
  6
PHANTOM
370
-3
390
F
  0
LAYER
  5
1FD
100
AcDbSymbolTableRecord
100
AcDbLayerTableRecord
  2
00_COMPONENTS
 70
0
 62
7
  6
CONTINUOUS
370
-3
390
F
  0
LAYER
  5
1FE
100
AcDbSymbolTableRecord
100
AcDbLayerTableRecord
  2
00_COMPONENTS_1
 70
0
 62
7
  6
CONTINUOUS
370
-3
390
F
  0
LAYER
  5
1FF
100
AcDbSymbolTableRecord
100
AcDbLayerTableRecord
  2
01_1_DEFAULT_DATUMS
 70
0
 62
7
  6
CONTINUOUS
370
-3
390
F
  0
LAYER
  5
200
100
AcDbSymbolTableRecord
100
AcDbLayerTableRecord
  2
01_PLANES
 70
0
 62
7
  6
CONTINUOUS
370
-3
390
F
  0
LAYER
  5
201
100
AcDbSymbolTableRecord
100
AcDbLayerTableRecord
  2
02_COORD_SYS
 70
0
 62
7
  6
CONTINUOUS
370
-3
390
F
  0
LAYER
  5
202
100
AcDbSymbolTableRecord
100
AcDbLayerTableRecord
  2
03_AXES
 70
0
 62
7
  6
CONTINUOUS
370
-3
390
F
  0
LAYER
  5
203
100
AcDbSymbolTableRecord
100
AcDbLayerTableRecord
  2
03_AXES_1
 70
0
 62
7
  6
CONTINUOUS
370
-3
390
F
  0
LAYER
  5
204
100
AcDbSymbolTableRecord
100
AcDbLayerTableRecord
  2
04_POINTS
 70
0
 62
7
  6
CONTINUOUS
370
-3
390
F
  0
LAYER
  5
205
100
AcDbSymbolTableRecord
100
AcDbLayerTableRecord
  2
05_CURVES
 70
0
 62
7
  6
CONTINUOUS
370
-3
390
F
  0
LAYER
  5
206
100
AcDbSymbolTableRecord
100
AcDbLayerTableRecord
  2
06_SURFS
 70
0
 62
7
  6
CONTINUOUS
370
-3
390
F
  0
LAYER
  5
207
100
AcDbSymbolTableRecord
100
AcDbLayerTableRecord
  2
07_COSMETICS
 70
0
 62
7
  6
CONTINUOUS
370
-3
390
F
  0
LAYER
  5
208
100
AcDbSymbolTableRecord
100
AcDbLayerTableRecord
  2
10_NOTES
 70
0
 62
7
  6
CONTINUOUS
370
-3
390
F
  0
LAYER
  5
209
100
AcDbSymbolTableRecord
100
AcDbLayerTableRecord
  2
11_NOTES_PUB
 70
0
 62
7
  6
CONTINUOUS
370
-3
390
F
  0
LAYER
  5
20A
100
AcDbSymbolTableRecord
100
AcDbLayerTableRecord
  2
13_REF_GTOL
 70
0
 62
7
  6
CONTINUOUS
370
-3
390
F
  0
LAYER
  5
20B
100
AcDbSymbolTableRecord
100
AcDbLayerTableRecord
  2
16_MISC
 70
0
 62
7
  6
CONTINUOUS
370
-3
390
F
  0
LAYER
  5
20C
100
AcDbSymbolTableRecord
100
AcDbLayerTableRecord
  2
17_NO_PRINT
 70
0
 62
7
  6
CONTINUOUS
370
-3
390
F
  0
LAYER
  5
20D
100
AcDbSymbolTableRecord
100
AcDbLayerTableRecord
  2
18_DATUM_CAMS_JOINTS
 70
0
 62
7
  6
CONTINUOUS
370
-3
390
F
  0
LAYER
  5
20E
100
AcDbSymbolTableRecord
100
AcDbLayerTableRecord
  2
19_DATUM_FUNCTIONAL
 70
0
 62
7
  6
CONTINUOUS
370
-3
390
F
  0
LAYER
  5
20F
100
AcDbSymbolTableRecord
100
AcDbLayerTableRecord
  2
20_DATUM_KINEMATIC_SCHEME
 70
0
 62
7
  6
CONTINUOUS
370
-3
390
F
  0
LAYER
  5
210
100
AcDbSymbolTableRecord
100
AcDbLayerTableRecord
  2
INTFCLR_31
 70
0
 62
7
  6
CONTINUOUS
370
-3
390
F
  0
LAYER
  5
211
100
AcDbSymbolTableRecord
100
AcDbLayerTableRecord
  2
INTFCLR_71
 70
0
 62
7
  6
CONTINUOUS
370
-3
390
F
  0
LAYER
  5
212
100
AcDbSymbolTableRecord
100
AcDbLayerTableRecord
  2
INTF_BLANK
 70
0
 62
7
  6
CONTINUOUS
370
-3
390
F
  0
LAYER
  5
213
100
AcDbSymbolTableRecord
100
AcDbLayerTableRecord
  2
_BLACK_HOLE
 70
0
 62
7
  6
CONTINUOUS
370
-3
390
F
  0
ENDTAB
  0
TABLE
  2
STYLE
  5
3
100
AcDbSymbolTable
 70
1
  0
STYLE
  5
11
100
AcDbSymbolTableRecord
100
AcDbTextStyleTableRecord
  2
STANDARD
 70
0
 40
0.0
 41
0.8
 50
0.0
 71
0
 42
0.2
  3
txt
  4

  0
STYLE
  5
214
100
AcDbSymbolTableRecord
100
AcDbTextStyleTableRecord
  2
TEXTSTYLE_1
 70
0
 40
0.0
 41
0.8
 50
0.0
 71
0
 42
0.2
  3
gdt
  4

  0
ENDTAB
  0
TABLE
  2
VIEW
  5
6
100
AcDbSymbolTable
 70
0
  0
ENDTAB
  0
TABLE
  2
UCS
  5
7
100
AcDbSymbolTable
 70
0
  0
ENDTAB
  0
TABLE
  2
APPID
  5
9
100
AcDbSymbolTable
 70
1
  0
APPID
  5
215
100
AcDbSymbolTableRecord
100
AcDbRegAppTableRecord
  2
ACAD
 70
0
  0
ENDTAB
  0
TABLE
  2
BLOCK_RECORD
  5
1
100
AcDbSymbolTable
 70
0
  0
BLOCK_RECORD
  5
216
100
AcDbSymbolTableRecord
100
AcDbBlockTableRecord
  2
*Model_Space
  0
BLOCK_RECORD
  5
217
100
AcDbSymbolTableRecord
100
AcDbBlockTableRecord
  2
*Paper_Space
  0
BLOCK_RECORD
  5
218
100
AcDbSymbolTableRecord
100
AcDbBlockTableRecord
  2
_FILLED
  0
ENDTAB
  0
TABLE
  2
DIMSTYLE
  5
A
100
AcDbSymbolTable
 70
1
100
AcDbDimStyleTable
 71
0
  0
DIMSTYLE
105
219
100
AcDbSymbolTableRecord
100
AcDbDimStyleTableRecord
  2
STANDARD
 70
0
  3

  4

 40
1.0
 41
1.4235756544
 42
1.0
 43
0.38
 44
1.0
 45
0.0
 46
0.0
 47
0.01
 48
0.01
140
1.9930059162
141
0.09
142
0.0
143
25.4
144
1.0
145
0.0
146
1.0
147
0.625
 71
1
 72
0
 73
0
 74
0
 75
0
 76
0
 77
1
 78
8
 79
2
170
0
171
1
172
0
173
0
174
0
175
0
176
0
177
0
178
0
270
2
179
2
271
2
272
2
273
2
274
2
275
0
280
0
281
0
282
0
283
1
284
8
285
0
286
0
287
3
288
0
340
11
278
46
341
218
342
218
343
218
344
218
  0
ENDTAB
  0
ENDSEC
  0
SECTION
  2
BLOCKS
  0
BLOCK
  5
20
100
AcDbEntity
  8
0
100
AcDbBlockBegin
  2
*Model_Space
 70
0
 10
0.0
 20
0.0
 30
0.0
  3
*Model_Space
  1

  0
ENDBLK
  5
21
100
AcDbEntity
  8
0
100
AcDbBlockEnd
  0
BLOCK
  5
1C
100
AcDbEntity
  8
0
100
AcDbBlockBegin
  2
*Paper_Space
 70
0
 10
0.0
 20
0.0
 30
0.0
  3
*Paper_Space
  1

  0
ENDBLK
  5
1D
100
AcDbEntity
  8
0
100
AcDbBlockEnd
  0
BLOCK
  5
21A
100
AcDbEntity
  8
0
100
AcDbBlockBegin
  2
_FILLED
 70
64
 10
0.0
 20
0.0
  3
_FILLED
  1

  0
SOLID
  5
21B
100
AcDbEntity
  8
0
  6
BYBLOCK
 62
0
100
AcDbTrace
 10
0.0
 20
0.0
 11
-1.0
 21
0.25
 12
-1.0
 22
-0.25
 13
-1.0
 23
-0.25
  0
ENDBLK
  5
21C
100
AcDbEntity
  8
0
  6
BYBLOCK
 62
0
100
AcDbBlockEnd
  0
ENDSEC
  0
SECTION
  2
ENTITIES
  0
LINE
  5
21D
100
AcDbEntity
  8
00_COMPONENTS_1
100
AcDbLine
 62
7
  6
CONTINUOUS
 10
13.5251884269
 20
99.2603938731
 11
13.5251884269
 21
69.8353938731
  0
LINE
  5
21E
100
AcDbEntity
  8
00_COMPONENTS_1
100
AcDbLine
 62
7
  6
CONTINUOUS
 10
20.2251884269
 20
69.8353938731
 11
20.2251884269
 21
99.2603938731
  0
LINE
  5
21F
100
AcDbEntity
  8
00_COMPONENTS_1
100
AcDbLine
 62
7
  6
CONTINUOUS
 10
20.3251884269
 20
99.4103938731
 11
20.3251884269
 21
69.6103938731
  0
LINE
  5
220
100
AcDbEntity
  8
00_COMPONENTS_1
100
AcDbLine
 62
7
  6
CONTINUOUS
 10
20.5751884269
 20
58.5103938731
 11
20.5751884269
 21
69.6103938731
  0
LINE
  5
221
100
AcDbEntity
  8
00_COMPONENTS_1
100
AcDbLine
 62
7
  6
CONTINUOUS
 10
20.5751884269
 20
99.4103938731
 11
20.5751884269
 21
110.5103938731
  0
LINE
  5
222
100
AcDbEntity
  8
00_COMPONENTS_1
100
AcDbLine
 62
7
  6
CONTINUOUS
 10
22.3751884269
 20
111.5103938731
 11
22.3751884269
 21
99.4103938731
  0
LINE
  5
223
100
AcDbEntity
  8
00_COMPONENTS_1
100
AcDbLine
 62
7
  6
CONTINUOUS
 10
22.3751884269
 20
57.5103938731
 11
22.3751884269
 21
69.6103938731
  0
LINE
  5
224
100
AcDbEntity
  8
00_COMPONENTS_1
100
AcDbLine
 62
7
  6
CONTINUOUS
 10
101.1251884269
 20
46.0603938731
 11
108.1251884269
 21
46.0603938731
  0
LINE
  5
225
100
AcDbEntity
  8
00_COMPONENTS_1
100
AcDbLine
 62
7
  6
CONTINUOUS
 10
101.1251884269
 20
46.2740556448
 11
108.1251884269
 21
46.2740556448
  0
LINE
  5
226
100
AcDbEntity
  8
00_COMPONENTS_1
100
AcDbLine
 62
7
  6
CONTINUOUS
 10
101.1251884269
 20
47.2313232905
 11
108.1251884269
 21
47.2313232905
  0
LINE
  5
227
100
AcDbEntity
  8
00_COMPONENTS_1
100
AcDbLine
 62
7
  6
CONTINUOUS
 10
101.1251884269
 20
47.5603938731
 11
108.1251884269
 21
47.5603938731
  0
LINE
  5
228
100
AcDbEntity
  8
00_COMPONENTS_1
100
AcDbLine
 62
7
  6
CONTINUOUS
 10
35.0752683928
 20
48.5103938731
 11
70.1251884269
 21
48.5103938731
  0
LINE
  5
229
100
AcDbEntity
  8
00_COMPONENTS_1
100
AcDbLine
 62
7
  6
CONTINUOUS
 10
101.1251884269
 20
50.7603938731
 11
108.1251884269
 21
50.7603938731
  0
LINE
  5
22A
100
AcDbEntity
  8
00_COMPONENTS_1
100
AcDbLine
 62
7
  6
CONTINUOUS
 10
70.1251884269
 20
51.5603938731
 11
101.1251884269
 21
51.5603938731
  0
LINE
  5
22B
100
AcDbEntity
  8
03_AXES_1
100
AcDbLine
 62
7
420
15788975
  6
CONTINUOUS
 10
36.2505341944
 20
54.0103938731
 11
35.5372792523
 21
54.0103938731
  0
LINE
  5
22C
100
AcDbEntity
  8
03_AXES_1
100
AcDbLine
 62
7
420
15788975
  6
CONTINUOUS
 10
35.1156884279
 20
54.0103938731
 11
35.0750248003
 21
54.0103938731
  0
LINE
  5
22D
100
AcDbEntity
  8
00_COMPONENTS_1
100
AcDbLine
 62
7
  6
CONTINUOUS
 10
101.1251884269
 20
54.2603938731
 11
70.1251884269
 21
54.2603938731
  0
LINE
  5
22E
100
AcDbEntity
  8
00_COMPONENTS_1
100
AcDbLine
 62
7
  6
CONTINUOUS
 10
35.0751884269
 20
48.5103938731
 11
35.0751884269
 21
50.8103938731
  0
LINE
  5
22F
100
AcDbEntity
  8
00_COMPONENTS_1
100
AcDbLine
 62
7
  6
CONTINUOUS
 10
35.0751884269
 20
57.2103938731
 11
35.0751884269
 21
57.5103938731
  0
LINE
  5
230
100
AcDbEntity
  8
00_COMPONENTS_1
100
AcDbLine
 62
7
  6
CONTINUOUS
 10
35.0751884269
 20
111.5103938731
 11
35.0751884269
 21
111.8103938731
  0
LINE
  5
231
100
AcDbEntity
  8
00_COMPONENTS_1
100
AcDbLine
 62
7
  6
CONTINUOUS
 10
35.0751884269
 20
118.2103938731
 11
35.0751884269
 21
120.5103938731
  0
LINE
  5
232
100
AcDbEntity
  8
00_COMPONENTS_1
100
AcDbLine
 62
7
  6
CONTINUOUS
 10
35.5633579519
 20
57.5103938731
 11
35.5633579519
 21
58.5103938731
  0
LINE
  5
233
100
AcDbEntity
  8
00_COMPONENTS_1
100
AcDbLine
 62
7
  6
CONTINUOUS
 10
35.5633579519
 20
110.5103938731
 11
35.5633579519
 21
111.5103938731
  0
LINE
  5
234
100
AcDbEntity
  8
00_COMPONENTS_1
100
AcDbLine
 62
7
  6
CONTINUOUS
 10
35.5633579519
 20
57.5103938731
 11
22.3751884269
 21
57.5103938731
  0
LINE
  5
235
100
AcDbEntity
  8
00_COMPONENTS_1
100
AcDbLine
 62
7
  6
CONTINUOUS
 10
20.5751937296
 20
58.5103938731
 11
37.0751884269
 21
58.5103938731
  0
LINE
  5
236
100
AcDbEntity
  8
00_COMPONENTS_1
100
AcDbLine
 62
7
  6
CONTINUOUS
 10
37.0751884269
 20
120.5103938731
 11
37.0751884269
 21
110.5103938731
  0
LINE
  5
237
100
AcDbEntity
  8
00_COMPONENTS_1
100
AcDbLine
 62
7
  6
CONTINUOUS
 10
37.0751884269
 20
58.5103938731
 11
37.0751884269
 21
48.5103938731
  0
LINE
  5
238
100
AcDbEntity
  8
03_AXES_1
100
AcDbLine
 62
7
420
15788975
  6
CONTINUOUS
 10
21.8884655642
 20
65.3603938731
 11
21.1467299865
 21
65.3603938731
  0
LINE
  5
239
100
AcDbEntity
  8
03_AXES_1
100
AcDbLine
 62
7
420
15788975
  6
CONTINUOUS
 10
20.8359942396
 20
65.3603938731
 11
20.5901684347
 21
65.3603938731
  0
LINE
  5
23A
100
AcDbEntity
  8
00_COMPONENTS_1
100
AcDbLine
 62
7
  6
CONTINUOUS
 10
103.2251884269
 20
65.6603938731
 11
103.3251884269
 21
65.6603938731
  0
LINE
  5
23B
100
AcDbEntity
  8
00_COMPONENTS_1
100
AcDbLine
 62
7
  6
CONTINUOUS
 10
102.6251884269
 20
68.0603938731
 11
104.6251884269
 21
68.0603938731
  0
LINE
  5
23C
100
AcDbEntity
  8
00_COMPONENTS_1
100
AcDbLine
 62
7
  6
CONTINUOUS
 10
22.3751884269
 20
69.6103938731
 11
20.3251884269
 21
69.6103938731
  0
LINE
  5
23D
100
AcDbEntity
  8
00_COMPONENTS_1
100
AcDbLine
 62
7
  6
CONTINUOUS
 10
20.2251884269
 20
69.8353938731
 11
13.5251884269
 21
69.8353938731
  0
LINE
  5
23E
100
AcDbEntity
  8
00_COMPONENTS_1
100
AcDbLine
 62
7
  6
CONTINUOUS
 10
13.5251884269
 20
73.8353938731
 11
20.2251884269
 21
73.8353938731
  0
LINE
  5
23F
100
AcDbEntity
  8
00_COMPONENTS_1
100
AcDbLine
 62
7
  6
CONTINUOUS
 10
103.6251884269
 20
83.5603938731
 11
102.6251884269
 21
83.5603938731
  0
LINE
  5
240
100
AcDbEntity
  8
00_COMPONENTS_1
100
AcDbLine
 62
7
  6
CONTINUOUS
 10
103.6251884269
 20
85.5603938731
 11
102.6251884269
 21
85.5603938731
  0
LINE
  5
241
100
AcDbEntity
  8
00_COMPONENTS_1
100
AcDbLine
 62
7
  6
CONTINUOUS
 10
70.1251884269
 20
120.5103938731
 11
70.1251884269
 21
114.8603938731
  0
LINE
  5
242
100
AcDbEntity
  8
00_COMPONENTS_1
100
AcDbLine
 62
7
  6
CONTINUOUS
 10
70.1251884269
 20
54.2603938731
 11
70.1251884269
 21
48.5103938731
  0
LINE
  5
243
100
AcDbEntity
  8
00_COMPONENTS_1
100
AcDbLine
 62
7
  6
CONTINUOUS
 10
20.2251884269
 20
95.2603938731
 11
13.5251884269
 21
95.2603938731
  0
LINE
  5
244
100
AcDbEntity
  8
00_COMPONENTS_1
100
AcDbLine
 62
7
  6
CONTINUOUS
 10
104.6251884269
 20
68.0603938731
 11
108.1251884269
 21
65.6096674894
  0
LINE
  5
245
100
AcDbEntity
  8
00_COMPONENTS_1
100
AcDbLine
 62
7
  6
CONTINUOUS
 10
13.5251884269
 20
99.2603938731
 11
20.2251884269
 21
99.2603938731
  0
LINE
  5
246
100
AcDbEntity
  8
00_COMPONENTS_1
100
AcDbLine
 62
7
  6
CONTINUOUS
 10
22.3751884269
 20
99.4103938731
 11
20.3251884269
 21
99.4103938731
  0
LINE
  5
247
100
AcDbEntity
  8
00_COMPONENTS_1
100
AcDbLine
 62
7
  6
CONTINUOUS
 10
106.9251884269
 20
100.3603938731
 11
104.3251884269
 21
100.3603938731
  0
LINE
  5
248
100
AcDbEntity
  8
00_COMPONENTS_1
100
AcDbLine
 62
7
  6
CONTINUOUS
 10
101.9251884269
 20
101.2603938731
 11
102.4636499654
 21
101.2603938731
  0
LINE
  5
249
100
AcDbEntity
  8
03_AXES_1
100
AcDbLine
 62
7
420
15788975
  6
CONTINUOUS
 10
21.8884655642
 20
103.9603938731
 11
21.1467299865
 21
103.9603938731
  0
LINE
  5
24A
100
AcDbEntity
  8
03_AXES_1
100
AcDbLine
 62
7
420
15788975
  6
CONTINUOUS
 10
20.8359942396
 20
103.9603938731
 11
20.5901684347
 21
103.9603938731
  0
LINE
  5
24B
100
AcDbEntity
  8
00_COMPONENTS_1
100
AcDbLine
 62
7
  6
CONTINUOUS
 10
108.1251884269
 20
104.2603938731
 11
101.9251884269
 21
104.2603938731
  0
LINE
  5
24C
100
AcDbEntity
  8
00_COMPONENTS_1
100
AcDbLine
 62
7
  6
CONTINUOUS
 10
108.1251884269
 20
101.5603938731
 11
106.9251884269
 21
100.3603938731
  0
LINE
  5
24D
100
AcDbEntity
  8
00_COMPONENTS_1
100
AcDbLine
 62
7
  6
CONTINUOUS
 10
37.0751884269
 20
110.5103938731
 11
20.5751937296
 21
110.5103938731
  0
LINE
  5
24E
100
AcDbEntity
  8
00_COMPONENTS_1
100
AcDbLine
 62
7
  6
CONTINUOUS
 10
35.5633579519
 20
111.5103938731
 11
22.3751884269
 21
111.5103938731
  0
LINE
  5
24F
100
AcDbEntity
  8
00_COMPONENTS_1
100
AcDbLine
 62
7
  6
CONTINUOUS
 10
101.1251884269
 20
114.8603938731
 11
70.1251884269
 21
114.8603938731
  0
LINE
  5
250
100
AcDbEntity
  8
03_AXES_1
100
AcDbLine
 62
7
420
15788975
  6
CONTINUOUS
 10
36.2505341944
 20
115.0103938731
 11
35.5372792523
 21
115.0103938731
  0
LINE
  5
251
100
AcDbEntity
  8
03_AXES_1
100
AcDbLine
 62
7
420
15788975
  6
CONTINUOUS
 10
35.1156884279
 20
115.0103938731
 11
35.0750223821
 21
115.0103938731
  0
LINE
  5
252
100
AcDbEntity
  8
00_COMPONENTS_1
100
AcDbLine
 62
7
  6
CONTINUOUS
 10
70.1251884269
 20
117.5603938731
 11
101.1251884269
 21
117.5603938731
  0
LINE
  5
253
100
AcDbEntity
  8
00_COMPONENTS_1
100
AcDbLine
 62
7
  6
CONTINUOUS
 10
70.1251884269
 20
120.5103938731
 11
35.0752683928
 21
120.5103938731
  0
LINE
  5
254
100
AcDbEntity
  8
00_COMPONENTS_1
100
AcDbLine
 62
7
  6
CONTINUOUS
 10
101.1251884269
 20
46.0604581724
 11
101.1251884269
 21
54.2603938731
  0
LINE
  5
255
100
AcDbEntity
  8
00_COMPONENTS_1
100
AcDbLine
 62
7
  6
CONTINUOUS
 10
101.1251884269
 20
114.8603938731
 11
101.1251884269
 21
123.0603295738
  0
LINE
  5
256
100
AcDbEntity
  8
00_COMPONENTS_1
100
AcDbLine
 62
7
  6
CONTINUOUS
 10
101.9251884269
 20
104.2603938731
 11
101.9251884269
 21
101.2603938731
  0
LINE
  5
257
100
AcDbEntity
  8
00_COMPONENTS_1
100
AcDbLine
 62
7
  6
CONTINUOUS
 10
108.1251884269
 20
121.7206479109
 11
101.1251884269
 21
121.7206479109
  0
LINE
  5
258
100
AcDbEntity
  8
00_COMPONENTS_1
100
AcDbLine
 62
7
  6
CONTINUOUS
 10
101.1251884269
 20
123.0603938731
 11
108.1251884269
 21
123.0603938731
  0
LINE
  5
259
100
AcDbEntity
  8
00_COMPONENTS_1
100
AcDbLine
 62
7
  6
CONTINUOUS
 10
102.6251884269
 20
100.3603938731
 11
102.6251884269
 21
66.2603938731
  0
LINE
  5
25A
100
AcDbEntity
  8
00_COMPONENTS_1
100
AcDbLine
 62
7
  6
CONTINUOUS
 10
103.6251884269
 20
83.5603938731
 11
103.6251884269
 21
85.5603938731
  0
LINE
  5
25B
100
AcDbEntity
  8
00_COMPONENTS_1
100
AcDbLine
 62
7
  6
CONTINUOUS
 10
103.9251884269
 20
66.2603938731
 11
103.9251884269
 21
67.6603938731
  0
LINE
  5
25C
100
AcDbEntity
  8
00_COMPONENTS_1
100
AcDbLine
 62
7
  6
CONTINUOUS
 10
103.9251884269
 20
67.6603938731
 11
104.3251884269
 21
68.0603938731
  0
LINE
  5
25D
100
AcDbEntity
  8
00_COMPONENTS_1
100
AcDbLine
 62
7
  6
CONTINUOUS
 10
102.4636499654
 20
101.2603938731
 11
102.6251884269
 21
100.3603938731
  0
LINE
  5
25E
100
AcDbEntity
  8
00_COMPONENTS_1
100
AcDbLine
 62
7
  6
CONTINUOUS
 10
108.1251884269
 20
46.0604581724
 11
108.1251884269
 21
65.6096674894
  0
LINE
  5
25F
100
AcDbEntity
  8
00_COMPONENTS_1
100
AcDbLine
 62
7
  6
CONTINUOUS
 10
108.1251884269
 20
101.5603938731
 11
108.1251884269
 21
123.0603295738
  0
LINE
  5
260
100
AcDbEntity
  8
00_COMPONENTS_1
100
AcDbLine
 62
7
  6
CONTINUOUS
 10
104.3251884269
 20
100.3603938731
 11
103.7251884269
 21
104.2603938731
  0
ARC
  5
261
100
AcDbEntity
  8
00_COMPONENTS_1
100
AcDbCircle
 62
7
  6
CONTINUOUS
 10
-92.334652819
 20
114.9980891468
 40
127.4503418409
100
AcDbArc
 50
0.0055316359
 51
1.4444725359
  0
ARC
  5
262
100
AcDbEntity
  8
00_COMPONENTS_1
100
AcDbCircle
 62
7
  6
CONTINUOUS
 10
-92.2087998486
 20
115.0211208874
 40
127.3244887284
100
AcDbArc
 50
358.5548163796
 51
359.9951728638
  0
ARC
  5
263
100
AcDbEntity
  8
00_COMPONENTS_1
100
AcDbCircle
 62
7
  6
CONTINUOUS
 10
-91.4150777595
 20
54.0110626697
 40
126.5307661892
100
AcDbArc
 50
358.550298369
 51
359.9996971549
  0
ARC
  5
264
100
AcDbEntity
  8
00_COMPONENTS_1
100
AcDbCircle
 62
7
  6
CONTINUOUS
 10
103.2251884269
 20
66.2603938731
 40
0.6
100
AcDbArc
 50
180.0
 51
270.0
  0
ARC
  5
265
100
AcDbEntity
  8
00_COMPONENTS_1
100
AcDbCircle
 62
7
  6
CONTINUOUS
 10
103.3251884269
 20
66.2603938731
 40
0.6
100
AcDbArc
 50
270.0
 51
360.0
  0
SPLINE
  5
266
100
AcDbEntity
  8
00_COMPONENTS_1
100
AcDbSpline
 62
7
  6
CONTINUOUS
 70
0
 71
3
 72
20
 73
16
 74
0
 42
0.0000001
 43
0.0000001
 44
0.0000000001
 40
0.0
 40
0.0
 40
0.0
 40
0.0
 40
0.0117844061
 40
0.0198130355
 40
0.0296819686
 40
0.0554209734
 40
0.0894498178
 40
0.1316911946
 40
0.1819222083
 40
0.2397693588
 40
0.3047577886
 40
0.4539071531
 40
0.623840534
 40
0.808296036
 40
1.0
 40
1.0
 40
1.0
 40
1.0
 10
35.8526498608
 20
111.8099504806
 30
0.0
 10
35.8654837677
 20
111.8099446505
 30
0.0
 10
35.8863521269
 20
111.8216496291
 30
0.0
 10
35.907420736
 20
111.8458181565
 30
0.0
 10
35.9334994125
 20
111.8858709292
 30
0.0
 10
35.9640829436
 20
111.9555550796
 30
0.0
 10
35.9985791689
 20
112.0612399724
 30
0.0
 10
36.0325073761
 20
112.1948484903
 30
0.0
 10
36.0655107017
 20
112.355230573
 30
0.0
 10
36.097065614
 20
112.5410823225
 30
0.0
 10
36.1385246435
 20
112.8344033149
 30
0.0
 10
36.1822461928
 20
113.2505182124
 30
0.0
 10
36.2208456525
 20
113.7976217621
 30
0.0
 10
36.245036217
 20
114.3919361483
 30
0.0
 10
36.2505341944
 20
114.8016170319
 30
0.0
 10
36.2505341944
 20
115.0103938731
 30
0.0
  0
SPLINE
  5
267
100
AcDbEntity
  8
00_COMPONENTS_1
100
AcDbSpline
 62
7
  6
CONTINUOUS
 70
0
 71
3
 72
20
 73
16
 74
0
 42
0.0000001
 43
0.0000001
 44
0.0000000001
 40
0.0
 40
0.0
 40
0.0
 40
0.0
 40
0.0119928827
 40
0.0200904435
 40
0.0300105772
 40
0.0558128317
 40
0.0898756696
 40
0.132128948
 40
0.1823493233
 40
0.2401750124
 40
0.3051293669
 40
0.4541855076
 40
0.624016662
 40
0.8083807943
 40
1.0
 40
1.0
 40
1.0
 40
1.0
 10
21.4792065184
 20
100.7099625944
 30
0.0
 10
21.4924798106
 20
100.7099304835
 30
0.0
 10
21.5140923504
 20
100.7216634421
 30
0.0
 10
21.5360323583
 20
100.746277497
 30
0.0
 10
21.5630174258
 20
100.7869006693
 30
0.0
 10
21.5946605316
 20
100.8576696341
 30
0.0
 10
21.6302572539
 20
100.9650232049
 30
0.0
 10
21.6652081671
 20
101.1007285238
 30
0.0
 10
21.6991448563
 20
101.2636147833
 30
0.0
 10
21.7315335719
 20
101.4523608716
 30
0.0
 10
21.7740333741
 20
101.7502339591
 30
0.0
 10
21.8187653821
 20
102.1728317475
 30
0.0
 10
21.8581856986
 20
102.7285009288
 30
0.0
 10
21.8828565294
 20
103.3321682907
 30
0.0
 10
21.8884655642
 20
103.7483159924
 30
0.0
 10
21.8884655642
 20
103.9603938731
 30
0.0
  0
SPLINE
  5
268
100
AcDbEntity
  8
00_COMPONENTS_1
100
AcDbSpline
 62
7
  6
CONTINUOUS
 70
0
 71
3
 72
21
 73
17
 74
0
 42
0.0000001
 43
0.0000001
 44
0.0000000001
 40
0.0
 40
0.0
 40
0.0
 40
0.0
 40
0.0022345569
 40
0.0063460647
 40
0.021310491
 40
0.0454793334
 40
0.0787073032
 40
0.1206816017
 40
0.1710531271
 40
0.229360384
 40
0.295062072
 40
0.3675807573
 40
0.4461855778
 40
0.6185302434
 40
0.8056077924
 40
1.0
 40
1.0
 40
1.0
 40
1.0
 10
20.6753469627
 20
100.7099241455
 30
0.0
 10
20.6777767721
 20
100.7099204146
 30
0.0
 10
20.683577934
 20
100.7154258712
 30
0.0
 10
20.6923600399
 20
100.7362514927
 30
0.0
 10
20.7036689099
 20
100.7827048309
 30
0.0
 10
20.7161337043
 20
100.8600298491
 30
0.0
 10
20.729449081
 20
100.9674438123
 30
0.0
 10
20.7428756559
 20
101.1032740754
 30
0.0
 10
20.7562732309
 20
101.2665702468
 30
0.0
 10
20.7693369813
 20
101.4557343134
 30
0.0
 10
20.7818343215
 20
101.6690744022
 30
0.0
 10
20.7935017812
 20
101.9045589909
 30
0.0
 10
20.808141046
 20
102.2559902127
 30
0.0
 10
20.822707594
 20
102.7320854742
 30
0.0
 10
20.8335234842
 20
103.3342085653
 30
0.0
 10
20.8359942396
 20
103.7490156998
 30
0.0
 10
20.8359942396
 20
103.9603938731
 30
0.0
  0
SPLINE
  5
269
100
AcDbEntity
  8
00_COMPONENTS_1
100
AcDbSpline
 62
7
  6
CONTINUOUS
 70
0
 71
3
 72
20
 73
16
 74
0
 42
0.0000001
 43
0.0000001
 44
0.0000000001
 40
0.0
 40
0.0
 40
0.0
 40
0.0
 40
0.0120057157
 40
0.0201122989
 40
0.0300394354
 40
0.0558419478
 40
0.0898764917
 40
0.1320985662
 40
0.1823144347
 40
0.240149096
 40
0.3051177668
 40
0.454164084
 40
0.6239864691
 40
0.8083755737
 40
1.0
 40
1.0
 40
1.0
 40
1.0
 10
21.4792063511
 20
62.1099013214
 30
0.0
 10
21.4924938171
 20
62.1099081227
 30
0.0
 10
21.5140884713
 20
62.1217137614
 30
0.0
 10
21.5360264759
 20
62.1463679586
 30
0.0
 10
21.5630012311
 20
62.1870195474
 30
0.0
 10
21.594641607
 20
62.2577600712
 30
0.0
 10
21.6302568705
 20
62.3650387399
 30
0.0
 10
21.6652145404
 20
62.5006688376
 30
0.0
 10
21.6991381078
 20
62.6635270873
 30
0.0
 10
21.7315205543
 20
62.8522943198
 30
0.0
 10
21.7740040017
 20
63.1501831582
 30
0.0
 10
21.8187676023
 20
63.5727701689
 30
0.0
 10
21.858192839
 20
64.1284439592
 30
0.0
 10
21.8828536099
 20
64.7321323032
 30
0.0
 10
21.8884655642
 20
65.1483112731
 30
0.0
 10
21.8884655642
 20
65.3603938731
 30
0.0
  0
SPLINE
  5
26A
100
AcDbEntity
  8
00_COMPONENTS_1
100
AcDbSpline
 62
7
  6
CONTINUOUS
 70
0
 71
3
 72
21
 73
17
 74
0
 42
0.0000001
 43
0.0000001
 44
0.0000000001
 40
0.0
 40
0.0
 40
0.0
 40
0.0
 40
0.0022422485
 40
0.0063835717
 40
0.0214287069
 40
0.0456333174
 40
0.0788227329
 40
0.1207527685
 40
0.1711443912
 40
0.229514259
 40
0.2952474047
 40
0.3677133619
 40
0.4462247814
 40
0.6184996847
 40
0.805622387
 40
1.0
 40
1.0
 40
1.0
 40
1.0
 10
20.6753472338
 20
62.1094046289
 30
0.0
 10
20.677785763
 20
62.1094027883
 30
0.0
 10
20.6835870141
 20
62.1149975521
 30
0.0
 10
20.6923395293
 20
62.1359437186
 30
0.0
 10
20.7036484886
 20
62.1825911612
 30
0.0
 10
20.7161195975
 20
62.2599996107
 30
0.0
 10
20.7294593603
 20
62.3673795018
 30
0.0
 10
20.7428938558
 20
62.503158835
 30
0.0
 10
20.7562790767
 20
62.6665225937
 30
0.0
 10
20.7693258415
 20
62.8558396358
 30
0.0
 10
20.7818181496
 20
63.0692561168
 30
0.0
 10
20.793504473
 20
63.304649104
 30
0.0
 10
20.8081764851
 20
63.6558951612
 30
0.0
 10
20.8227260579
 20
64.1319320725
 30
0.0
 10
20.8335084307
 20
64.7341003971
 30
0.0
 10
20.8359942396
 20
65.1490008725
 30
0.0
 10
20.8359942396
 20
65.3603938731
 30
0.0
  0
SPLINE
  5
26B
100
AcDbEntity
  8
00_COMPONENTS_1
100
AcDbSpline
 62
7
  6
CONTINUOUS
 70
0
 71
3
 72
20
 73
16
 74
0
 42
0.0000001
 43
0.0000001
 44
0.0000000001
 40
0.0
 40
0.0
 40
0.0
 40
0.0
 40
0.0117850391
 40
0.0198151402
 40
0.0296859838
 40
0.055428516
 40
0.0894596409
 40
0.1317005949
 40
0.1819273458
 40
0.2397701315
 40
0.3047573435
 40
0.4539176053
 40
0.6238406753
 40
0.8082869592
 40
1.0
 40
1.0
 40
1.0
 40
1.0
 10
35.8526498577
 20
50.8099360078
 30
0.0
 10
35.8654844894
 20
50.8099285356
 30
0.0
 10
35.886354659
 20
50.8216395893
 30
0.0
 10
35.9074217229
 20
50.8458144483
 30
0.0
 10
35.9335001183
 20
50.8858767585
 30
0.0
 10
35.9640836766
 20
50.9555698682
 30
0.0
 10
35.9985801922
 20
51.0612612414
 30
0.0
 10
36.0325091058
 20
51.1948671564
 30
0.0
 10
36.0655152659
 20
51.3552390735
 30
0.0
 10
36.0970717212
 20
51.5410802502
 30
0.0
 10
36.1385309247
 20
51.8344080153
 30
0.0
 10
36.1822309423
 20
52.2505256443
 30
0.0
 10
36.2208443116
 20
52.7976199523
 30
0.0
 10
36.2450427237
 20
53.3919245961
 30
0.0
 10
36.2505341944
 20
53.8016065575
 30
0.0
 10
36.2505341944
 20
54.0103938731
 30
0.0
  0
SPLINE
  5
26C
100
AcDbEntity
  8
00_COMPONENTS_1
100
AcDbSpline
 62
7
  6
CONTINUOUS
 70
0
 71
3
 72
20
 73
16
 74
0
 42
0.0000001
 43
0.0000001
 44
0.0000000001
 40
0.0
 40
0.0
 40
0.0
 40
0.0
 40
0.1917139785
 40
0.3761592752
 40
0.5460893347
 40
0.6952632613
 40
0.7602457683
 40
0.8180784558
 40
0.8682988545
 40
0.9105372832
 40
0.9445686493
 40
0.9703128798
 40
0.9801841281
 40
0.9882145142
 40
1.0
 40
1.0
 40
1.0
 40
1.0
 10
36.2505341944
 20
115.0103938731
 30
0.0
 10
36.2505341944
 20
115.219181982
 30
0.0
 10
36.2450436012
 20
115.6288634703
 30
0.0
 10
36.2208389501
 20
116.2231748693
 30
0.0
 10
36.1822226138
 20
116.7702895456
 30
0.0
 10
36.1385373916
 20
117.1864258561
 30
0.0
 10
36.0970733776
 20
117.479751509
 30
0.0
 10
36.0655094728
 20
117.6655678753
 30
0.0
 10
36.0324999075
 20
117.8259177251
 30
0.0
 10
35.9985720362
 20
117.9595139768
 30
0.0
 10
35.9640777346
 20
118.0652051176
 30
0.0
 10
35.9334974978
 20
118.1349023491
 30
0.0
 10
35.9074199758
 20
118.1749682783
 30
0.0
 10
35.886353357
 20
118.1991451805
 30
0.0
 10
35.8654849618
 20
118.2108592749
 30
0.0
 10
35.8526498563
 20
118.2108547996
 30
0.0
  0
SPLINE
  5
26D
100
AcDbEntity
  8
00_COMPONENTS_1
100
AcDbSpline
 62
7
  6
CONTINUOUS
 70
0
 71
3
 72
21
 73
17
 74
0
 42
0.0000001
 43
0.0000001
 44
0.0000000001
 40
0.0
 40
0.0
 40
0.0
 40
0.0
 40
0.1944066682
 40
0.3814720978
 40
0.5538046349
 40
0.632424551
 40
0.7049566929
 40
0.7706557593
 40
0.8289484104
 40
0.8793053833
 40
0.9212708153
 40
0.9544976227
 40
0.9786739626
 40
0.993648632
 40
0.9977639963
 40
1.0
 40
1.0
 40
1.0
 40
1.0
 10
20.8359942396
 20
103.9603938731
 30
0.0
 10
20.8359942396
 20
104.1717892457
 30
0.0
 10
20.8335299761
 20
104.5866018559
 30
0.0
 10
20.822707349
 20
105.1887184873
 30
0.0
 10
20.8081294792
 20
105.6648066879
 30
0.0
 10
20.7934985677
 20
106.0162585636
 30
0.0
 10
20.7818369138
 20
106.2517733262
 30
0.0
 10
20.7693406882
 20
106.4651108971
 30
0.0
 10
20.7562744858
 20
106.654241474
 30
0.0
 10
20.7428745768
 20
106.8174971777
 30
0.0
 10
20.7294472792
 20
106.9533012571
 30
0.0
 10
20.7161311164
 20
107.06071365
 30
0.0
 10
20.7036661447
 20
107.1380559036
 30
0.0
 10
20.6923585916
 20
107.1845367474
 30
0.0
 10
20.6835779447
 20
107.2053778139
 30
0.0
 10
20.6777783595
 20
107.2108952408
 30
0.0
 10
20.6753469578
 20
107.2108933911
 30
0.0
  0
SPLINE
  5
26E
100
AcDbEntity
  8
00_COMPONENTS_1
100
AcDbSpline
 62
7
  6
CONTINUOUS
 70
0
 71
3
 72
20
 73
16
 74
0
 42
0.0000001
 43
0.0000001
 44
0.0000000001
 40
0.0
 40
0.0
 40
0.0
 40
0.0
 40
0.1916201401
 40
0.3759669971
 40
0.5457994232
 40
0.6948974204
 40
0.7598509006
 40
0.8176603615
 40
0.8678655482
 40
0.9101037119
 40
0.944160041
 40
0.9699692471
 40
0.9798946651
 40
0.9879981597
 40
1.0
 40
1.0
 40
1.0
 40
1.0
 10
21.8884655642
 20
103.9603938731
 30
0.0
 10
21.8884655642
 20
104.1724725684
 30
0.0
 10
21.8828774869
 20
104.5886020126
 30
0.0
 10
21.8581862609
 20
105.1922519018
 30
0.0
 10
21.8187351849
 20
105.7479461392
 30
0.0
 10
21.7740459693
 20
106.1705949687
 30
0.0
 10
21.7315434378
 20
106.4684953922
 30
0.0
 10
21.6991421596
 20
106.6572029171
 30
0.0
 10
21.6652020486
 20
106.820035668
 30
0.0
 10
21.6302498617
 20
106.9556983095
 30
0.0
 10
21.5946505943
 20
107.0630339646
 30
0.0
 10
21.5630130027
 20
107.133810457
 30
0.0
 10
21.5360318514
 20
107.1744606891
 30
0.0
 10
21.5140908211
 20
107.1991013128
 30
0.0
 10
21.4924895793
 20
107.2108811063
 30
0.0
 10
21.4792063492
 20
107.2108754775
 30
0.0
  0
SPLINE
  5
26F
100
AcDbEntity
  8
00_COMPONENTS_1
100
AcDbSpline
 62
7
  6
CONTINUOUS
 70
0
 71
3
 72
20
 73
16
 74
0
 42
0.0000001
 43
0.0000001
 44
0.0000000001
 40
0.0
 40
0.0
 40
0.0
 40
0.0
 40
0.1916010157
 40
0.3759557769
 40
0.5458000572
 40
0.6948791469
 40
0.7598308767
 40
0.8176454951
 40
0.8678603246
 40
0.9101067649
 40
0.9441679015
 40
0.9699750434
 40
0.9798962492
 40
0.987996512
 40
1.0
 40
1.0
 40
1.0
 40
1.0
 10
21.8884655642
 20
65.3603938731
 30
0.0
 10
21.8884655642
 20
65.5724487927
 30
0.0
 10
21.8828606134
 20
65.9885605086
 30
0.0
 10
21.8581839078
 20
66.5922036623
 30
0.0
 10
21.8187654846
 20
67.1478948146
 30
0.0
 10
21.7740518925
 20
67.5705261767
 30
0.0
 10
21.7315494651
 20
67.8684053986
 30
0.0
 10
21.6991492283
 20
68.0571253526
 30
0.0
 10
21.6652101258
 20
68.219982216
 30
0.0
 10
21.630254926
 20
68.3556686238
 30
0.0
 10
21.5946533289
 20
68.4630141524
 30
0.0
 10
21.5630154575
 20
68.5337895961
 30
0.0
 10
21.5360302737
 20
68.5744227245
 30
0.0
 10
21.5140801132
 20
68.599050749
 30
0.0
 10
21.4924913838
 20
68.6108200309
 30
0.0
 10
21.4792065046
 20
68.6108379751
 30
0.0
  0
SPLINE
  5
270
100
AcDbEntity
  8
00_COMPONENTS_1
100
AcDbSpline
 62
7
  6
CONTINUOUS
 70
0
 71
3
 72
21
 73
17
 74
0
 42
0.0000001
 43
0.0000001
 44
0.0000000001
 40
0.0
 40
0.0
 40
0.0
 40
0.0
 40
0.1943954149
 40
0.3814712889
 40
0.5538185246
 40
0.6324293133
 40
0.7049507666
 40
0.7706481242
 40
0.8289481009
 40
0.8793155737
 40
0.9212904564
 40
0.9545208971
 40
0.978691432
 40
0.9936556087
 40
0.9977662877
 40
1.0
 40
1.0
 40
1.0
 40
1.0
 10
20.8359942396
 20
65.3603938731
 30
0.0
 10
20.8359942396
 20
65.5717756507
 30
0.0
 10
20.8335232636
 20
65.9865846836
 30
0.0
 10
20.8227054585
 20
66.5887125406
 30
0.0
 10
20.8081384101
 20
67.0648154943
 30
0.0
 10
20.7935021214
 20
67.4162593354
 30
0.0
 10
20.7818360857
 20
67.6517489293
 30
0.0
 10
20.7693377708
 20
67.8650794556
 30
0.0
 10
20.7562718727
 20
68.0542264165
 30
0.0
 10
20.7428728486
 20
68.2175108051
 30
0.0
 10
20.7294469507
 20
68.3533401455
 30
0.0
 10
20.7161323066
 20
68.4607593679
 30
0.0
 10
20.7036695196
 20
68.5380892237
 30
0.0
 10
20.692359205
 20
68.584542767
 30
0.0
 10
20.6835791964
 20
68.6053670778
 30
0.0
 10
20.6777758545
 20
68.6108691879
 30
0.0
 10
20.6753469667
 20
68.6108632349
 30
0.0
  0
SPLINE
  5
271
100
AcDbEntity
  8
00_COMPONENTS_1
100
AcDbSpline
 62
7
  6
CONTINUOUS
 70
0
 71
3
 72
13
 73
9
 74
0
 42
0.0000001
 43
0.0000001
 44
0.0000000001
 40
0.0
 40
0.0
 40
0.0
 40
0.0
 40
0.3826020647
 40
0.5554600215
 40
0.7070084558
 40
0.8312618061
 40
0.9236169047
 40
1.0
 40
1.0
 40
1.0
 40
1.0
 10
35.1156884279
 20
54.0103938731
 30
0.0
 10
35.1156884279
 20
54.4186049421
 30
0.0
 10
35.1128873225
 20
55.0081228662
 30
0.0
 10
35.1037442513
 20
55.7699778358
 30
0.0
 10
35.0965703545
 20
56.2306325354
 30
0.0
 10
35.0876166952
 20
56.6732457926
 30
0.0
 10
35.0839710025
 20
56.8582360179
 30
0.0
 10
35.0730180999
 20
57.2923263391
 30
0.0
 10
35.0751884419
 20
57.2108595388
 30
0.0
  0
SPLINE
  5
272
100
AcDbEntity
  8
00_COMPONENTS_1
100
AcDbSpline
 62
7
  6
CONTINUOUS
 70
0
 71
3
 72
20
 73
16
 74
0
 42
0.0000001
 43
0.0000001
 44
0.0000000001
 40
0.0
 40
0.0
 40
0.0
 40
0.0
 40
0.1917000627
 40
0.3761515338
 40
0.5460865925
 40
0.6952445921
 40
0.7602278619
 40
0.8180657681
 40
0.8682923707
 40
0.9105344724
 40
0.9445682485
 40
0.9703128452
 40
0.9801823131
 40
0.9882116347
 40
1.0
 40
1.0
 40
1.0
 40
1.0
 10
36.2505341944
 20
54.0103938731
 30
0.0
 10
36.2505341944
 20
54.2191646799
 30
0.0
 10
36.2450354535
 20
54.6288334228
 30
0.0
 10
36.2208416621
 20
55.2231358065
 30
0.0
 10
36.1822436007
 20
55.7702413679
 30
0.0
 10
36.138538207
 20
56.1863600679
 30
0.0
 10
36.0970801832
 20
56.4796724093
 30
0.0
 10
36.0655209856
 20
56.6655010736
 30
0.0
 10
36.0325134163
 20
56.8258663992
 30
0.0
 10
35.9985806762
 20
56.9594740749
 30
0.0
 10
35.9640800514
 20
57.065168866
 30
0.0
 10
35.9334985082
 20
57.1348668095
 30
0.0
 10
35.9074185919
 20
57.1749264924
 30
0.0
 10
35.886345448
 20
57.1991005192
 30
0.0
 10
35.865488121
 20
57.2108150783
 30
0.0
 10
35.8526500231
 20
57.2108329072
 30
0.0
  0
SPLINE
  5
273
100
AcDbEntity
  8
00_COMPONENTS_1
100
AcDbSpline
 62
7
  6
CONTINUOUS
 70
0
 71
3
 72
20
 73
16
 74
0
 42
0.0000001
 43
0.0000001
 44
0.0000000001
 40
0.0
 40
0.0
 40
0.0
 40
0.0
 40
0.1922199471
 40
0.3771804058
 40
0.5475499895
 40
0.6969695031
 40
0.7619766452
 40
0.8197509607
 40
0.8698216445
 40
0.9118146862
 40
0.9455180012
 40
0.9708777259
 40
0.980552921
 40
0.9884038115
 40
1.0
 40
1.0
 40
1.0
 40
1.0
 10
35.5372792524
 20
115.0103938731
 30
0.0
 10
35.5372792524
 20
114.801864844
 30
0.0
 10
35.5406868958
 20
114.3926741843
 30
0.0
 10
35.5559621378
 20
113.7988273756
 30
0.0
 10
35.5812657003
 20
113.2517987597
 30
0.0
 10
35.6113892199
 20
112.8353551671
 30
0.0
 10
35.641656559
 20
112.5415921211
 30
0.0
 10
35.6655164587
 20
112.355570883
 30
0.0
 10
35.6914338654
 20
112.1950687132
 30
0.0
 10
35.7191478716
 20
112.0613903968
 30
0.0
 10
35.7485127021
 20
111.9556970797
 30
0.0
 10
35.7756238582
 20
111.885917308
 30
0.0
 10
35.7997374726
 20
111.8458171098
 30
0.0
 10
35.819611653
 20
111.8215505644
 30
0.0
 10
35.8400697842
 20
111.8099561955
 30
0.0
 10
35.8526498608
 20
111.8099504806
 30
0.0
  0
SPLINE
  5
274
100
AcDbEntity
  8
00_COMPONENTS_1
100
AcDbSpline
 62
7
  6
CONTINUOUS
 70
0
 71
3
 72
20
 73
16
 74
0
 42
0.0000001
 43
0.0000001
 44
0.0000000001
 40
0.0
 40
0.0
 40
0.0
 40
0.0
 40
0.1920850778
 40
0.3769233201
 40
0.5471769107
 40
0.6965054936
 40
0.7614806006
 40
0.8192303684
 40
0.8692944832
 40
0.911298739
 40
0.9450431739
 40
0.9704911717
 40
0.9802318506
 40
0.9881679411
 40
1.0
 40
1.0
 40
1.0
 40
1.0
 10
21.1467299865
 20
103.9603938731
 30
0.0
 10
21.1467299865
 20
103.7485728492
 30
0.0
 10
21.1503900654
 20
103.3329131039
 30
0.0
 10
21.1667639272
 20
102.7296980913
 30
0.0
 10
21.1938066952
 20
102.1740657348
 30
0.0
 10
21.2258791785
 20
101.7511163095
 30
0.0
 10
21.257966703
 20
101.4528073308
 30
0.0
 10
21.2832082786
 20
101.2639147279
 30
0.0
 10
21.3105493042
 20
101.1009489341
 30
0.0
 10
21.3397225567
 20
100.9652200582
 30
0.0
 10
21.3705531008
 20
100.8578978643
 30
0.0
 10
21.3989572581
 20
100.787051038
 30
0.0
 10
21.4241139423
 20
100.7463800893
 30
0.0
 10
21.4449567485
 20
100.7216599513
 30
0.0
 10
21.4661588026
 20
100.7099941597
 30
0.0
 10
21.4792065184
 20
100.7099625944
 30
0.0
  0
SPLINE
  5
275
100
AcDbEntity
  8
00_COMPONENTS_1
100
AcDbSpline
 62
7
  6
CONTINUOUS
 70
0
 71
3
 72
21
 73
17
 74
0
 42
0.0000001
 43
0.0000001
 44
0.0000000001
 40
0.0
 40
0.0
 40
0.0
 40
0.0
 40
0.0021924071
 40
0.0062341207
 40
0.0210526847
 40
0.0450910144
 40
0.0782076425
 40
0.1200971808
 40
0.1704153411
 40
0.2286965202
 40
0.2944082917
 40
0.3669671473
 40
0.4456299544
 40
0.6181365239
 40
0.8054158034
 40
1.0
 40
1.0
 40
1.0
 40
1.0
 10
20.6753469667
 20
68.6108632349
 30
0.0
 10
20.6729661269
 20
68.6108573996
 30
0.0
 10
20.6673272882
 20
68.6053310634
 30
0.0
 10
20.6595741658
 20
68.5843946016
 30
0.0
 10
20.6503171253
 20
68.5379718767
 30
0.0
 10
20.6413657599
 20
68.4606680701
 30
0.0
 10
20.6327277963
 20
68.3532866213
 30
0.0
 10
20.6249975236
 20
68.2174624302
 30
0.0
 10
20.618102922
 20
68.0541595277
 30
0.0
 10
20.612099075
 20
67.8649659344
 30
0.0
 10
20.606941369
 20
67.6515788792
 30
0.0
 10
20.6026063355
 20
67.4160393586
 30
0.0
 10
20.5976803967
 20
67.0645197415
 30
0.0
 10
20.5934780838
 20
66.5884017902
 30
0.0
 10
20.5907462621
 20
65.9863882028
 30
0.0
 10
20.5901684347
 20
65.5717028011
 30
0.0
 10
20.5901684347
 20
65.3603938731
 30
0.0
  0
SPLINE
  5
276
100
AcDbEntity
  8
00_COMPONENTS_1
100
AcDbSpline
 62
7
  6
CONTINUOUS
 70
0
 71
3
 72
20
 73
16
 74
0
 42
0.0000001
 43
0.0000001
 44
0.0000000001
 40
0.0
 40
0.0
 40
0.0
 40
0.0
 40
0.0118303628
 40
0.0197696847
 40
0.0295145989
 40
0.0549645519
 40
0.0887075269
 40
0.1307088775
 40
0.1807718839
 40
0.2385288964
 40
0.3035081976
 40
0.4528258864
 40
0.6230531334
 40
0.8078928709
 40
1.0
 40
1.0
 40
1.0
 40
1.0
 10
21.4792063492
 20
107.2108754775
 30
0.0
 10
21.4661602371
 20
107.2108699493
 30
0.0
 10
21.4449435422
 20
107.1991945772
 30
0.0
 10
21.4241110277
 20
107.1744613524
 30
0.0
 10
21.3989575475
 20
107.1337743903
 30
0.0
 10
21.3705437728
 20
107.0629262621
 30
0.0
 10
21.3397151815
 20
106.9556029815
 30
0.0
 10
21.3105434586
 20
106.8198779449
 30
0.0
 10
21.2832042021
 20
106.6569050309
 30
0.0
 10
21.2579733528
 20
106.4679961503
 30
0.0
 10
21.2258926556
 20
106.1696806088
 30
0.0
 10
21.1938179752
 20
105.7467606032
 30
0.0
 10
21.1667586452
 20
105.1911586765
 30
0.0
 10
21.1503825618
 20
104.5879360197
 30
0.0
 10
21.1467299865
 20
104.1722429449
 30
0.0
 10
21.1467299865
 20
103.9603938731
 30
0.0
  0
SPLINE
  5
277
100
AcDbEntity
  8
00_COMPONENTS_1
100
AcDbSpline
 62
7
  6
CONTINUOUS
 70
0
 71
3
 72
20
 73
16
 74
0
 42
0.0000001
 43
0.0000001
 44
0.0000000001
 40
0.0
 40
0.0
 40
0.0
 40
0.0
 40
0.0118232312
 40
0.0197571159
 40
0.0294972317
 40
0.0549425037
 40
0.0886945886
 40
0.1307112564
 40
0.1807860533
 40
0.2385528562
 40
0.3035317695
 40
0.4528418002
 40
0.6230865407
 40
0.8079135908
 40
1.0
 40
1.0
 40
1.0
 40
1.0
 10
21.4792065046
 20
68.6108379751
 30
0.0
 10
21.4661682384
 20
68.6108555862
 30
0.0
 10
21.444941234
 20
68.5992195092
 30
0.0
 10
21.4241089673
 20
68.5745090025
 30
0.0
 10
21.398952618
 20
68.5338432803
 30
0.0
 10
21.37053476
 20
68.4629954368
 30
0.0
 10
21.3397141556
 20
68.3556470776
 30
0.0
 10
21.3105462278
 20
68.2198801703
 30
0.0
 10
21.2832039711
 20
68.0568661901
 30
0.0
 10
21.2579753495
 20
67.8679330182
 30
0.0
 10
21.2258865639
 20
67.5696158442
 30
0.0
 10
21.1938007507
 20
67.1466850653
 30
0.0
 10
21.1667573817
 20
66.5910841555
 30
0.0
 10
21.1503866851
 20
65.9878777128
 30
0.0
 10
21.1467299865
 20
65.5722205709
 30
0.0
 10
21.1467299865
 20
65.3603938731
 30
0.0
  0
SPLINE
  5
278
100
AcDbEntity
  8
00_COMPONENTS_1
100
AcDbSpline
 62
7
  6
CONTINUOUS
 70
0
 71
3
 72
20
 73
16
 74
0
 42
0.0000001
 43
0.0000001
 44
0.0000000001
 40
0.0
 40
0.0
 40
0.0
 40
0.0
 40
0.1920987678
 40
0.3769339999
 40
0.5471620633
 40
0.6964714931
 40
0.7614574686
 40
0.8192258353
 40
0.8692928823
 40
0.9112910083
 40
0.9450302294
 40
0.9704819104
 40
0.9802294351
 40
0.988170679
 40
1.0
 40
1.0
 40
1.0
 40
1.0
 10
21.1467299865
 20
65.3603938731
 30
0.0
 10
21.1467299865
 20
65.148553271
 30
0.0
 10
21.150383952
 20
64.732872925
 30
0.0
 10
21.1667548536
 20
64.1296613736
 30
0.0
 10
21.1938079349
 20
63.5740701819
 30
0.0
 10
21.225895512
 20
63.1511505205
 30
0.0
 10
21.2579753066
 20
62.8528230817
 30
0.0
 10
21.283200573
 20
62.6638882533
 30
0.0
 10
21.3105381828
 20
62.5009007234
 30
0.0
 10
21.3397116205
 20
62.3651789137
 30
0.0
 10
21.3705447214
 20
62.2578620221
 30
0.0
 10
21.3989607872
 20
62.1870150741
 30
0.0
 10
21.424111989
 20
62.1463179013
 30
0.0
 10
21.4449384673
 20
62.1215769526
 30
0.0
 10
21.4661613421
 20
62.1098946441
 30
0.0
 10
21.4792063511
 20
62.1099013214
 30
0.0
  0
SPLINE
  5
279
100
AcDbEntity
  8
00_COMPONENTS_1
100
AcDbSpline
 62
7
  6
CONTINUOUS
 70
0
 71
3
 72
21
 73
17
 74
0
 42
0.0000001
 43
0.0000001
 44
0.0000000001
 40
0.0
 40
0.0
 40
0.0
 40
0.0
 40
0.1945681448
 40
0.3817979833
 40
0.5542291054
 40
0.6328666402
 40
0.7054244433
 40
0.7711716331
 40
0.829487617
 40
0.8797813722
 40
0.9216089197
 40
0.9546950895
 40
0.978792628
 40
0.9937202321
 40
0.99779968
 40
1.0
 40
1.0
 40
1.0
 40
1.0
 10
20.5901684347
 20
65.3603938731
 30
0.0
 10
20.5901684347
 20
65.1490716935
 30
0.0
 10
20.5907439548
 20
64.7343972032
 30
0.0
 10
20.5934763207
 20
64.1324492612
 30
0.0
 10
20.5976823008
 20
63.6564252998
 30
0.0
 10
20.6026092154
 20
63.3049651785
 30
0.0
 10
20.6069443533
 20
63.0693815978
 30
0.0
 10
20.6120967592
 20
62.8558881987
 30
0.0
 10
20.6180906683
 20
62.6666172524
 30
0.0
 10
20.6249885988
 20
62.5033459561
 30
0.0
 10
20.6327274338
 20
62.3676317307
 30
0.0
 10
20.6413866296
 20
62.2602664439
 30
0.0
 10
20.6503384376
 20
62.1828172338
 30
0.0
 10
20.6596046999
 20
62.1361303687
 30
0.0
 10
20.6673118667
 20
62.1150400035
 30
0.0
 10
20.6729574475
 20
62.1094064327
 30
0.0
 10
20.6753472338
 20
62.1094046289
 30
0.0
  0
SPLINE
  5
27A
100
AcDbEntity
  8
00_COMPONENTS_1
100
AcDbSpline
 62
7
  6
CONTINUOUS
 70
0
 71
3
 72
21
 73
17
 74
0
 42
0.0000001
 43
0.0000001
 44
0.0000000001
 40
0.0
 40
0.0
 40
0.0
 40
0.0
 40
0.0021919986
 40
0.0062361003
 40
0.0210636325
 40
0.0451060201
 40
0.0782204571
 40
0.1201055726
 40
0.1704221777
 40
0.2287087265
 40
0.2944265327
 40
0.3669901947
 40
0.4456540141
 40
0.6181341832
 40
0.8054015569
 40
1.0
 40
1.0
 40
1.0
 40
1.0
 10
20.6753469578
 20
107.2108933911
 30
0.0
 10
20.6729665333
 20
107.2108915802
 30
0.0
 10
20.6673231781
 20
107.2053598649
 30
0.0
 10
20.659577944
 20
107.1844118892
 30
0.0
 10
20.6503171011
 20
107.1379698686
 30
0.0
 10
20.6413658355
 20
107.0606547242
 30
0.0
 10
20.6327261566
 20
106.9532747485
 30
0.0
 10
20.6249958755
 20
106.8174583501
 30
0.0
 10
20.6181005675
 20
106.6541545719
 30
0.0
 10
20.6120982733
 20
106.4649485022
 30
0.0
 10
20.6069412691
 20
106.2515418549
 30
0.0
 10
20.6026069137
 20
106.0159872823
 30
0.0
 10
20.5976821479
 20
105.6644867708
 30
0.0
 10
20.5934777105
 20
105.1884049681
 30
0.0
 10
20.5907442678
 20
104.5864119738
 30
0.0
 10
20.5901684347
 20
104.171720215
 30
0.0
 10
20.5901684347
 20
103.9603938731
 30
0.0
  0
SPLINE
  5
27B
100
AcDbEntity
  8
00_COMPONENTS_1
100
AcDbSpline
 62
7
  6
CONTINUOUS
 70
0
 71
3
 72
20
 73
16
 74
0
 42
0.0000001
 43
0.0000001
 44
0.0000000001
 40
0.0
 40
0.0
 40
0.0
 40
0.0
 40
0.1922234085
 40
0.3771748724
 40
0.5475430115
 40
0.6969789907
 40
0.7619838451
 40
0.8197496122
 40
0.8698125429
 40
0.9118034995
 40
0.9455088758
 40
0.9708725465
 40
0.9805498356
 40
0.9884024774
 40
1.0
 40
1.0
 40
1.0
 40
1.0
 10
35.5372792524
 20
54.0103938731
 30
0.0
 10
35.5372792524
 20
53.8018607088
 30
0.0
 10
35.540680433
 20
53.3926752583
 30
0.0
 10
35.5559625312
 20
52.7988349627
 30
0.0
 10
35.5812768733
 20
52.2517995011
 30
0.0
 10
35.6113863696
 20
51.835340317
 30
0.0
 10
35.641652135
 20
51.5415703562
 30
0.0
 10
35.6655130935
 20
51.3555692039
 30
0.0
 10
35.6914329775
 20
51.1950873261
 30
0.0
 10
35.7191474601
 20
51.061417597
 30
0.0
 10
35.7485123106
 20
50.9557195925
 30
0.0
 10
35.7756234878
 20
50.8859306859
 30
0.0
 10
35.799736824
 20
50.8458202112
 30
0.0
 10
35.8196099304
 20
50.8215462366
 30
0.0
 10
35.8400683117
 20
50.8099433327
 30
0.0
 10
35.8526498577
 20
50.8099360078
 30
0.0
  0
SPLINE
  5
27C
100
AcDbEntity
  8
00_COMPONENTS_1
100
AcDbSpline
 62
7
  6
CONTINUOUS
 70
0
 71
3
 72
20
 73
16
 74
0
 42
0.0000001
 43
0.0000001
 44
0.0000000001
 40
0.0
 40
0.0
 40
0.0
 40
0.0
 40
0.0115969793
 40
0.0194496616
 40
0.0291268372
 40
0.0544880664
 40
0.0881882267
 40
0.130175143
 40
0.1802386961
 40
0.2380076259
 40
0.3030145398
 40
0.4524367838
 40
0.6227976323
 40
0.8077658142
 40
1.0
 40
1.0
 40
1.0
 40
1.0
 10
35.8526498563
 20
118.2108547996
 30
0.0
 10
35.8400688821
 20
118.210850413
 30
0.0
 10
35.8196096856
 20
118.199246557
 30
0.0
 10
35.7997384553
 20
118.1749724594
 30
0.0
 10
35.7756267751
 20
118.1348640283
 30
0.0
 10
35.7485153502
 20
118.0650845333
 30
0.0
 10
35.7191486163
 20
117.959399895
 30
0.0
 10
35.6914340974
 20
117.8257395058
 30
0.0
 10
35.665517171
 20
117.6652571762
 30
0.0
 10
35.6416586665
 20
117.4792490887
 30
0.0
 10
35.6113968892
 20
117.185487668
 30
0.0
 10
35.5812771027
 20
116.7690494195
 30
0.0
 10
35.5559625178
 20
116.2220177821
 30
0.0
 10
35.5406833556
 20
115.6281547767
 30
0.0
 10
35.5372792524
 20
115.2189389966
 30
0.0
 10
35.5372792524
 20
115.0103938731
 30
0.0
  0
SPLINE
  5
27D
100
AcDbEntity
  8
00_COMPONENTS_1
100
AcDbSpline
 62
7
  6
CONTINUOUS
 70
0
 71
3
 72
20
 73
16
 74
0
 42
0.0000001
 43
0.0000001
 44
0.0000000001
 40
0.0
 40
0.0
 40
0.0
 40
0.0
 40
0.0115913745
 40
0.0194409417
 40
0.0291155895
 40
0.054472591
 40
0.0881760695
 40
0.130172823
 40
0.1802501094
 40
0.2380370755
 40
0.3030499519
 40
0.4524569002
 40
0.622821683
 40
0.8077796827
 40
1.0
 40
1.0
 40
1.0
 40
1.0
 10
35.8526500231
 20
57.2108329072
 30
0.0
 10
35.8400750979
 20
57.2108503705
 30
0.0
 10
35.819605213
 20
57.1992715968
 30
0.0
 10
35.7997372373
 20
57.1750101211
 30
0.0
 10
35.7756249933
 20
57.1349144111
 30
0.0
 10
35.7485079639
 20
57.0651403071
 30
0.0
 10
35.7191439788
 20
56.9594442132
 30
0.0
 10
35.691430984
 20
56.8257533293
 30
0.0
 10
35.6655134927
 20
56.6652247571
 30
0.0
 10
35.6416616889
 20
56.4791739325
 30
0.0
 10
35.6113967303
 20
56.1854024966
 30
0.0
 10
35.5812611907
 20
55.7689697631
 30
0.0
 10
35.5559577001
 20
55.2219589638
 30
0.0
 10
35.5406855514
 20
54.6281157167
 30
0.0
 10
35.5372792524
 20
54.2189246588
 30
0.0
 10
35.5372792524
 20
54.0103938731
 30
0.0
  0
SPLINE
  5
27E
100
AcDbEntity
  8
00_COMPONENTS_1
100
AcDbSpline
 62
7
  6
CONTINUOUS
 70
0
 71
3
 72
21
 73
17
 74
0
 42
0.0000001
 43
0.0000001
 44
0.0000000001
 40
0.0
 40
0.0
 40
0.0
 40
0.0
 40
0.1945770099
 40
0.3818349746
 40
0.5543391187
 40
0.6330095493
 40
0.7055725625
 40
0.7712847112
 40
0.8295682123
 40
0.8798895929
 40
0.9217855339
 40
0.9549086159
 40
0.9789494083
 40
0.9937675778
 40
0.9978083755
 40
1.0
 40
1.0
 40
1.0
 40
1.0
 10
20.5901684347
 20
103.9603938731
 30
0.0
 10
20.5901684347
 20
103.7490925541
 30
0.0
 10
20.5907458249
 20
103.3344377199
 30
0.0
 10
20.593477898
 20
102.7324571602
 30
0.0
 10
20.5976802711
 20
102.2563562772
 30
0.0
 10
20.6026043044
 20
101.9048261486
 30
0.0
 10
20.60693908
 20
101.6692731958
 30
0.0
 10
20.6120975716
 20
101.4558785175
 30
0.0
 10
20.6181014077
 20
101.2666783085
 30
0.0
 10
20.6249971702
 20
101.1033623413
 30
0.0
 10
20.6327272171
 20
100.9675204879
 30
0.0
 10
20.6413645892
 20
100.8601223219
 30
0.0
 10
20.6503153466
 20
100.782808752
 30
0.0
 10
20.6595742269
 20
100.7363855146
 30
0.0
 10
20.6673257017
 20
100.7154504372
 30
0.0
 10
20.6729669662
 20
100.7099277999
 30
0.0
 10
20.6753469627
 20
100.7099241455
 30
0.0
  0
ENDSEC
  0
SECTION
  2
OBJECTS
  0
DICTIONARY
  5
C
100
AcDbDictionary
280
0
281
1
  3
ACAD_GROUP
350
D
  3
ACAD_MLINESTYLE
350
17
  3
ACAD_LAYOUT
350
1A
  3
ACAD_PLOTSETTINGS
350
19
  3
ACAD_PLOTSTYLENAME
350
E
  0
DICTIONARY
  5
D
102
{ACAD_REACTORS
330
C
102
}
100
AcDbDictionary
280
0
281
1
  0
ACDBDICTIONARYWDFLT
  5
E
102
{ACAD_REACTORS
330
C
102
}
100
AcDbDictionary
281
1
  3
Normal
350
F
100
AcDbDictionaryWithDefault
340
F
  0
DICTIONARY
  5
17
102
{ACAD_REACTORS
330
C
102
}
100
AcDbDictionary
280
0
281
1
  3
Standard
350
18
  0
DICTIONARY
  5
19
102
{ACAD_REACTORS
330
C
102
}
100
AcDbDictionary
281
1
  0
DICTIONARY
  5
1A
102
{ACAD_REACTORS
330
C
102
}
100
AcDbDictionary
281
1
  3
Model
350
27F
  3
Layout1
350
280
  0
ACDBPLACEHOLDER
  5
F
102
{ACAD_REACTORS
330
E
102
}
  0
MLINESTYLE
  5
18
102
{ACAD_REACTORS
330
17
102
}
100
AcDbMlineStyle
  2
STANDARD
 70
0
  3

 62
256
 51
90.0
 52
90.0
 71
2
 49
0.5
 62
256
  6
BYLAYER
 49
-0.5
 62
256
  6
BYLAYER
  0
LAYOUT
  5
27F
102
{ACAD_REACTORS
330
1A
102
}
100
AcDbPlotSettings
  1

  2
none_device
  4

  6

 40
0.0
 41
0.0
 42
0.0
 43
0.0
 44
210.0
 45
297.0
 46
0.0
 47
0.0
 48
0.0
 49
0.0
140
0.0
141
0.0
142
1.0
143
1.0
 70
1024
 72
1
 73
0
 74
0
  7

 75
0
147
1.0
148
0.0
149
0.0
100
AcDbLayout
  1
Model
 70
0
 71
0
 10
0.0
 20
0.0
 11
210.0
 21
297.0
 12
0.0
 22
0.0
 32
0.0
 14
0.0
 24
0.0
 34
0.0
 15
0.0
 25
0.0
 35
0.0
146
0.0
 13
0.0
 23
0.0
 33
0.0
 16
1.0
 26
0.0
 36
0.0
 17
0.0
 27
1.0
 37
0.0
 76
0
330
216
345
0
346
0
  0
LAYOUT
  5
280
102
{ACAD_REACTORS
330
1A
102
}
100
AcDbPlotSettings
  1

  2
none_device
  4

  6

 40
0.0
 41
0.0
 42
0.0
 43
0.0
 44
210.0
 45
297.0
 46
0.0
 47
0.0
 48
0.0
 49
0.0
140
0.0
141
0.0
142
1.0
143
1.0
 70
0
 72
1
 73
0
 74
0
  7

 75
0
147
1.0
148
0.0
149
0.0
100
AcDbLayout
  1
Layout1
 70
0
 71
1
 10
0.0
 20
0.0
 11
210.0
 21
297.0
 12
0.0
 22
0.0
 32
0.0
 14
0.0
 24
0.0
 34
0.0
 15
0.0
 25
0.0
 35
0.0
146
0.0
 13
0.0
 23
0.0
 33
0.0
 16
1.0
 26
0.0
 36
0.0
 17
0.0
 27
1.0
 37
0.0
 76
0
330
217
345
0
346
0
  0
ENDSEC
  0
EOF
