999
DXF file: C:\Users\sesa63760\Dev\_Creo\CAD\MCADPE0010550_3D-CAD\drw0001_4.dxf
999
Pro/ENGINEER 2019471 by Parametric Technology Corporation
  0
SECTION
  2
HEADER
  9
$ACADVER
  1
AC1024
  9
$DWGCODEPAGE
  3
ANSI_1252
  9
$EXTMAX
 10
76.8019188647
 20
108.61985668
 30
0.0
  9
$EXTMIN
 10
0.0
 20
0.0
 30
0.0
  9
$LIMMIN
 10
0.0
 20
0.0
  9
$LIMMAX
 10
76.8019188647
 20
108.61985668
  9
$VIEWCTR
 10
38.4009594323
 20
54.30992834
  9
$VIEWSIZE
 40
108.61985668
  9
$CLAYER
  8
0
  9
$LTSCALE
 40
7.0804054725
  9
$CELTYPE
  6
BYLAYER
  9
$DIMSCALE
 40
1.0
  9
$DIMASZ
 40
0.9143085579
  9
$DIMEXO
 40
1.0
  9
$DIMDLI
 40
4.8919165083
  9
$DIMEXE
 40
1.0
  9
$DIMCEN
 40
1.1586118046
  9
$DIMLFAC
 40
1.0
  9
$DIMBLK
  1
_FILLED
  9
$DIMALT
 70
0
  9
$DIMALTF
 40
0.0393700787
  9
$DIMTXT
 40
1.2800319811
  9
$DIMTOL
 70
1
  9
$DIMLIM
 70
0
  9
$DIMTFAC
 40
1.0
  9
$DIMTP
 40
0.01
  9
$DIMTM
 40
0.01
  9
$DIMGAP
 40
0.625
  9
$DIMDSEP
 70
46
  9
$AUNITS
 70
0
  9
$PDMODE
 70
3
  9
$PDSIZE
 40
0.3125
  9
$HANDSEED
  5
2D4
  9
$TILEMODE
 70
1
  9
$MEASUREMENT
 70
1
  9
$INSUNITS
 70
4
  0
ENDSEC
  0
SECTION
  2
CLASSES
  0
CLASS
  1
ACDBDICTIONARYWDFLT
  2
AcDbDictionaryWithDefault
  3
AutoCAD 2000
 90
0
 91
1
280
0
281
0
  0
CLASS
  1
ACDBPLACEHOLDER
  2
AcDbPlaceHolder
  3
AutoCAD 2000
 90
0
 91
1
280
0
281
0
  0
CLASS
  1
LAYOUT
  2
AcDbLayout
  3
AutoCAD 2000
 90
0
 91
0
280
0
281
0
  0
ENDSEC
  0
SECTION
  2
TABLES
  0
TABLE
  2
VPORT
  5
8
100
AcDbSymbolTable
 70
2
  0
VPORT
  5
1F4
100
AcDbSymbolTableRecord
100
AcDbViewportTableRecord
  2
*ACTIVE
 70
0
 10
0.0
 20
0.0
 11
1.0
 21
1.0
 12
38.4009594323
 22
54.30992834
 13
0.0
 23
0.0
 14
1.0
 24
1.0
 15
0.0
 25
0.0
 16
0.0
 26
0.0
 36
1.0
 17
0.0
 27
0.0
 37
0.0
 40
108.61985668
 41
0.7070707071
 42
50.0
 43
0.0
 44
0.0
 50
0.0
 51
0.0
 71
0
 72
100
 73
1
 74
1
 75
0
 76
0
 77
0
 78
0
  0
ENDTAB
  0
TABLE
  2
LTYPE
  5
5
100
AcDbSymbolTable
 70
6
  0
LTYPE
  5
14
100
AcDbSymbolTableRecord
100
AcDbLinetypeTableRecord
  2
BYBLOCK
 70
0
  3

 72
65
 73
0
 40
0.0
  0
LTYPE
  5
15
100
AcDbSymbolTableRecord
100
AcDbLinetypeTableRecord
  2
BYLAYER
 70
0
  3

 72
65
 73
0
 40
0.0
  0
LTYPE
  5
16
100
AcDbSymbolTableRecord
100
AcDbLinetypeTableRecord
  2
CONTINUOUS
 70
64
  3
Solid line
 72
65
 73
0
 40
0.0
  0
LTYPE
  5
1F5
100
AcDbSymbolTableRecord
100
AcDbLinetypeTableRecord
  2
CENTER
 70
64
  3
____ _ ____ _ ____ _ ____ _ ____ _ ____ _ ____
 72
65
 73
4
 40
0.6
 49
0.375
 74
0
 49
-0.075
 74
0
 49
0.075
 74
0
 49
-0.075
 74
0
  0
LTYPE
  5
1F6
100
AcDbSymbolTableRecord
100
AcDbLinetypeTableRecord
  2
HIDDEN
 70
64
  3
- - - - - - - - - - - - - - - - - - - -
 72
65
 73
2
 40
0.2
 49
0.1
 74
0
 49
-0.1
 74
0
  0
LTYPE
  5
1F7
100
AcDbSymbolTableRecord
100
AcDbLinetypeTableRecord
  2
PHANTOM
 70
64
  3
_____ _ _ _____ _ _ _____ _ _ _____
 72
65
 73
6
 40
0.8
 49
0.45
 74
0
 49
-0.05
 74
0
 49
0.1
 74
0
 49
-0.05
 74
0
 49
0.1
 74
0
 49
-0.05
 74
0
  0
LTYPE
  5
1F8
100
AcDbSymbolTableRecord
100
AcDbLinetypeTableRecord
  2
DOT
 70
64
  3
. . . . . . . . . . . . . . . . . . . .
 72
65
 73
2
 40
0.2
 49
0.1
 74
0
 49
-0.1
 74
0
  0
LTYPE
  5
1F9
100
AcDbSymbolTableRecord
100
AcDbLinetypeTableRecord
  2
DASHED
 70
64
  3
- - - - - - - - - - - - - - - - - - - -
 72
65
 73
2
 40
0.2
 49
0.1
 74
0
 49
-0.1
 74
0
  0
ENDTAB
  0
TABLE
  2
LAYER
  5
2
100
AcDbSymbolTable
 70
36
  0
LAYER
  5
10
100
AcDbSymbolTableRecord
100
AcDbLayerTableRecord
  2
0
 70
0
 62
7
  6
CONTINUOUS
370
-3
390
F
  0
LAYER
  5
1FA
100
AcDbSymbolTableRecord
100
AcDbLayerTableRecord
  2
DEFAULT_1
 70
0
 62
7
  6
CENTER
370
-3
390
F
  0
LAYER
  5
1FB
100
AcDbSymbolTableRecord
100
AcDbLayerTableRecord
  2
DEFAULT_2
 70
0
 62
7
  6
HIDDEN
370
-3
390
F
  0
LAYER
  5
1FC
100
AcDbSymbolTableRecord
100
AcDbLayerTableRecord
  2
DEFAULT_3
 70
0
 62
7
  6
PHANTOM
370
-3
390
F
  0
LAYER
  5
1FD
100
AcDbSymbolTableRecord
100
AcDbLayerTableRecord
  2
00_COMPONENTS
 70
0
 62
7
  6
CONTINUOUS
370
-3
390
F
  0
LAYER
  5
1FE
100
AcDbSymbolTableRecord
100
AcDbLayerTableRecord
  2
01_1_DEFAULT_DATUMS
 70
0
 62
7
  6
CONTINUOUS
370
-3
390
F
  0
LAYER
  5
1FF
100
AcDbSymbolTableRecord
100
AcDbLayerTableRecord
  2
01_PLANES
 70
0
 62
7
  6
CONTINUOUS
370
-3
390
F
  0
LAYER
  5
200
100
AcDbSymbolTableRecord
100
AcDbLayerTableRecord
  2
02_COORD_SYS
 70
0
 62
7
  6
CONTINUOUS
370
-3
390
F
  0
LAYER
  5
201
100
AcDbSymbolTableRecord
100
AcDbLayerTableRecord
  2
03_AXES
 70
0
 62
7
  6
CONTINUOUS
370
-3
390
F
  0
LAYER
  5
202
100
AcDbSymbolTableRecord
100
AcDbLayerTableRecord
  2
04_POINTS
 70
0
 62
7
  6
CONTINUOUS
370
-3
390
F
  0
LAYER
  5
203
100
AcDbSymbolTableRecord
100
AcDbLayerTableRecord
  2
05_CURVES
 70
0
 62
7
  6
CONTINUOUS
370
-3
390
F
  0
LAYER
  5
204
100
AcDbSymbolTableRecord
100
AcDbLayerTableRecord
  2
06_SURFS
 70
0
 62
7
  6
CONTINUOUS
370
-3
390
F
  0
LAYER
  5
205
100
AcDbSymbolTableRecord
100
AcDbLayerTableRecord
  2
07_COSMETICS
 70
0
 62
7
  6
CONTINUOUS
370
-3
390
F
  0
LAYER
  5
206
100
AcDbSymbolTableRecord
100
AcDbLayerTableRecord
  2
10_NOTES
 70
0
 62
7
  6
CONTINUOUS
370
-3
390
F
  0
LAYER
  5
207
100
AcDbSymbolTableRecord
100
AcDbLayerTableRecord
  2
11_NOTES_PUB
 70
0
 62
7
  6
CONTINUOUS
370
-3
390
F
  0
LAYER
  5
208
100
AcDbSymbolTableRecord
100
AcDbLayerTableRecord
  2
13_REF_GTOL
 70
0
 62
7
  6
CONTINUOUS
370
-3
390
F
  0
LAYER
  5
209
100
AcDbSymbolTableRecord
100
AcDbLayerTableRecord
  2
16_MISC
 70
0
 62
7
  6
CONTINUOUS
370
-3
390
F
  0
LAYER
  5
20A
100
AcDbSymbolTableRecord
100
AcDbLayerTableRecord
  2
17_NO_PRINT
 70
0
 62
7
  6
CONTINUOUS
370
-3
390
F
  0
LAYER
  5
20B
100
AcDbSymbolTableRecord
100
AcDbLayerTableRecord
  2
18_DATUM_CAMS_JOINTS
 70
0
 62
7
  6
CONTINUOUS
370
-3
390
F
  0
LAYER
  5
20C
100
AcDbSymbolTableRecord
100
AcDbLayerTableRecord
  2
19_DATUM_FUNCTIONAL
 70
0
 62
7
  6
CONTINUOUS
370
-3
390
F
  0
LAYER
  5
20D
100
AcDbSymbolTableRecord
100
AcDbLayerTableRecord
  2
20_DATUM_KINEMATIC_SCHEME
 70
0
 62
7
  6
CONTINUOUS
370
-3
390
F
  0
ENDTAB
  0
TABLE
  2
STYLE
  5
3
100
AcDbSymbolTable
 70
1
  0
STYLE
  5
11
100
AcDbSymbolTableRecord
100
AcDbTextStyleTableRecord
  2
STANDARD
 70
0
 40
0.0
 41
1.0
 50
0.0
 71
0
 42
0.2
  3
ARIAL.TTF
  4

  0
STYLE
  5
20E
100
AcDbSymbolTableRecord
100
AcDbTextStyleTableRecord
  2
TEXTSTYLE_1
 70
0
 40
0.0
 41
0.8
 50
0.0
 71
0
 42
0.2
  3
gdt
  4

  0
ENDTAB
  0
TABLE
  2
VIEW
  5
6
100
AcDbSymbolTable
 70
0
  0
ENDTAB
  0
TABLE
  2
UCS
  5
7
100
AcDbSymbolTable
 70
0
  0
ENDTAB
  0
TABLE
  2
APPID
  5
9
100
AcDbSymbolTable
 70
1
  0
APPID
  5
20F
100
AcDbSymbolTableRecord
100
AcDbRegAppTableRecord
  2
ACAD
 70
0
  0
ENDTAB
  0
TABLE
  2
BLOCK_RECORD
  5
1
100
AcDbSymbolTable
 70
0
  0
BLOCK_RECORD
  5
210
100
AcDbSymbolTableRecord
100
AcDbBlockTableRecord
  2
*Model_Space
  0
BLOCK_RECORD
  5
211
100
AcDbSymbolTableRecord
100
AcDbBlockTableRecord
  2
*Paper_Space
  0
BLOCK_RECORD
  5
212
100
AcDbSymbolTableRecord
100
AcDbBlockTableRecord
  2
_FILLED
  0
ENDTAB
  0
TABLE
  2
DIMSTYLE
  5
A
100
AcDbSymbolTable
 70
1
100
AcDbDimStyleTable
 71
0
  0
DIMSTYLE
105
213
100
AcDbSymbolTableRecord
100
AcDbDimStyleTableRecord
  2
STANDARD
 70
0
  3

  4

 40
1.0
 41
0.9143085579
 42
1.0
 43
0.38
 44
1.0
 45
0.0
 46
0.0
 47
0.01
 48
0.01
140
1.2800319811
141
0.09
142
0.0
143
25.4
144
1.0
145
0.0
146
1.0
147
0.625
 71
1
 72
0
 73
0
 74
0
 75
0
 76
0
 77
1
 78
8
 79
2
170
0
171
1
172
0
173
0
174
0
175
0
176
0
177
0
178
0
270
2
179
2
271
2
272
2
273
2
274
2
275
0
280
0
281
0
282
0
283
1
284
8
285
0
286
0
287
3
288
0
340
11
278
46
341
212
342
212
343
212
344
212
  0
ENDTAB
  0
ENDSEC
  0
SECTION
  2
BLOCKS
  0
BLOCK
  5
20
100
AcDbEntity
  8
0
100
AcDbBlockBegin
  2
*Model_Space
 70
0
 10
0.0
 20
0.0
 30
0.0
  3
*Model_Space
  1

  0
ENDBLK
  5
21
100
AcDbEntity
  8
0
100
AcDbBlockEnd
  0
BLOCK
  5
1C
100
AcDbEntity
  8
0
100
AcDbBlockBegin
  2
*Paper_Space
 70
0
 10
0.0
 20
0.0
 30
0.0
  3
*Paper_Space
  1

  0
ENDBLK
  5
1D
100
AcDbEntity
  8
0
100
AcDbBlockEnd
  0
BLOCK
  5
214
100
AcDbEntity
  8
0
100
AcDbBlockBegin
  2
_FILLED
 70
64
 10
0.0
 20
0.0
  3
_FILLED
  1

  0
SOLID
  5
215
100
AcDbEntity
  8
0
  6
BYBLOCK
 62
0
100
AcDbTrace
 10
0.0
 20
0.0
 11
-1.0
 21
0.25
 12
-1.0
 22
-0.25
 13
-1.0
 23
-0.25
  0
ENDBLK
  5
216
100
AcDbEntity
  8
0
  6
BYBLOCK
 62
0
100
AcDbBlockEnd
  0
ENDSEC
  0
SECTION
  2
ENTITIES
  0
LINE
  5
217
100
AcDbEntity
  8
0
100
AcDbLine
 62
7
  6
BYLAYER
 10
36.3230597611
 20
7.7775544778
 11
42.4730597611
 21
7.7775544778
  0
LINE
  5
218
100
AcDbEntity
  8
0
100
AcDbLine
 62
7
  6
BYLAYER
 10
36.3230597611
 20
7.9083352243
 11
42.4730597611
 21
7.9083352301
  0
LINE
  5
219
100
AcDbEntity
  8
0
100
AcDbLine
 62
7
  6
BYLAYER
 10
42.2131355176
 20
9.6809345733
 11
42.4730597611
 21
9.6809345733
  0
LINE
  5
21A
100
AcDbEntity
  8
0
100
AcDbLine
 62
7
  6
BYLAYER
 10
42.2131355176
 20
11.1516211896
 11
42.4730597611
 21
11.1516211896
  0
LINE
  5
21B
100
AcDbEntity
  8
0
100
AcDbLine
 62
7
  6
BYLAYER
 10
39.1730597615
 20
12.2930820589
 11
39.9730597606
 21
12.2930820589
  0
LINE
  5
21C
100
AcDbEntity
  8
0
100
AcDbLine
 62
7
  6
BYLAYER
 10
42.2131355176
 20
12.5000124356
 11
42.4730597611
 21
12.5000124356
  0
LINE
  5
21D
100
AcDbEntity
  8
0
100
AcDbLine
 62
7
  6
BYLAYER
 10
41.8230597611
 20
16.540690705
 11
36.9730597611
 21
16.540690705
  0
LINE
  5
21E
100
AcDbEntity
  8
0
100
AcDbLine
 62
7
  6
BYLAYER
 10
36.9730597611
 20
17.5667511349
 11
41.8230597611
 21
17.5667511349
  0
LINE
  5
21F
100
AcDbEntity
  8
0
100
AcDbLine
 62
7
  6
BYLAYER
 10
41.7251026086
 20
94.5657307647
 11
41.4230597611
 21
94.3738791084
  0
LINE
  5
220
100
AcDbEntity
  8
0
100
AcDbLine
 62
7
  6
BYLAYER
 10
36.3230597611
 20
20.523697021
 11
42.4730597611
 21
20.523697021
  0
LINE
  5
221
100
AcDbEntity
  8
0
100
AcDbLine
 62
7
  6
BYLAYER
 10
42.4730597611
 20
20.6552929923
 11
36.3230597611
 21
20.6552929923
  0
LINE
  5
222
100
AcDbEntity
  8
0
100
AcDbLine
 62
7
  6
BYLAYER
 10
42.2131355176
 20
22.4061726557
 11
42.4730597611
 21
22.4061726557
  0
LINE
  5
223
100
AcDbEntity
  8
0
100
AcDbLine
 62
7
  6
BYLAYER
 10
41.7251262901
 20
13.096345059
 11
41.4230597611
 21
13.2882117573
  0
LINE
  5
224
100
AcDbEntity
  8
0
100
AcDbLine
 62
7
  6
BYLAYER
 10
42.2131355176
 20
23.876859272
 11
42.4730597611
 21
23.876859272
  0
LINE
  5
225
100
AcDbEntity
  8
0
100
AcDbLine
 62
7
  6
BYLAYER
 10
39.1730597608
 20
25.0183201414
 11
39.9730597614
 21
25.0183201414
  0
LINE
  5
226
100
AcDbEntity
  8
0
100
AcDbLine
 62
7
  6
BYLAYER
 10
42.2131355176
 20
25.225250518
 11
42.4730597611
 21
25.225250518
  0
LINE
  5
227
100
AcDbEntity
  8
0
100
AcDbLine
 62
7
  6
BYLAYER
 10
41.8230597611
 20
29.2659287874
 11
36.9730597611
 21
29.2659287874
  0
LINE
  5
228
100
AcDbEntity
  8
0
100
AcDbLine
 62
7
  6
BYLAYER
 10
36.9730597611
 20
30.2919892174
 11
41.8230597611
 21
30.2919892174
  0
LINE
  5
229
100
AcDbEntity
  8
0
100
AcDbLine
 62
7
  6
BYLAYER
 10
41.7251262902
 20
25.8215831413
 11
41.4230597611
 21
26.0134498397
  0
LINE
  5
22A
100
AcDbEntity
  8
0
100
AcDbLine
 62
7
  6
BYLAYER
 10
36.9730597611
 20
33.4945455809
 11
41.8230597611
 21
33.4945455809
  0
LINE
  5
22B
100
AcDbEntity
  8
0
100
AcDbLine
 62
7
  6
BYLAYER
 10
42.4730597611
 20
33.7696087912
 11
36.3230597611
 21
33.7696087912
  0
LINE
  5
22C
100
AcDbEntity
  8
0
100
AcDbLine
 62
7
  6
BYLAYER
 10
36.3230597611
 20
34.4150544778
 11
42.4730597611
 21
34.4150544778
  0
LINE
  5
22D
100
AcDbEntity
  8
0
100
AcDbLine
 62
7
  6
BYLAYER
 10
42.4730597611
 20
35.3305533322
 11
36.3230597611
 21
35.3305533322
  0
LINE
  5
22E
100
AcDbEntity
  8
0
100
AcDbLine
 62
7
  6
BYLAYER
 10
36.3230597611
 20
35.8881892831
 11
42.4730597611
 21
35.8881892831
  0
LINE
  5
22F
100
AcDbEntity
  8
0
100
AcDbLine
 62
7
  6
BYLAYER
 10
36.3230597611
 20
35.9025544778
 11
42.4730597611
 21
35.9025544778
  0
LINE
  5
230
100
AcDbEntity
  8
0
100
AcDbLine
 62
7
  6
BYLAYER
 10
41.7251026086
 20
73.0077931873
 11
41.4230597611
 21
72.815941531
  0
LINE
  5
231
100
AcDbEntity
  8
0
100
AcDbLine
 62
7
  6
BYLAYER
 10
42.4730597611
 20
41.3525544778
 11
36.3230597611
 21
41.3525544778
  0
LINE
  5
232
100
AcDbEntity
  8
0
100
AcDbLine
 62
7
  6
BYLAYER
 10
42.4730597611
 20
41.3669196726
 11
36.3230597611
 21
41.3669196726
  0
LINE
  5
233
100
AcDbEntity
  8
0
100
AcDbLine
 62
7
  6
BYLAYER
 10
36.3230597611
 20
41.9245556235
 11
42.4730597611
 21
41.9245556235
  0
LINE
  5
234
100
AcDbEntity
  8
0
100
AcDbLine
 62
7
  6
BYLAYER
 10
42.4730597611
 20
42.8400544778
 11
36.3230597611
 21
42.8400544778
  0
LINE
  5
235
100
AcDbEntity
  8
0
100
AcDbLine
 62
7
  6
BYLAYER
 10
36.3230597611
 20
43.9275544778
 11
42.4730597611
 21
43.9275544778
  0
LINE
  5
236
100
AcDbEntity
  8
0
100
AcDbLine
 62
7
  6
BYLAYER
 10
42.4730597611
 20
44.4275544778
 11
36.3230597611
 21
44.4275544778
  0
LINE
  5
237
100
AcDbEntity
  8
0
100
AcDbLine
 62
7
  6
BYLAYER
 10
36.3230597611
 20
44.9650544778
 11
42.4730597611
 21
44.9650544778
  0
LINE
  5
238
100
AcDbEntity
  8
0
100
AcDbLine
 62
7
  6
BYLAYER
 10
42.4730597611
 20
45.8805533322
 11
36.3230597611
 21
45.8805533322
  0
LINE
  5
239
100
AcDbEntity
  8
0
100
AcDbLine
 62
7
  6
BYLAYER
 10
36.3230597611
 20
46.4381892831
 11
42.4730597611
 21
46.4381892831
  0
LINE
  5
23A
100
AcDbEntity
  8
0
100
AcDbLine
 62
7
  6
BYLAYER
 10
36.3230597611
 20
46.4525544778
 11
42.4730597611
 21
46.4525544778
  0
LINE
  5
23B
100
AcDbEntity
  8
0
100
AcDbLine
 62
7
  6
BYLAYER
 10
36.3230597611
 20
7.7775544778
 11
36.3230597611
 21
100.1775544631
  0
LINE
  5
23C
100
AcDbEntity
  8
0
100
AcDbLine
 62
7
  6
BYLAYER
 10
36.6730597611
 20
96.8535251475
 11
36.6730597611
 21
96.289709575
  0
LINE
  5
23D
100
AcDbEntity
  8
0
100
AcDbLine
 62
7
  6
BYLAYER
 10
36.6730597611
 20
75.2955875701
 11
36.6730597611
 21
74.7317719977
  0
LINE
  5
23E
100
AcDbEntity
  8
0
100
AcDbLine
 62
7
  6
BYLAYER
 10
36.6730597611
 20
24.0976193731
 11
36.6730597611
 21
23.5338038006
  0
LINE
  5
23F
100
AcDbEntity
  8
0
100
AcDbLine
 62
7
  6
BYLAYER
 10
36.6730597611
 20
11.3723812906
 11
36.6730597611
 21
10.8085657182
  0
LINE
  5
240
100
AcDbEntity
  8
0
100
AcDbLine
 62
7
  6
BYLAYER
 10
36.9730597611
 20
91.1214001607
 11
36.9730597611
 21
86.8927834657
  0
LINE
  5
241
100
AcDbEntity
  8
0
100
AcDbLine
 62
7
  6
BYLAYER
 10
36.9730597611
 20
82.8672794903
 11
36.9730597611
 21
79.9072477348
  0
LINE
  5
242
100
AcDbEntity
  8
0
100
AcDbLine
 62
7
  6
BYLAYER
 10
36.9730597611
 20
69.5634625833
 11
36.9730597611
 21
65.3348458883
  0
LINE
  5
243
100
AcDbEntity
  8
0
100
AcDbLine
 62
7
  6
BYLAYER
 10
36.9730597611
 20
61.3093419129
 11
36.9730597611
 21
58.3493101574
  0
LINE
  5
244
100
AcDbEntity
  8
0
100
AcDbLine
 62
7
  6
BYLAYER
 10
36.9730597611
 20
56.7518327021
 11
36.9730597611
 21
55.2624875629
  0
LINE
  5
245
100
AcDbEntity
  8
0
100
AcDbLine
 62
7
  6
BYLAYER
 10
36.9730597611
 20
33.4945455809
 11
36.9730597611
 21
29.2659287874
  0
LINE
  5
246
100
AcDbEntity
  8
0
100
AcDbLine
 62
7
  6
BYLAYER
 10
36.9730597611
 20
20.523697021
 11
36.9730597611
 21
16.5406907049
  0
LINE
  5
247
100
AcDbEntity
  8
0
100
AcDbLine
 62
7
  6
BYLAYER
 10
37.7230597611
 20
94.3738791084
 11
37.7230597611
 21
94.3050038745
  0
LINE
  5
248
100
AcDbEntity
  8
0
100
AcDbLine
 62
7
  6
BYLAYER
 10
37.7230597611
 20
72.815941531
 11
37.7230597611
 21
72.7470662972
  0
LINE
  5
249
100
AcDbEntity
  8
0
100
AcDbLine
 62
7
  6
BYLAYER
 10
37.7230597611
 20
13.2882117573
 11
37.7230597611
 21
13.3570947461
  0
LINE
  5
24A
100
AcDbEntity
  8
0
100
AcDbLine
 62
7
  6
BYLAYER
 10
37.7230597611
 20
26.0134498397
 11
37.7230597611
 21
26.0823328286
  0
LINE
  5
24B
100
AcDbEntity
  8
0
100
AcDbLine
 62
7
  6
BYLAYER
 10
39.1730597612
 20
12.1453276315
 11
39.1730597611
 21
12.2930820589
  0
LINE
  5
24C
100
AcDbEntity
  8
0
100
AcDbLine
 62
7
  6
BYLAYER
 10
39.1730597612
 20
24.870565714
 11
39.1730597611
 21
25.0183201414
  0
LINE
  5
24D
100
AcDbEntity
  8
0
100
AcDbLine
 62
7
  6
BYLAYER
 10
39.1730597611
 20
95.3690088067
 11
39.1730597612
 21
95.5167632342
  0
LINE
  5
24E
100
AcDbEntity
  8
0
100
AcDbLine
 62
7
  6
BYLAYER
 10
39.1730597611
 20
73.8110712294
 11
39.1730597612
 21
73.9588256568
  0
LINE
  5
24F
100
AcDbEntity
  8
0
100
AcDbLine
 62
7
  6
BYLAYER
 10
36.3230597611
 20
51.9025544778
 11
42.4730597611
 21
51.9025544778
  0
LINE
  5
250
100
AcDbEntity
  8
0
100
AcDbLine
 62
7
  6
BYLAYER
 10
42.4730597611
 20
51.9169196726
 11
36.3230597611
 21
51.9169196726
  0
LINE
  5
251
100
AcDbEntity
  8
0
100
AcDbLine
 62
7
  6
BYLAYER
 10
36.3230597611
 20
52.4745556235
 11
42.4730597611
 21
52.4745556235
  0
LINE
  5
252
100
AcDbEntity
  8
0
100
AcDbLine
 62
7
  6
BYLAYER
 10
42.4730597611
 20
53.3900544778
 11
36.3230597611
 21
53.3900544778
  0
LINE
  5
253
100
AcDbEntity
  8
0
100
AcDbLine
 62
7
  6
BYLAYER
 10
39.9730597611
 20
95.5167632342
 11
39.9730597611
 21
95.3690088067
  0
LINE
  5
254
100
AcDbEntity
  8
0
100
AcDbLine
 62
7
  6
BYLAYER
 10
39.9730597611
 20
73.9588256568
 11
39.9730597611
 21
73.8110712294
  0
LINE
  5
255
100
AcDbEntity
  8
0
100
AcDbLine
 62
7
  6
BYLAYER
 10
39.9730597611
 20
25.0183201414
 11
39.9730597611
 21
24.8705657139
  0
LINE
  5
256
100
AcDbEntity
  8
0
100
AcDbLine
 62
7
  6
BYLAYER
 10
39.9730597611
 20
12.2930820589
 11
39.9730597611
 21
12.1453276315
  0
LINE
  5
257
100
AcDbEntity
  8
0
100
AcDbLine
 62
7
  6
BYLAYER
 10
41.4230597611
 20
94.3738791084
 11
41.4230597611
 21
94.1966520742
  0
LINE
  5
258
100
AcDbEntity
  8
0
100
AcDbLine
 62
7
  6
BYLAYER
 10
41.4230597611
 20
72.815941531
 11
41.4230597611
 21
72.6387144968
  0
LINE
  5
259
100
AcDbEntity
  8
0
100
AcDbLine
 62
7
  6
BYLAYER
 10
41.4230597611
 20
13.2882117573
 11
41.4230597611
 21
13.4654612878
  0
LINE
  5
25A
100
AcDbEntity
  8
0
100
AcDbLine
 62
7
  6
BYLAYER
 10
41.4230597611
 20
26.0134498397
 11
41.4230597611
 21
26.1906993703
  0
LINE
  5
25B
100
AcDbEntity
  8
0
100
AcDbLine
 62
7
  6
BYLAYER
 10
41.8230597611
 20
16.5406907049
 11
41.8230597611
 21
20.523697021
  0
LINE
  5
25C
100
AcDbEntity
  8
0
100
AcDbLine
 62
7
  6
BYLAYER
 10
41.8230597611
 20
29.2659287874
 11
41.8230597611
 21
33.4945455809
  0
LINE
  5
25D
100
AcDbEntity
  8
0
100
AcDbLine
 62
7
  6
BYLAYER
 10
41.8230597611
 20
55.2624875629
 11
41.8230597611
 21
56.7518327021
  0
LINE
  5
25E
100
AcDbEntity
  8
0
100
AcDbLine
 62
7
  6
BYLAYER
 10
41.8230597611
 20
58.3493101574
 11
41.8230597611
 21
61.3093419129
  0
LINE
  5
25F
100
AcDbEntity
  8
0
100
AcDbLine
 62
7
  6
BYLAYER
 10
41.8230597611
 20
65.3348458883
 11
41.8230597611
 21
69.5634625833
  0
LINE
  5
260
100
AcDbEntity
  8
0
100
AcDbLine
 62
7
  6
BYLAYER
 10
41.8230597611
 20
79.9072477348
 11
41.8230597611
 21
82.8672794903
  0
LINE
  5
261
100
AcDbEntity
  8
0
100
AcDbLine
 62
7
  6
BYLAYER
 10
41.8230597611
 20
86.8927834657
 11
41.8230597611
 21
91.1214001607
  0
LINE
  5
262
100
AcDbEntity
  8
0
100
AcDbLine
 62
7
  6
BYLAYER
 10
42.2131355176
 20
9.6809345733
 11
42.2131355176
 21
11.1516211896
  0
LINE
  5
263
100
AcDbEntity
  8
0
100
AcDbLine
 62
7
  6
BYLAYER
 10
42.2131355176
 20
22.4061726557
 11
42.2131355176
 21
23.876859272
  0
LINE
  5
264
100
AcDbEntity
  8
0
100
AcDbLine
 62
7
  6
BYLAYER
 10
42.2131355176
 20
74.9525320988
 11
42.2131355176
 21
76.4232187151
  0
LINE
  5
265
100
AcDbEntity
  8
0
100
AcDbLine
 62
7
  6
BYLAYER
 10
42.2131355176
 20
96.5104696762
 11
42.2131355176
 21
97.9811562925
  0
LINE
  5
266
100
AcDbEntity
  8
0
100
AcDbLine
 62
7
  6
BYLAYER
 10
42.4730597611
 20
7.7775544778
 11
42.4730597611
 21
12.4358523908
  0
LINE
  5
267
100
AcDbEntity
  8
0
100
AcDbLine
 62
7
  6
BYLAYER
 10
42.4730597611
 20
12.5000124356
 11
42.4730597611
 21
25.1610904732
  0
LINE
  5
268
100
AcDbEntity
  8
0
100
AcDbLine
 62
7
  6
BYLAYER
 10
42.4730597611
 20
25.225250518
 11
42.4730597611
 21
73.6041408527
  0
LINE
  5
269
100
AcDbEntity
  8
0
100
AcDbLine
 62
7
  6
BYLAYER
 10
42.4730597611
 20
73.6085975159
 11
42.4730597611
 21
95.1620784301
  0
LINE
  5
26A
100
AcDbEntity
  8
0
100
AcDbLine
 62
7
  6
BYLAYER
 10
42.4730597611
 20
95.1665350933
 11
42.4730597611
 21
100.1775544631
  0
LINE
  5
26B
100
AcDbEntity
  8
0
100
AcDbLine
 62
7
  6
BYLAYER
 10
42.4730597611
 20
54.6945814544
 11
36.3230597611
 21
54.6945814544
  0
LINE
  5
26C
100
AcDbEntity
  8
0
100
AcDbLine
 62
7
  6
BYLAYER
 10
36.3230597611
 20
54.8572445547
 11
42.4730597611
 21
54.8572445547
  0
LINE
  5
26D
100
AcDbEntity
  8
0
100
AcDbLine
 62
7
  6
BYLAYER
 10
42.4730597611
 20
55.1855892077
 11
36.3230597611
 21
55.1855892077
  0
LINE
  5
26E
100
AcDbEntity
  8
0
100
AcDbLine
 62
7
  6
BYLAYER
 10
42.4730597611
 20
55.2624875629
 11
36.3230597611
 21
55.2624875629
  0
LINE
  5
26F
100
AcDbEntity
  8
0
100
AcDbLine
 62
7
  6
BYLAYER
 10
41.8230597611
 20
56.7518327021
 11
36.9730597611
 21
56.7518327021
  0
LINE
  5
270
100
AcDbEntity
  8
0
100
AcDbLine
 62
7
  6
BYLAYER
 10
36.9730597611
 20
58.3493101574
 11
41.8230597611
 21
58.3493101574
  0
LINE
  5
271
100
AcDbEntity
  8
0
100
AcDbLine
 62
7
  6
BYLAYER
 10
36.3230597611
 20
61.3093419129
 11
36.9730597611
 21
61.3093419129
  0
LINE
  5
272
100
AcDbEntity
  8
0
100
AcDbLine
 62
7
  6
BYLAYER
 10
41.8230597611
 20
61.3093419129
 11
42.4730597611
 21
61.3093419129
  0
LINE
  5
273
100
AcDbEntity
  8
0
100
AcDbLine
 62
7
  6
BYLAYER
 10
36.3230597611
 20
62.7800571415
 11
42.4730597611
 21
62.7800571415
  0
LINE
  5
274
100
AcDbEntity
  8
0
100
AcDbLine
 62
7
  6
BYLAYER
 10
42.4730597611
 20
63.8101240302
 11
36.3230597611
 21
63.8101240266
  0
LINE
  5
275
100
AcDbEntity
  8
0
100
AcDbLine
 62
7
  6
BYLAYER
 10
42.4730597611
 20
64.3481686358
 11
36.3230597611
 21
64.3481686358
  0
LINE
  5
276
100
AcDbEntity
  8
0
100
AcDbLine
 62
7
  6
BYLAYER
 10
36.9730597611
 20
65.3348458883
 11
41.8230597611
 21
65.3348458883
  0
LINE
  5
277
100
AcDbEntity
  8
0
100
AcDbLine
 62
7
  6
BYLAYER
 10
41.8230597611
 20
68.5374021534
 11
36.9730597611
 21
68.5374021534
  0
LINE
  5
278
100
AcDbEntity
  8
0
100
AcDbLine
 62
7
  6
BYLAYER
 10
41.8230597611
 20
69.5634625833
 11
36.9730597611
 21
69.5634625833
  0
LINE
  5
279
100
AcDbEntity
  8
0
100
AcDbLine
 62
7
  6
BYLAYER
 10
37.4968557137
 20
72.9596218781
 11
37.7230597611
 21
72.815941531
  0
LINE
  5
27A
100
AcDbEntity
  8
0
100
AcDbLine
 62
7
  6
BYLAYER
 10
42.4730597611
 20
73.6041408527
 11
42.2131355176
 21
73.6041408527
  0
LINE
  5
27B
100
AcDbEntity
  8
0
100
AcDbLine
 62
7
  6
BYLAYER
 10
39.1730597611
 20
73.8110712294
 11
39.9730597611
 21
73.8110712294
  0
LINE
  5
27C
100
AcDbEntity
  8
0
100
AcDbLine
 62
7
  6
BYLAYER
 10
42.4730597611
 20
74.9525320988
 11
42.2131355176
 21
74.9525320988
  0
LINE
  5
27D
100
AcDbEntity
  8
0
100
AcDbLine
 62
7
  6
BYLAYER
 10
37.4968742059
 20
25.8697812385
 11
37.7230597611
 21
26.0134498397
  0
LINE
  5
27E
100
AcDbEntity
  8
0
100
AcDbLine
 62
7
  6
BYLAYER
 10
42.4730597611
 20
76.4232187151
 11
42.2131355176
 21
76.4232187151
  0
LINE
  5
27F
100
AcDbEntity
  8
0
100
AcDbLine
 62
7
  6
BYLAYER
 10
36.3230597611
 20
78.204081843
 11
42.4730597611
 21
78.204081843
  0
LINE
  5
280
100
AcDbEntity
  8
0
100
AcDbLine
 62
7
  6
BYLAYER
 10
42.4730597611
 20
78.3056943498
 11
36.3230597611
 21
78.3056943498
  0
LINE
  5
281
100
AcDbEntity
  8
0
100
AcDbLine
 62
7
  6
BYLAYER
 10
36.9730597611
 20
79.9072477348
 11
41.8230597611
 21
79.9072477348
  0
LINE
  5
282
100
AcDbEntity
  8
0
100
AcDbLine
 62
7
  6
BYLAYER
 10
42.4730597611
 20
82.8672794903
 11
41.8230597611
 21
82.8672794903
  0
LINE
  5
283
100
AcDbEntity
  8
0
100
AcDbLine
 62
7
  6
BYLAYER
 10
36.9730597611
 20
82.8672794903
 11
36.3230597611
 21
82.8672794903
  0
LINE
  5
284
100
AcDbEntity
  8
0
100
AcDbLine
 62
7
  6
BYLAYER
 10
42.4730597611
 20
84.3379947189
 11
36.3230597611
 21
84.3379947189
  0
LINE
  5
285
100
AcDbEntity
  8
0
100
AcDbLine
 62
7
  6
BYLAYER
 10
37.4968742061
 20
13.1445431563
 11
37.7230597611
 21
13.2882117573
  0
LINE
  5
286
100
AcDbEntity
  8
0
100
AcDbLine
 62
7
  6
BYLAYER
 10
36.3230597611
 20
85.3688912258
 11
42.4730597611
 21
85.3688912258
  0
LINE
  5
287
100
AcDbEntity
  8
0
100
AcDbLine
 62
7
  6
BYLAYER
 10
42.4730597611
 20
85.9061062132
 11
36.3230597611
 21
85.9061062132
  0
LINE
  5
288
100
AcDbEntity
  8
0
100
AcDbLine
 62
7
  6
BYLAYER
 10
36.9730597611
 20
86.8927834657
 11
41.8230597611
 21
86.8927834657
  0
LINE
  5
289
100
AcDbEntity
  8
0
100
AcDbLine
 62
7
  6
BYLAYER
 10
37.4968557137
 20
94.5175594555
 11
37.7230597611
 21
94.3738791084
  0
LINE
  5
28A
100
AcDbEntity
  8
0
100
AcDbLine
 62
7
  6
BYLAYER
 10
41.8230597611
 20
90.0953397307
 11
36.9730597611
 21
90.0953397307
  0
LINE
  5
28B
100
AcDbEntity
  8
0
100
AcDbLine
 62
7
  6
BYLAYER
 10
41.8230597611
 20
91.1214001607
 11
36.9730597611
 21
91.1214001607
  0
LINE
  5
28C
100
AcDbEntity
  8
0
100
AcDbLine
 62
7
  6
BYLAYER
 10
42.4730597611
 20
95.1620784301
 11
42.2131355176
 21
95.1620784301
  0
LINE
  5
28D
100
AcDbEntity
  8
0
100
AcDbLine
 62
7
  6
BYLAYER
 10
39.1730597611
 20
95.3690088067
 11
39.9730597611
 21
95.3690088067
  0
LINE
  5
28E
100
AcDbEntity
  8
0
100
AcDbLine
 62
7
  6
BYLAYER
 10
42.4730597611
 20
96.5104696762
 11
42.2131355176
 21
96.5104696762
  0
LINE
  5
28F
100
AcDbEntity
  8
0
100
AcDbLine
 62
7
  6
BYLAYER
 10
42.4730597611
 20
97.9811562925
 11
42.2131355176
 21
97.9811562925
  0
LINE
  5
290
100
AcDbEntity
  8
0
100
AcDbLine
 62
7
  6
BYLAYER
 10
42.4730597611
 20
100.0467737167
 11
36.3230597611
 21
100.0467737109
  0
LINE
  5
291
100
AcDbEntity
  8
0
100
AcDbLine
 62
7
  6
BYLAYER
 10
42.4730597611
 20
100.1775544631
 11
36.3230597611
 21
100.1775544631
  0
ARC
  5
292
100
AcDbEntity
  8
0
100
AcDbCircle
 62
7
  6
BYLAYER
 10
39.933693637
 20
12.6196789404
 40
2.5393079344
100
AcDbArc
 50
355.3455192713
 51
355.8779901288
  0
ARC
  5
293
100
AcDbEntity
  8
0
100
AcDbCircle
 62
7
  6
BYLAYER
 10
39.933693638
 20
25.3449170228
 40
2.5393079334
100
AcDbArc
 50
355.3455192716
 51
355.8779901289
  0
ARC
  5
294
100
AcDbEntity
  8
0
100
AcDbCircle
 62
7
  6
BYLAYER
 10
39.9359254575
 20
95.0428567647
 40
2.5370747478
100
AcDbArc
 50
3.9773447368
 51
4.6355953722
  0
ARC
  5
295
100
AcDbEntity
  8
0
100
AcDbCircle
 62
7
  6
BYLAYER
 10
39.9359254577
 20
73.4849191873
 40
2.5370747477
100
AcDbArc
 50
3.9773447368
 51
4.6355953723
  0
ARC
  5
296
100
AcDbEntity
  8
0
100
AcDbCircle
 62
7
  6
BYLAYER
 10
40.1285791199
 20
26.3827959003
 40
1.2945752861
100
AcDbArc
 50
344.1461355649
 51
352.8361332468
  0
ARC
  5
297
100
AcDbEntity
  8
0
100
AcDbCircle
 62
7
  6
BYLAYER
 10
40.1285791199
 20
13.6575578179
 40
1.2945752861
100
AcDbArc
 50
344.1461355648
 51
352.8361332436
  0
ARC
  5
298
100
AcDbEntity
  8
0
100
AcDbCircle
 62
7
  6
BYLAYER
 10
40.1285814682
 20
94.0045335081
 40
1.2945729103
100
AcDbArc
 50
7.1636209831
 51
15.85395912
  0
ARC
  5
299
100
AcDbEntity
  8
0
100
AcDbCircle
 62
7
  6
BYLAYER
 10
40.1285814682
 20
72.4465959307
 40
1.2945729103
100
AcDbArc
 50
7.1636209835
 51
15.85395912
  0
ARC
  5
29A
100
AcDbEntity
  8
0
100
AcDbCircle
 62
7
  6
BYLAYER
 10
39.0160467446
 20
94.004852081
 40
1.2930512938
100
AcDbArc
 50
164.1416536968
 51
169.1016652676
  0
ARC
  5
29B
100
AcDbEntity
  8
0
100
AcDbCircle
 62
7
  6
BYLAYER
 10
39.0160467446
 20
72.4469145036
 40
1.2930512937
100
AcDbArc
 50
164.1416536968
 51
169.1016652674
  0
ARC
  5
29C
100
AcDbEntity
  8
0
100
AcDbCircle
 62
7
  6
BYLAYER
 10
39.0160437933
 20
26.3824762669
 40
1.2930482998
100
AcDbArc
 50
190.898011801
 51
195.8584424451
  0
ARC
  5
29D
100
AcDbEntity
  8
0
100
AcDbCircle
 62
7
  6
BYLAYER
 10
39.0160437933
 20
13.6572381845
 40
1.2930482998
100
AcDbArc
 50
190.8980118043
 51
195.8584424453
  0
SPLINE
  5
29E
100
AcDbEntity
  8
0
100
AcDbSpline
 62
7
  6
BYLAYER
 70
0
 71
3
 72
15
 73
11
 74
0
 42
0.0000001
 43
0.0000001
 44
0.0000000001
 40
0.0
 40
0.0
 40
0.0
 40
0.0
 40
0.1287445006
 40
0.2570229338
 40
0.38416671
 40
0.5099566429
 40
0.6342304017
 40
0.7570601084
 40
0.8788744406
 40
1.0
 40
1.0
 40
1.0
 40
1.0
 10
39.5730597611
 20
93.5646009748
 30
0.0
 10
39.3837248058
 20
93.5646009748
 30
0.0
 10
39.0048238795
 20
93.5996453865
 30
0.0
 10
38.4583793013
 20
93.754952192
 30
0.0
 10
37.9541720264
 20
94.0077070832
 30
0.0
 10
37.5117055172
 20
94.3480121049
 30
0.0
 10
37.1481605627
 20
94.7633706359
 30
0.0
 10
36.8774515407
 20
95.2379159323
 30
0.0
 10
36.7107676625
 20
95.7532132212
 30
0.0
 10
36.6730597611
 20
96.1115792296
 30
0.0
 10
36.6730597611
 20
96.289709575
 30
0.0
  0
SPLINE
  5
29F
100
AcDbEntity
  8
0
100
AcDbSpline
 62
7
  6
BYLAYER
 70
0
 71
3
 72
11
 73
7
 74
0
 42
0.0000001
 43
0.0000001
 44
0.0000000001
 40
0.0
 40
0.0
 40
0.0
 40
0.0
 40
0.2442611644
 40
0.4927979698
 40
0.7452340822
 40
1.0
 40
1.0
 40
1.0
 40
1.0
 10
42.2131355176
 20
95.1620784301
 30
0.0
 10
42.0982188766
 20
94.9245017099
 30
0.0
 10
41.7923429083
 20
94.4776473033
 30
0.0
 10
41.1588913361
 20
93.9639649623
 30
0.0
 10
40.3992009251
 20
93.6385645578
 30
0.0
 10
39.8483196244
 20
93.5646009748
 30
0.0
 10
39.5730597611
 20
93.5646009748
 30
0.0
  0
SPLINE
  5
2A0
100
AcDbEntity
  8
0
100
AcDbSpline
 62
7
  6
BYLAYER
 70
0
 71
3
 72
11
 73
7
 74
0
 42
0.0000001
 43
0.0000001
 44
0.0000000001
 40
0.0
 40
0.0
 40
0.0
 40
0.0
 40
0.2547659868
 40
0.5072021177
 40
0.7557389024
 40
1.0
 40
1.0
 40
1.0
 40
1.0
 10
39.5730597611
 20
14.0974898909
 30
0.0
 10
39.8483196989
 20
14.0974898909
 30
0.0
 10
40.3992010967
 20
14.0235262745
 30
0.0
 10
41.1588915485
 20
13.6981257757
 30
0.0
 10
41.7923430154
 20
13.1844434263
 30
0.0
 10
42.098218908
 20
12.7375890907
 30
0.0
 10
42.2131355176
 20
12.5000124356
 30
0.0
  0
SPLINE
  5
2A1
100
AcDbEntity
  8
0
100
AcDbSpline
 62
7
  6
BYLAYER
 70
0
 71
3
 72
15
 73
11
 74
0
 42
0.0000001
 43
0.0000001
 44
0.0000000001
 40
0.0
 40
0.0
 40
0.0
 40
0.0
 40
0.1211255236
 40
0.2429397929
 40
0.365769479
 40
0.4900432295
 40
0.6158331676
 40
0.7429769629
 40
0.8712554617
 40
1.0
 40
1.0
 40
1.0
 40
1.0
 10
36.6730597611
 20
11.3723812906
 30
0.0
 10
36.6730597611
 20
11.5505115834
 30
0.0
 10
36.7107675736
 20
11.9088774545
 30
0.0
 10
36.877451406
 20
12.4241745741
 30
0.0
 10
37.1481602662
 20
12.8987197989
 30
0.0
 10
37.5117051118
 20
13.3140783808
 30
0.0
 10
37.9541715697
 20
13.6543835066
 30
0.0
 10
38.4583789243
 20
13.9071385494
 30
0.0
 10
39.0048236785
 20
14.0624453958
 30
0.0
 10
39.3837247503
 20
14.0974898909
 30
0.0
 10
39.5730597611
 20
14.0974898909
 30
0.0
  0
SPLINE
  5
2A2
100
AcDbEntity
  8
0
100
AcDbSpline
 62
7
  6
BYLAYER
 70
0
 71
3
 72
15
 73
11
 74
0
 42
0.0000001
 43
0.0000001
 44
0.0000000001
 40
0.0
 40
0.0
 40
0.0
 40
0.0
 40
0.1211255236
 40
0.2429397929
 40
0.365769479
 40
0.4900432295
 40
0.6158331676
 40
0.7429769629
 40
0.8712554617
 40
1.0
 40
1.0
 40
1.0
 40
1.0
 10
36.6730597611
 20
24.0976193731
 30
0.0
 10
36.6730597611
 20
24.2757496659
 30
0.0
 10
36.7107675736
 20
24.634115537
 30
0.0
 10
36.877451406
 20
25.1494126565
 30
0.0
 10
37.1481602662
 20
25.6239578814
 30
0.0
 10
37.5117051118
 20
26.0393164633
 30
0.0
 10
37.9541715697
 20
26.3796215891
 30
0.0
 10
38.4583789243
 20
26.6323766319
 30
0.0
 10
39.0048236785
 20
26.7876834783
 30
0.0
 10
39.3837247503
 20
26.8227279734
 30
0.0
 10
39.5730597611
 20
26.8227279734
 30
0.0
  0
SPLINE
  5
2A3
100
AcDbEntity
  8
0
100
AcDbSpline
 62
7
  6
BYLAYER
 70
0
 71
3
 72
11
 73
7
 74
0
 42
0.0000001
 43
0.0000001
 44
0.0000000001
 40
0.0
 40
0.0
 40
0.0
 40
0.0
 40
0.2547659868
 40
0.5072021177
 40
0.7557389024
 40
1.0
 40
1.0
 40
1.0
 40
1.0
 10
39.5730597611
 20
26.8227279734
 30
0.0
 10
39.8483196989
 20
26.8227279734
 30
0.0
 10
40.3992010967
 20
26.748764357
 30
0.0
 10
41.1588915485
 20
26.4233638582
 30
0.0
 10
41.7923430155
 20
25.9096815087
 30
0.0
 10
42.0982189081
 20
25.4628271731
 30
0.0
 10
42.2131355176
 20
25.225250518
 30
0.0
  0
SPLINE
  5
2A4
100
AcDbEntity
  8
0
100
AcDbSpline
 62
7
  6
BYLAYER
 70
0
 71
3
 72
15
 73
11
 74
0
 42
0.0000001
 43
0.0000001
 44
0.0000000001
 40
0.0
 40
0.0
 40
0.0
 40
0.0
 40
0.1287445006
 40
0.2570229338
 40
0.38416671
 40
0.5099566429
 40
0.6342304017
 40
0.7570601084
 40
0.8788744406
 40
1.0
 40
1.0
 40
1.0
 40
1.0
 10
39.5730597611
 20
72.0066633974
 30
0.0
 10
39.3837248058
 20
72.0066633974
 30
0.0
 10
39.0048238795
 20
72.0417078092
 30
0.0
 10
38.4583793013
 20
72.1970146146
 30
0.0
 10
37.9541720264
 20
72.4497695058
 30
0.0
 10
37.5117055172
 20
72.7900745275
 30
0.0
 10
37.1481605627
 20
73.2054330585
 30
0.0
 10
36.8774515407
 20
73.6799783549
 30
0.0
 10
36.7107676625
 20
74.1952756438
 30
0.0
 10
36.6730597611
 20
74.5536416522
 30
0.0
 10
36.6730597611
 20
74.7317719977
 30
0.0
  0
SPLINE
  5
2A5
100
AcDbEntity
  8
0
100
AcDbSpline
 62
7
  6
BYLAYER
 70
0
 71
3
 72
11
 73
7
 74
0
 42
0.0000001
 43
0.0000001
 44
0.0000000001
 40
0.0
 40
0.0
 40
0.0
 40
0.0
 40
0.2442611644
 40
0.4927979698
 40
0.7452340822
 40
1.0
 40
1.0
 40
1.0
 40
1.0
 10
42.2131355176
 20
73.6041408527
 30
0.0
 10
42.0982188766
 20
73.3665641325
 30
0.0
 10
41.7923429083
 20
72.919709726
 30
0.0
 10
41.1588913361
 20
72.406027385
 30
0.0
 10
40.3992009251
 20
72.0806269805
 30
0.0
 10
39.8483196244
 20
72.0066633974
 30
0.0
 10
39.5730597611
 20
72.0066633974
 30
0.0
  0
SPLINE
  5
2A6
100
AcDbEntity
  8
0
100
AcDbSpline
 62
7
  6
BYLAYER
 70
0
 71
3
 72
16
 73
12
 74
0
 42
0.0000001
 43
0.0000001
 44
0.0000000001
 40
0.0
 40
0.0
 40
0.0
 40
0.0
 40
0.0295668027
 40
0.0662508592
 40
0.1591765765
 40
0.2743363292
 40
0.4064575655
 40
0.5502966863
 40
0.700791115
 40
0.8528381707
 40
1.0
 40
1.0
 40
1.0
 40
1.0
 10
42.2131355176
 20
74.9525320988
 30
0.0
 10
42.2131355176
 20
74.9396249668
 30
0.0
 10
42.2152334374
 20
74.9107165133
 30
0.0
 10
42.2252959583
 20
74.8419391661
 30
0.0
 10
42.2486010246
 20
74.7375496747
 30
0.0
 10
42.285958414
 20
74.5938320598
 30
0.0
 10
42.3299445803
 20
74.4288479215
 30
0.0
 10
42.3744604421
 20
74.2480569955
 30
0.0
 10
42.4142165356
 20
74.0572484908
 30
0.0
 10
42.4489522379
 20
73.8640277016
 30
0.0
 10
42.4653582635
 20
73.7342629403
 30
0.0
 10
42.4698153024
 20
73.6701755147
 30
0.0
  0
SPLINE
  5
2A7
100
AcDbEntity
  8
0
100
AcDbSpline
 62
7
  6
BYLAYER
 70
0
 71
3
 72
15
 73
11
 74
0
 42
0.0000001
 43
0.0000001
 44
0.0000000001
 40
0.0
 40
0.0
 40
0.0
 40
0.0
 40
0.1304805883
 40
0.2573099289
 40
0.3811817565
 40
0.5034672866
 40
0.6254979099
 40
0.7483547493
 40
0.8730679503
 40
1.0
 40
1.0
 40
1.0
 40
1.0
 10
41.4230597611
 20
72.815941531
 30
0.0
 10
41.4230597611
 20
72.9078772879
 30
0.0
 10
41.4033099764
 20
73.0899173492
 30
0.0
 10
41.3131708987
 20
73.345454738
 30
0.0
 10
41.1684697808
 20
73.5678460722
 30
0.0
 10
40.9781987569
 20
73.7476574873
 30
0.0
 10
40.7528245645
 20
73.8790167499
 30
0.0
 10
40.5030701583
 20
73.9593303002
 30
0.0
 10
40.2391296357
 20
73.987957498
 30
0.0
 10
40.0612460432
 20
73.9737214532
 30
0.0
 10
39.9730597611
 20
73.9588256568
 30
0.0
  0
SPLINE
  5
2A8
100
AcDbEntity
  8
0
100
AcDbSpline
 62
7
  6
BYLAYER
 70
0
 71
3
 72
11
 73
7
 74
0
 42
0.0000001
 43
0.0000001
 44
0.0000000001
 40
0.0
 40
0.0
 40
0.0
 40
0.0
 40
0.2547659868
 40
0.5072021177
 40
0.7557389024
 40
1.0
 40
1.0
 40
1.0
 40
1.0
 10
39.5730597611
 20
99.5786337478
 30
0.0
 10
39.8483196989
 20
99.5786337478
 30
0.0
 10
40.3992010967
 20
99.5046701314
 30
0.0
 10
41.1588915485
 20
99.1792696326
 30
0.0
 10
41.7923430154
 20
98.6655872832
 30
0.0
 10
42.0982189081
 20
98.2187329476
 30
0.0
 10
42.2131355176
 20
97.9811562925
 30
0.0
  0
SPLINE
  5
2A9
100
AcDbEntity
  8
0
100
AcDbSpline
 62
7
  6
BYLAYER
 70
0
 71
3
 72
15
 73
11
 74
0
 42
0.0000001
 43
0.0000001
 44
0.0000000001
 40
0.0
 40
0.0
 40
0.0
 40
0.0
 40
0.1211255236
 40
0.2429397929
 40
0.365769479
 40
0.4900432295
 40
0.6158331676
 40
0.7429769629
 40
0.8712554617
 40
1.0
 40
1.0
 40
1.0
 40
1.0
 10
36.6730597611
 20
96.8535251475
 30
0.0
 10
36.6730597611
 20
97.0316554404
 30
0.0
 10
36.7107675736
 20
97.3900213114
 30
0.0
 10
36.877451406
 20
97.905318431
 30
0.0
 10
37.1481602662
 20
98.3798636558
 30
0.0
 10
37.5117051118
 20
98.7952222377
 30
0.0
 10
37.9541715697
 20
99.1355273635
 30
0.0
 10
38.4583789243
 20
99.3882824063
 30
0.0
 10
39.0048236785
 20
99.5435892527
 30
0.0
 10
39.3837247503
 20
99.5786337478
 30
0.0
 10
39.5730597611
 20
99.5786337478
 30
0.0
  0
SPLINE
  5
2AA
100
AcDbEntity
  8
0
100
AcDbSpline
 62
7
  6
BYLAYER
 70
0
 71
3
 72
15
 73
11
 74
0
 42
0.0000001
 43
0.0000001
 44
0.0000000001
 40
0.0
 40
0.0
 40
0.0
 40
0.0
 40
0.1280340805
 40
0.2558223646
 40
0.3827314241
 40
0.5085883685
 40
0.633229494
 40
0.7565888228
 40
0.878739735
 40
1.0
 40
1.0
 40
1.0
 40
1.0
 10
39.5730597611
 20
76.2079894108
 30
0.0
 10
39.4125471913
 20
76.2079894108
 30
0.0
 10
39.0912781206
 20
76.1827564183
 30
0.0
 10
38.6227470958
 20
76.0708747978
 30
0.0
 10
38.1801185108
 20
75.8874042709
 30
0.0
 10
37.7758907349
 20
75.637561901
 30
0.0
 10
37.4209412293
 20
75.3282270045
 30
0.0
 10
37.1253373077
 20
74.9676107684
 30
0.0
 10
36.8972624531
 20
74.5658725326
 30
0.0
 10
36.7941170929
 20
74.276707277
 30
0.0
 10
36.7559151076
 20
74.1295650964
 30
0.0
  0
SPLINE
  5
2AB
100
AcDbEntity
  8
0
100
AcDbSpline
 62
7
  6
BYLAYER
 70
0
 71
3
 72
15
 73
11
 74
0
 42
0.0000001
 43
0.0000001
 44
0.0000000001
 40
0.0
 40
0.0
 40
0.0
 40
0.0
 40
0.1304792409
 40
0.2573082657
 40
0.3811856724
 40
0.5034787653
 40
0.6255093863
 40
0.7483647037
 40
0.8730714865
 40
1.0
 40
1.0
 40
1.0
 40
1.0
 10
37.7230597611
 20
72.815941531
 30
0.0
 10
37.7230597611
 20
72.907876299
 30
0.0
 10
37.7428077473
 20
73.089915219
 30
0.0
 10
37.832948802
 20
73.3454552864
 30
0.0
 10
37.9776583764
 20
73.5678513071
 30
0.0
 10
38.1679337221
 20
73.7476721171
 30
0.0
 10
38.3933173116
 20
73.8790247875
 30
0.0
 10
38.6430674627
 20
73.9593304142
 30
0.0
 10
38.9069995282
 20
73.9879581792
 30
0.0
 10
39.0848759737
 20
73.9737210318
 30
0.0
 10
39.1730597612
 20
73.9588256568
 30
0.0
  0
SPLINE
  5
2AC
100
AcDbEntity
  8
0
100
AcDbSpline
 62
7
  6
BYLAYER
 70
0
 71
3
 72
15
 73
11
 74
0
 42
0.0000001
 43
0.0000001
 44
0.0000000001
 40
0.0
 40
0.0
 40
0.0
 40
0.0
 40
0.1210594597
 40
0.2429502169
 40
0.3659563289
 40
0.4903671477
 40
0.6162132165
 40
0.7433121391
 40
0.8714461837
 40
1.0
 40
1.0
 40
1.0
 40
1.0
 10
42.4647010838
 20
95.247898488
 30
0.0
 10
42.4509858699
 20
95.4170529206
 30
0.0
 10
42.3893352048
 20
95.7546964156
 30
0.0
 10
42.1988982037
 20
96.2344371212
 30
0.0
 10
41.9168708196
 20
96.6724489004
 30
0.0
 10
41.5535043606
 20
97.0532422098
 30
0.0
 10
41.1214942829
 20
97.3636603244
 30
0.0
 10
40.6359523062
 20
97.5933685148
 30
0.0
 10
40.1139090973
 20
97.7341943324
 30
0.0
 10
39.7532754132
 20
97.7659269882
 30
0.0
 10
39.5730597611
 20
97.7659269882
 30
0.0
  0
SPLINE
  5
2AD
100
AcDbEntity
  8
0
100
AcDbSpline
 62
7
  6
BYLAYER
 70
0
 71
3
 72
15
 73
11
 74
0
 42
0.0000001
 43
0.0000001
 44
0.0000000001
 40
0.0
 40
0.0
 40
0.0
 40
0.0
 40
0.1304792409
 40
0.2573082657
 40
0.3811856724
 40
0.5034787653
 40
0.6255093863
 40
0.7483647037
 40
0.8730714865
 40
1.0
 40
1.0
 40
1.0
 40
1.0
 10
37.7230597611
 20
94.3738791084
 30
0.0
 10
37.7230597611
 20
94.4658138764
 30
0.0
 10
37.7428077473
 20
94.6478527964
 30
0.0
 10
37.832948802
 20
94.9033928638
 30
0.0
 10
37.9776583764
 20
95.1257888844
 30
0.0
 10
38.1679337221
 20
95.3056096945
 30
0.0
 10
38.3933173116
 20
95.4369623649
 30
0.0
 10
38.6430674627
 20
95.5172679916
 30
0.0
 10
38.9069995282
 20
95.5458957566
 30
0.0
 10
39.0848759737
 20
95.5316586092
 30
0.0
 10
39.1730597612
 20
95.5167632342
 30
0.0
  0
SPLINE
  5
2AE
100
AcDbEntity
  8
0
100
AcDbSpline
 62
7
  6
BYLAYER
 70
0
 71
3
 72
15
 73
11
 74
0
 42
0.0000001
 43
0.0000001
 44
0.0000000001
 40
0.0
 40
0.0
 40
0.0
 40
0.0
 40
0.1280340805
 40
0.2558223646
 40
0.3827314241
 40
0.5085883685
 40
0.633229494
 40
0.7565888228
 40
0.878739735
 40
1.0
 40
1.0
 40
1.0
 40
1.0
 10
39.5730597611
 20
97.7659269882
 30
0.0
 10
39.4125471913
 20
97.7659269882
 30
0.0
 10
39.0912781206
 20
97.7406939957
 30
0.0
 10
38.6227470958
 20
97.6288123752
 30
0.0
 10
38.1801185107
 20
97.4453418483
 30
0.0
 10
37.7758907349
 20
97.1954994784
 30
0.0
 10
37.4209412293
 20
96.8861645819
 30
0.0
 10
37.1253373077
 20
96.5255483457
 30
0.0
 10
36.8972624531
 20
96.12381011
 30
0.0
 10
36.7941170929
 20
95.8346448544
 30
0.0
 10
36.7559151076
 20
95.6875026738
 30
0.0
  0
SPLINE
  5
2AF
100
AcDbEntity
  8
0
100
AcDbSpline
 62
7
  6
BYLAYER
 70
0
 71
3
 72
16
 73
12
 74
0
 42
0.0000001
 43
0.0000001
 44
0.0000000001
 40
0.0
 40
0.0
 40
0.0
 40
0.0
 40
0.0295668027
 40
0.0662508592
 40
0.1591765765
 40
0.2743363292
 40
0.4064575655
 40
0.5502966863
 40
0.700791115
 40
0.8528381707
 40
1.0
 40
1.0
 40
1.0
 40
1.0
 10
42.2131355176
 20
96.5104696761
 30
0.0
 10
42.2131355176
 20
96.4975625441
 30
0.0
 10
42.2152334374
 20
96.4686540907
 30
0.0
 10
42.2252959583
 20
96.3998767434
 30
0.0
 10
42.2486010246
 20
96.2954872521
 30
0.0
 10
42.285958414
 20
96.1517696372
 30
0.0
 10
42.3299445803
 20
95.9867854989
 30
0.0
 10
42.3744604421
 20
95.8059945729
 30
0.0
 10
42.4142165356
 20
95.6151860682
 30
0.0
 10
42.4489522379
 20
95.421965279
 30
0.0
 10
42.4653582635
 20
95.2922005177
 30
0.0
 10
42.4698153024
 20
95.2281130921
 30
0.0
  0
SPLINE
  5
2B0
100
AcDbEntity
  8
0
100
AcDbSpline
 62
7
  6
BYLAYER
 70
0
 71
3
 72
15
 73
11
 74
0
 42
0.0000001
 43
0.0000001
 44
0.0000000001
 40
0.0
 40
0.0
 40
0.0
 40
0.0
 40
0.1210594597
 40
0.2429502169
 40
0.3659563289
 40
0.4903671477
 40
0.6162132165
 40
0.7433121391
 40
0.8714461837
 40
1.0
 40
1.0
 40
1.0
 40
1.0
 10
42.4647010838
 20
73.6899609106
 30
0.0
 10
42.4509858699
 20
73.8591153432
 30
0.0
 10
42.3893352048
 20
74.1967588382
 30
0.0
 10
42.1988982037
 20
74.6764995438
 30
0.0
 10
41.9168708196
 20
75.114511323
 30
0.0
 10
41.5535043606
 20
75.4953046325
 30
0.0
 10
41.1214942829
 20
75.805722747
 30
0.0
 10
40.6359523062
 20
76.0354309375
 30
0.0
 10
40.1139090973
 20
76.176256755
 30
0.0
 10
39.7532754132
 20
76.2079894108
 30
0.0
 10
39.5730597611
 20
76.2079894108
 30
0.0
  0
SPLINE
  5
2B1
100
AcDbEntity
  8
0
100
AcDbSpline
 62
7
  6
BYLAYER
 70
0
 71
3
 72
11
 73
7
 74
0
 42
0.0000001
 43
0.0000001
 44
0.0000000001
 40
0.0
 40
0.0
 40
0.0
 40
0.0
 40
0.2433957122
 40
0.4914435339
 40
0.7442149781
 40
1.0
 40
1.0
 40
1.0
 40
1.0
 10
37.7722092174
 20
26.0291358452
 30
0.0
 10
37.8131236301
 20
25.8851364661
 30
0.0
 10
37.9479125144
 20
25.6068159659
 30
0.0
 10
38.2778697494
 20
25.2782003436
 30
0.0
 10
38.7007961951
 20
25.0667169642
 30
0.0
 10
39.0157407245
 20
25.0183201414
 30
0.0
 10
39.1730597608
 20
25.0183201414
 30
0.0
  0
SPLINE
  5
2B2
100
AcDbEntity
  8
0
100
AcDbSpline
 62
7
  6
BYLAYER
 70
0
 71
3
 72
11
 73
7
 74
0
 42
0.0000001
 43
0.0000001
 44
0.0000000001
 40
0.0
 40
0.0
 40
0.0
 40
0.0
 40
0.2557849441
 40
0.508556365
 40
0.7566042059
 40
1.0
 40
1.0
 40
1.0
 40
1.0
 10
39.9730597614
 20
25.0183201414
 30
0.0
 10
40.1303789131
 20
25.0183201414
 30
0.0
 10
40.4453237075
 20
25.066717044
 30
0.0
 10
40.8682504887
 20
25.2782007765
 30
0.0
 10
41.1982078541
 20
25.6068170423
 30
0.0
 10
41.3329966017
 20
25.8851380681
 30
0.0
 10
41.3739108264
 20
26.0291377145
 30
0.0
  0
SPLINE
  5
2B3
100
AcDbEntity
  8
0
100
AcDbSpline
 62
7
  6
BYLAYER
 70
0
 71
3
 72
11
 73
7
 74
0
 42
0.0000001
 43
0.0000001
 44
0.0000000001
 40
0.0
 40
0.0
 40
0.0
 40
0.0
 40
0.2557849441
 40
0.508556365
 40
0.7566042059
 40
1.0
 40
1.0
 40
1.0
 40
1.0
 10
39.173059761
 20
95.3690088067
 30
0.0
 10
39.0157406093
 20
95.3690088068
 30
0.0
 10
38.7007958148
 20
95.3206119041
 30
0.0
 10
38.2778690335
 20
95.1091281716
 30
0.0
 10
37.9479116681
 20
94.7805119059
 30
0.0
 10
37.8131229205
 20
94.50219088
 30
0.0
 10
37.7722086958
 20
94.3581912336
 30
0.0
  0
SPLINE
  5
2B4
100
AcDbEntity
  8
0
100
AcDbSpline
 62
7
  6
BYLAYER
 70
0
 71
3
 72
11
 73
7
 74
0
 42
0.0000001
 43
0.0000001
 44
0.0000000001
 40
0.0
 40
0.0
 40
0.0
 40
0.0
 40
0.2433957122
 40
0.4914435339
 40
0.7442149781
 40
1.0
 40
1.0
 40
1.0
 40
1.0
 10
41.3739103048
 20
94.3581931028
 30
0.0
 10
41.332995892
 20
94.502192482
 30
0.0
 10
41.1982070078
 20
94.7805129822
 30
0.0
 10
40.8682497727
 20
95.1091286046
 30
0.0
 10
40.4453233269
 20
95.320611984
 30
0.0
 10
40.1303787974
 20
95.3690088067
 30
0.0
 10
39.9730597611
 20
95.3690088067
 30
0.0
  0
SPLINE
  5
2B5
100
AcDbEntity
  8
0
100
AcDbSpline
 62
7
  6
BYLAYER
 70
0
 71
3
 72
15
 73
11
 74
0
 42
0.0000001
 43
0.0000001
 44
0.0000000001
 40
0.0
 40
0.0
 40
0.0
 40
0.0
 40
0.1304805883
 40
0.2573099289
 40
0.3811817565
 40
0.5034672866
 40
0.6254979099
 40
0.7483547493
 40
0.8730679503
 40
1.0
 40
1.0
 40
1.0
 40
1.0
 10
41.4230597611
 20
94.3738791084
 30
0.0
 10
41.4230597611
 20
94.4658148653
 30
0.0
 10
41.4033099764
 20
94.6478549266
 30
0.0
 10
41.3131708987
 20
94.9033923154
 30
0.0
 10
41.1684697808
 20
95.1257836496
 30
0.0
 10
40.9781987569
 20
95.3055950647
 30
0.0
 10
40.7528245645
 20
95.4369543272
 30
0.0
 10
40.5030701583
 20
95.5172678776
 30
0.0
 10
40.2391296357
 20
95.5458950754
 30
0.0
 10
40.0612460432
 20
95.5316590306
 30
0.0
 10
39.9730597611
 20
95.5167632342
 30
0.0
  0
SPLINE
  5
2B6
100
AcDbEntity
  8
0
100
AcDbSpline
 62
7
  6
BYLAYER
 70
0
 71
3
 72
9
 73
5
 74
0
 42
0.0000001
 43
0.0000001
 44
0.0000000001
 40
0.0
 40
0.0
 40
0.0
 40
0.0
 40
0.2582933602
 40
1.0
 40
1.0
 40
1.0
 40
1.0
 10
39.5730194761
 20
95.4823578524
 30
0.0
 10
39.5384327269
 20
95.4823578524
 30
0.0
 10
39.4045339045
 20
95.485409872
 30
0.0
 10
39.2709906868
 20
95.5002214422
 30
0.0
 10
39.1730597612
 20
95.5167632342
 30
0.0
  0
SPLINE
  5
2B7
100
AcDbEntity
  8
0
100
AcDbSpline
 62
7
  6
BYLAYER
 70
0
 71
3
 72
9
 73
5
 74
0
 42
0.0000001
 43
0.0000001
 44
0.0000000001
 40
0.0
 40
0.0
 40
0.0
 40
0.0
 40
0.2397032895
 40
1.0
 40
1.0
 40
1.0
 40
1.0
 10
39.9730597611
 20
95.5167632342
 30
0.0
 10
39.9414064094
 20
95.5114165763
 30
0.0
 10
39.8089715952
 20
95.4914941508
 30
0.0
 10
39.6748405398
 20
95.4823578524
 30
0.0
 10
39.5730194761
 20
95.4823578524
 30
0.0
  0
SPLINE
  5
2B8
100
AcDbEntity
  8
0
100
AcDbSpline
 62
7
  6
BYLAYER
 70
0
 71
3
 72
15
 73
11
 74
0
 42
0.0000001
 43
0.0000001
 44
0.0000000001
 40
0.0
 40
0.0
 40
0.0
 40
0.0
 40
0.1212602577
 40
0.2434111475
 40
0.3667704557
 40
0.4914115798
 40
0.6172685108
 40
0.7441775613
 40
0.8719659092
 40
1.0
 40
1.0
 40
1.0
 40
1.0
 10
36.7559097961
 20
24.6998467333
 30
0.0
 10
36.794110789
 20
24.5527034226
 30
0.0
 10
36.8972545182
 20
24.2635357696
 30
0.0
 10
37.1253280299
 20
23.8617938262
 30
0.0
 10
37.4209316839
 20
23.5011740221
 30
0.0
 10
37.7758817743
 20
23.1918358127
 30
0.0
 10
38.1801110289
 20
22.9419907029
 30
0.0
 10
38.6227419169
 20
22.7585185899
 30
0.0
 10
39.0912751631
 20
22.6466345651
 30
0.0
 10
39.412546277
 20
22.6214009685
 30
0.0
 10
39.5730597611
 20
22.6214019599
 30
0.0
  0
SPLINE
  5
2B9
100
AcDbEntity
  8
0
100
AcDbSpline
 62
7
  6
BYLAYER
 70
0
 71
3
 72
9
 73
5
 74
0
 42
0.0000001
 43
0.0000001
 44
0.0000000001
 40
0.0
 40
0.0
 40
0.0
 40
0.0
 40
0.2582945991
 40
1.0
 40
1.0
 40
1.0
 40
1.0
 10
39.5730194743
 20
24.9049710823
 30
0.0
 10
39.5384325629
 20
24.9049708686
 30
0.0
 10
39.4045337904
 20
24.9019181059
 30
0.0
 10
39.2709905127
 20
24.8871074765
 30
0.0
 10
39.1730597612
 20
24.870565714
 30
0.0
  0
SPLINE
  5
2BA
100
AcDbEntity
  8
0
100
AcDbSpline
 62
7
  6
BYLAYER
 70
0
 71
3
 72
15
 73
11
 74
0
 42
0.0000001
 43
0.0000001
 44
0.0000000001
 40
0.0
 40
0.0
 40
0.0
 40
0.0
 40
0.1269180325
 40
0.2516168334
 40
0.3744836146
 40
0.4965320361
 40
0.6188423891
 40
0.7427323104
 40
0.8695455231
 40
1.0
 40
1.0
 40
1.0
 40
1.0
 10
39.1730597612
 20
24.8705657139
 30
0.0
 10
39.0848832057
 20
24.8556715605
 30
0.0
 10
38.9070202956
 20
24.8414263404
 30
0.0
 10
38.6430932747
 20
24.8700577099
 30
0.0
 10
38.393326665
 20
24.9503613218
 30
0.0
 10
38.1679146159
 20
25.0817320187
 30
0.0
 10
37.9776187232
 20
25.2615832504
 30
0.0
 10
37.8329283519
 20
25.4840018438
 30
0.0
 10
37.7427803232
 20
25.7395188267
 30
0.0
 10
37.7230597611
 20
25.9215324685
 30
0.0
 10
37.7230597611
 20
26.0134498397
 30
0.0
  0
SPLINE
  5
2BB
100
AcDbEntity
  8
0
100
AcDbSpline
 62
7
  6
BYLAYER
 70
0
 71
3
 72
15
 73
11
 74
0
 42
0.0000001
 43
0.0000001
 44
0.0000000001
 40
0.0
 40
0.0
 40
0.0
 40
0.0
 40
0.1285443763
 40
0.2566698497
 40
0.3837599898
 40
0.5095981765
 40
0.634003256
 40
0.7569927274
 40
0.8788988331
 40
1.0
 40
1.0
 40
1.0
 40
1.0
 10
39.5730597611
 20
22.6214019599
 30
0.0
 10
39.7532375138
 20
22.6214019599
 30
0.0
 10
40.1137962387
 20
22.6531212321
 30
0.0
 10
40.6357379761
 20
22.7938901478
 30
0.0
 10
41.1212019696
 20
23.0235031233
 30
0.0
 10
41.5531718335
 20
23.3337999545
 30
0.0
 10
41.9165041851
 20
23.7144609179
 30
0.0
 10
42.1986327918
 20
24.1523093891
 30
0.0
 10
42.3891377468
 20
24.6320150411
 30
0.0
 10
42.4508534206
 20
24.9696755735
 30
0.0
 10
42.4646273636
 20
25.138860581
 30
0.0
  0
SPLINE
  5
2BC
100
AcDbEntity
  8
0
100
AcDbSpline
 62
7
  6
BYLAYER
 70
0
 71
3
 72
15
 73
11
 74
0
 42
0.0000001
 43
0.0000001
 44
0.0000000001
 40
0.0
 40
0.0
 40
0.0
 40
0.0
 40
0.1287445006
 40
0.2570229338
 40
0.38416671
 40
0.5099566429
 40
0.6342304017
 40
0.7570601084
 40
0.8788744406
 40
1.0
 40
1.0
 40
1.0
 40
1.0
 10
39.5730597611
 20
8.0834571179
 30
0.0
 10
39.3837248058
 20
8.0834571179
 30
0.0
 10
39.0048238795
 20
8.1185015297
 30
0.0
 10
38.4583793013
 20
8.2738083351
 30
0.0
 10
37.9541720264
 20
8.5265632263
 30
0.0
 10
37.5117055172
 20
8.8668682481
 30
0.0
 10
37.1481605627
 20
9.2822267791
 30
0.0
 10
36.8774515407
 20
9.7567720754
 30
0.0
 10
36.7107676625
 20
10.2720693644
 30
0.0
 10
36.6730597611
 20
10.6304353727
 30
0.0
 10
36.6730597611
 20
10.8085657182
 30
0.0
  0
SPLINE
  5
2BD
100
AcDbEntity
  8
0
100
AcDbSpline
 62
7
  6
BYLAYER
 70
0
 71
3
 72
11
 73
7
 74
0
 42
0.0000001
 43
0.0000001
 44
0.0000000001
 40
0.0
 40
0.0
 40
0.0
 40
0.0
 40
0.2442611644
 40
0.4927979698
 40
0.7452340822
 40
1.0
 40
1.0
 40
1.0
 40
1.0
 10
42.2131355175
 20
9.6809345732
 30
0.0
 10
42.0982188766
 20
9.443357853
 30
0.0
 10
41.7923429082
 20
8.9965034464
 30
0.0
 10
41.1588913361
 20
8.4828211055
 30
0.0
 10
40.3992009251
 20
8.157420701
 30
0.0
 10
39.8483196244
 20
8.0834571179
 30
0.0
 10
39.5730597611
 20
8.0834571179
 30
0.0
  0
SPLINE
  5
2BE
100
AcDbEntity
  8
0
100
AcDbSpline
 62
7
  6
BYLAYER
 70
0
 71
3
 72
11
 73
7
 74
0
 42
0.0000001
 43
0.0000001
 44
0.0000000001
 40
0.0
 40
0.0
 40
0.0
 40
0.0
 40
0.2433957122
 40
0.4914435339
 40
0.7442149781
 40
1.0
 40
1.0
 40
1.0
 40
1.0
 10
41.3739103048
 20
72.8002555255
 30
0.0
 10
41.332995892
 20
72.9442549046
 30
0.0
 10
41.1982070078
 20
73.2225754049
 30
0.0
 10
40.8682497727
 20
73.5511910272
 30
0.0
 10
40.4453233269
 20
73.7626744066
 30
0.0
 10
40.1303787974
 20
73.8110712294
 30
0.0
 10
39.9730597611
 20
73.8110712294
 30
0.0
  0
SPLINE
  5
2BF
100
AcDbEntity
  8
0
100
AcDbSpline
 62
7
  6
BYLAYER
 70
0
 71
3
 72
15
 73
11
 74
0
 42
0.0000001
 43
0.0000001
 44
0.0000000001
 40
0.0
 40
0.0
 40
0.0
 40
0.0
 40
0.0295832972
 40
0.0662975839
 40
0.159324438
 40
0.274602187
 40
0.4068154675
 40
0.5508312593
 40
0.701478134
 40
1.0
 40
1.0
 40
1.0
 40
1.0
 10
42.2131355176
 20
11.1516211895
 30
0.0
 10
42.2131355176
 20
11.1645499332
 30
0.0
 10
42.215241454
 20
11.1935109698
 30
0.0
 10
42.2253426345
 20
11.262426544
 30
0.0
 10
42.248748784
 20
11.3670276111
 30
0.0
 10
42.2861910566
 20
11.5110342331
 30
0.0
 10
42.3300377204
 20
11.67642497
 30
0.0
 10
42.3748754434
 20
11.8575446573
 30
0.0
 10
42.428894059
 20
12.111086189
 30
0.0
 10
42.4570417195
 20
12.3059377785
 30
0.0
 10
42.4664325903
 20
12.4360619157
 30
0.0
  0
SPLINE
  5
2C0
100
AcDbEntity
  8
0
100
AcDbSpline
 62
7
  6
BYLAYER
 70
0
 71
3
 72
9
 73
5
 74
0
 42
0.0000001
 43
0.0000001
 44
0.0000000001
 40
0.0
 40
0.0
 40
0.0
 40
0.0
 40
0.2397046121
 40
1.0
 40
1.0
 40
1.0
 40
1.0
 10
39.9730597611
 20
12.1453276315
 30
0.0
 10
39.9414062324
 20
12.1506743192
 30
0.0
 10
39.8089715371
 20
12.1705976369
 30
0.0
 10
39.6748403683
 20
12.1797329998
 30
0.0
 10
39.5730194743
 20
12.1797329998
 30
0.0
  0
SPLINE
  5
2C1
100
AcDbEntity
  8
0
100
AcDbSpline
 62
7
  6
BYLAYER
 70
0
 71
3
 72
15
 73
11
 74
0
 42
0.0000001
 43
0.0000001
 44
0.0000000001
 40
0.0
 40
0.0
 40
0.0
 40
0.0
 40
0.1304804783
 40
0.257312777
 40
0.3811874274
 40
0.5034755435
 40
0.6255095605
 40
0.7483657777
 40
0.8730717321
 40
1.0
 40
1.0
 40
1.0
 40
1.0
 10
41.4230597611
 20
13.2882117573
 30
0.0
 10
41.4230597611
 20
13.1962761265
 30
0.0
 10
41.4033100503
 20
13.0142340759
 30
0.0
 10
41.3131681827
 20
12.7586934467
 30
0.0
 10
41.1684623043
 20
12.5362980842
 30
0.0
 10
40.9781833779
 20
12.3564859942
 30
0.0
 10
40.752803874
 20
12.2251284862
 30
0.0
 10
40.503051117
 20
12.1448208731
 30
0.0
 10
40.239119017
 20
12.1161961163
 30
0.0
 10
40.0612433691
 20
12.1304322868
 30
0.0
 10
39.9730597611
 20
12.1453276315
 30
0.0
  0
SPLINE
  5
2C2
100
AcDbEntity
  8
0
100
AcDbSpline
 62
7
  6
BYLAYER
 70
0
 71
3
 72
15
 73
11
 74
0
 42
0.0000001
 43
0.0000001
 44
0.0000000001
 40
0.0
 40
0.0
 40
0.0
 40
0.0
 40
0.1285443763
 40
0.2566698497
 40
0.3837599898
 40
0.5095981765
 40
0.634003256
 40
0.7569927274
 40
0.8788988331
 40
1.0
 40
1.0
 40
1.0
 40
1.0
 10
39.5730597611
 20
9.8961638775
 30
0.0
 10
39.7532375138
 20
9.8961638775
 30
0.0
 10
40.1137962387
 20
9.9278831497
 30
0.0
 10
40.6357379761
 20
10.0686520654
 30
0.0
 10
41.1212019696
 20
10.2982650409
 30
0.0
 10
41.5531718335
 20
10.6085618721
 30
0.0
 10
41.9165041851
 20
10.9892228355
 30
0.0
 10
42.1986327918
 20
11.4270713067
 30
0.0
 10
42.3891377468
 20
11.9067769586
 30
0.0
 10
42.4508534206
 20
12.2444374911
 30
0.0
 10
42.4646273636
 20
12.4136224986
 30
0.0
  0
SPLINE
  5
2C3
100
AcDbEntity
  8
0
100
AcDbSpline
 62
7
  6
BYLAYER
 70
0
 71
3
 72
15
 73
11
 74
0
 42
0.0000001
 43
0.0000001
 44
0.0000000001
 40
0.0
 40
0.0
 40
0.0
 40
0.0
 40
0.1269180325
 40
0.2516168334
 40
0.3744836146
 40
0.4965320361
 40
0.6188423891
 40
0.7427323104
 40
0.8695455231
 40
1.0
 40
1.0
 40
1.0
 40
1.0
 10
39.1730597612
 20
12.1453276315
 30
0.0
 10
39.0848832057
 20
12.1304334781
 30
0.0
 10
38.9070202956
 20
12.1161882579
 30
0.0
 10
38.6430932747
 20
12.1448196275
 30
0.0
 10
38.393326665
 20
12.2251232394
 30
0.0
 10
38.1679146159
 20
12.3564939363
 30
0.0
 10
37.9776187232
 20
12.536345168
 30
0.0
 10
37.8329283519
 20
12.7587637614
 30
0.0
 10
37.7427803232
 20
13.0142807443
 30
0.0
 10
37.7230597611
 20
13.1962943861
 30
0.0
 10
37.7230597611
 20
13.2882117573
 30
0.0
  0
SPLINE
  5
2C4
100
AcDbEntity
  8
0
100
AcDbSpline
 62
7
  6
BYLAYER
 70
0
 71
3
 72
9
 73
5
 74
0
 42
0.0000001
 43
0.0000001
 44
0.0000000001
 40
0.0
 40
0.0
 40
0.0
 40
0.0
 40
0.2582945991
 40
1.0
 40
1.0
 40
1.0
 40
1.0
 10
39.5730194743
 20
12.1797329998
 30
0.0
 10
39.5384325629
 20
12.1797327861
 30
0.0
 10
39.4045337904
 20
12.1766800234
 30
0.0
 10
39.2709905127
 20
12.161869394
 30
0.0
 10
39.1730597612
 20
12.1453276315
 30
0.0
  0
SPLINE
  5
2C5
100
AcDbEntity
  8
0
100
AcDbSpline
 62
7
  6
BYLAYER
 70
0
 71
3
 72
15
 73
11
 74
0
 42
0.0000001
 43
0.0000001
 44
0.0000000001
 40
0.0
 40
0.0
 40
0.0
 40
0.0
 40
0.1212602577
 40
0.2434111475
 40
0.3667704557
 40
0.4914115798
 40
0.6172685108
 40
0.7441775613
 40
0.8719659092
 40
1.0
 40
1.0
 40
1.0
 40
1.0
 10
36.7559097961
 20
11.9746086509
 30
0.0
 10
36.794110789
 20
11.8274653401
 30
0.0
 10
36.8972545183
 20
11.5382976872
 30
0.0
 10
37.12532803
 20
11.1365557437
 30
0.0
 10
37.4209316839
 20
10.7759359397
 30
0.0
 10
37.7758817743
 20
10.4665977303
 30
0.0
 10
38.1801110289
 20
10.2167526204
 30
0.0
 10
38.6227419169
 20
10.0332805075
 30
0.0
 10
39.0912751631
 20
9.9213964827
 30
0.0
 10
39.412546277
 20
9.8961628861
 30
0.0
 10
39.5730597611
 20
9.8961638775
 30
0.0
  0
SPLINE
  5
2C6
100
AcDbEntity
  8
0
100
AcDbSpline
 62
7
  6
BYLAYER
 70
0
 71
3
 72
15
 73
11
 74
0
 42
0.0000001
 43
0.0000001
 44
0.0000000001
 40
0.0
 40
0.0
 40
0.0
 40
0.0
 40
0.1304804783
 40
0.257312777
 40
0.3811874274
 40
0.5034755435
 40
0.6255095605
 40
0.7483657777
 40
0.8730717321
 40
1.0
 40
1.0
 40
1.0
 40
1.0
 10
41.4230597611
 20
26.0134498397
 30
0.0
 10
41.4230597611
 20
25.9215142089
 30
0.0
 10
41.4033100503
 20
25.7394721583
 30
0.0
 10
41.3131681827
 20
25.4839315291
 30
0.0
 10
41.1684623043
 20
25.2615361666
 30
0.0
 10
40.9781833778
 20
25.0817240766
 30
0.0
 10
40.752803874
 20
24.9503665686
 30
0.0
 10
40.5030511169
 20
24.8700589555
 30
0.0
 10
40.239119017
 20
24.8414341987
 30
0.0
 10
40.0612433691
 20
24.8556703692
 30
0.0
 10
39.9730597611
 20
24.8705657139
 30
0.0
  0
SPLINE
  5
2C7
100
AcDbEntity
  8
0
100
AcDbSpline
 62
7
  6
BYLAYER
 70
0
 71
3
 72
9
 73
5
 74
0
 42
0.0000001
 43
0.0000001
 44
0.0000000001
 40
0.0
 40
0.0
 40
0.0
 40
0.0
 40
0.2397046121
 40
1.0
 40
1.0
 40
1.0
 40
1.0
 10
39.9730597611
 20
24.8705657139
 30
0.0
 10
39.9414062324
 20
24.8759124017
 30
0.0
 10
39.8089715371
 20
24.8958357194
 30
0.0
 10
39.6748403683
 20
24.9049710823
 30
0.0
 10
39.5730194743
 20
24.9049710823
 30
0.0
  0
SPLINE
  5
2C8
100
AcDbEntity
  8
0
100
AcDbSpline
 62
7
  6
BYLAYER
 70
0
 71
3
 72
15
 73
11
 74
0
 42
0.0000001
 43
0.0000001
 44
0.0000000001
 40
0.0
 40
0.0
 40
0.0
 40
0.0
 40
0.0295832972
 40
0.0662975838
 40
0.159324438
 40
0.274602187
 40
0.4068154675
 40
0.5508312593
 40
0.701478134
 40
1.0
 40
1.0
 40
1.0
 40
1.0
 10
42.2131355176
 20
23.876859272
 30
0.0
 10
42.2131355176
 20
23.8897880157
 30
0.0
 10
42.215241454
 20
23.9187490523
 30
0.0
 10
42.2253426345
 20
23.9876646265
 30
0.0
 10
42.248748784
 20
24.0922656935
 30
0.0
 10
42.2861910567
 20
24.2362723155
 30
0.0
 10
42.3300377204
 20
24.4016630524
 30
0.0
 10
42.3748754434
 20
24.5827827397
 30
0.0
 10
42.428894059
 20
24.8363242714
 30
0.0
 10
42.4570417195
 20
25.0311758609
 30
0.0
 10
42.4664325903
 20
25.1612999981
 30
0.0
  0
SPLINE
  5
2C9
100
AcDbEntity
  8
0
100
AcDbSpline
 62
7
  6
BYLAYER
 70
0
 71
3
 72
11
 73
7
 74
0
 42
0.0000001
 43
0.0000001
 44
0.0000000001
 40
0.0
 40
0.0
 40
0.0
 40
0.0
 40
0.2557849441
 40
0.508556365
 40
0.7566042059
 40
1.0
 40
1.0
 40
1.0
 40
1.0
 10
39.9730597606
 20
12.2930820589
 30
0.0
 10
40.1303789124
 20
12.2930820589
 30
0.0
 10
40.445323707
 20
12.3414789614
 30
0.0
 10
40.8682504884
 20
12.5529626939
 30
0.0
 10
41.198207854
 20
12.8815789597
 30
0.0
 10
41.3329966017
 20
13.1598999856
 30
0.0
 10
41.3739108263
 20
13.3038996321
 30
0.0
  0
SPLINE
  5
2CA
100
AcDbEntity
  8
0
100
AcDbSpline
 62
7
  6
BYLAYER
 70
0
 71
3
 72
11
 73
7
 74
0
 42
0.0000001
 43
0.0000001
 44
0.0000000001
 40
0.0
 40
0.0
 40
0.0
 40
0.0
 40
0.2433957122
 40
0.4914435339
 40
0.7442149781
 40
1.0
 40
1.0
 40
1.0
 40
1.0
 10
37.7722092174
 20
13.3038977628
 30
0.0
 10
37.8131236302
 20
13.1598983837
 30
0.0
 10
37.9479125145
 20
12.8815778834
 30
0.0
 10
38.2778697497
 20
12.5529622609
 30
0.0
 10
38.7007961956
 20
12.3414788816
 30
0.0
 10
39.0157407252
 20
12.2930820589
 30
0.0
 10
39.1730597615
 20
12.2930820589
 30
0.0
  0
SPLINE
  5
2CB
100
AcDbEntity
  8
0
100
AcDbSpline
 62
7
  6
BYLAYER
 70
0
 71
3
 72
11
 73
7
 74
0
 42
0.0000001
 43
0.0000001
 44
0.0000000001
 40
0.0
 40
0.0
 40
0.0
 40
0.0
 40
0.2557849441
 40
0.508556365
 40
0.7566042059
 40
1.0
 40
1.0
 40
1.0
 40
1.0
 10
39.1730597611
 20
73.8110712294
 30
0.0
 10
39.0157406094
 20
73.8110712294
 30
0.0
 10
38.7007958149
 20
73.7626743268
 30
0.0
 10
38.2778690336
 20
73.5511905943
 30
0.0
 10
37.9479116681
 20
73.2225743285
 30
0.0
 10
37.8131229205
 20
72.9442533027
 30
0.0
 10
37.7722086958
 20
72.8002536562
 30
0.0
  0
SPLINE
  5
2CC
100
AcDbEntity
  8
0
100
AcDbSpline
 62
7
  6
BYLAYER
 70
0
 71
3
 72
11
 73
7
 74
0
 42
0.0000001
 43
0.0000001
 44
0.0000000001
 40
0.0
 40
0.0
 40
0.0
 40
0.0
 40
0.2442611644
 40
0.4927979698
 40
0.7452340822
 40
1.0
 40
1.0
 40
1.0
 40
1.0
 10
42.2131355176
 20
22.4061726557
 30
0.0
 10
42.0982188766
 20
22.1685959355
 30
0.0
 10
41.7923429083
 20
21.7217415289
 30
0.0
 10
41.1588913362
 20
21.2080591879
 30
0.0
 10
40.3992009251
 20
20.8826587834
 30
0.0
 10
39.8483196244
 20
20.8086952003
 30
0.0
 10
39.5730597611
 20
20.8086952003
 30
0.0
  0
SPLINE
  5
2CD
100
AcDbEntity
  8
0
100
AcDbSpline
 62
7
  6
BYLAYER
 70
0
 71
3
 72
15
 73
11
 74
0
 42
0.0000001
 43
0.0000001
 44
0.0000000001
 40
0.0
 40
0.0
 40
0.0
 40
0.0
 40
0.1287445006
 40
0.2570229338
 40
0.38416671
 40
0.5099566429
 40
0.6342304017
 40
0.7570601084
 40
0.8788744406
 40
1.0
 40
1.0
 40
1.0
 40
1.0
 10
39.5730597611
 20
20.8086952003
 30
0.0
 10
39.3837248058
 20
20.8086952003
 30
0.0
 10
39.0048238795
 20
20.8437396121
 30
0.0
 10
38.4583793013
 20
20.9990464175
 30
0.0
 10
37.9541720264
 20
21.2518013087
 30
0.0
 10
37.5117055172
 20
21.5921063305
 30
0.0
 10
37.1481605627
 20
22.0074648615
 30
0.0
 10
36.8774515407
 20
22.4820101578
 30
0.0
 10
36.7107676625
 20
22.9973074468
 30
0.0
 10
36.6730597611
 20
23.3556734551
 30
0.0
 10
36.6730597611
 20
23.5338038006
 30
0.0
  0
SPLINE
  5
2CE
100
AcDbEntity
  8
0
100
AcDbSpline
 62
7
  6
BYLAYER
 70
0
 71
3
 72
11
 73
7
 74
0
 42
0.0000001
 43
0.0000001
 44
0.0000000001
 40
0.0
 40
0.0
 40
0.0
 40
0.0
 40
0.2547659868
 40
0.5072021177
 40
0.7557389024
 40
1.0
 40
1.0
 40
1.0
 40
1.0
 10
39.5730597611
 20
78.0206961704
 30
0.0
 10
39.8483196989
 20
78.0206961704
 30
0.0
 10
40.3992010967
 20
77.946732554
 30
0.0
 10
41.1588915485
 20
77.6213320552
 30
0.0
 10
41.7923430155
 20
77.1076497058
 30
0.0
 10
42.0982189081
 20
76.6607953702
 30
0.0
 10
42.2131355176
 20
76.4232187151
 30
0.0
  0
SPLINE
  5
2CF
100
AcDbEntity
  8
0
100
AcDbSpline
 62
7
  6
BYLAYER
 70
0
 71
3
 72
15
 73
11
 74
0
 42
0.0000001
 43
0.0000001
 44
0.0000000001
 40
0.0
 40
0.0
 40
0.0
 40
0.0
 40
0.1211255236
 40
0.2429397929
 40
0.365769479
 40
0.4900432295
 40
0.6158331676
 40
0.7429769629
 40
0.8712554617
 40
1.0
 40
1.0
 40
1.0
 40
1.0
 10
36.6730597611
 20
75.2955875701
 30
0.0
 10
36.6730597611
 20
75.473717863
 30
0.0
 10
36.7107675736
 20
75.8320837341
 30
0.0
 10
36.877451406
 20
76.3473808536
 30
0.0
 10
37.1481602662
 20
76.8219260784
 30
0.0
 10
37.5117051118
 20
77.2372846603
 30
0.0
 10
37.9541715697
 20
77.5775897862
 30
0.0
 10
38.4583789243
 20
77.8303448289
 30
0.0
 10
39.0048236785
 20
77.9856516753
 30
0.0
 10
39.3837247503
 20
78.0206961704
 30
0.0
 10
39.5730597611
 20
78.0206961704
 30
0.0
  0
SPLINE
  5
2D0
100
AcDbEntity
  8
0
100
AcDbSpline
 62
7
  6
BYLAYER
 70
0
 71
3
 72
9
 73
5
 74
0
 42
0.0000001
 43
0.0000001
 44
0.0000000001
 40
0.0
 40
0.0
 40
0.0
 40
0.0
 40
0.2397032895
 40
1.0
 40
1.0
 40
1.0
 40
1.0
 10
39.9730597611
 20
73.9588256568
 30
0.0
 10
39.9414064094
 20
73.9534789989
 30
0.0
 10
39.8089715952
 20
73.9335565734
 30
0.0
 10
39.6748405398
 20
73.924420275
 30
0.0
 10
39.5730194761
 20
73.924420275
 30
0.0
  0
SPLINE
  5
2D1
100
AcDbEntity
  8
0
100
AcDbSpline
 62
7
  6
BYLAYER
 70
0
 71
3
 72
9
 73
5
 74
0
 42
0.0000001
 43
0.0000001
 44
0.0000000001
 40
0.0
 40
0.0
 40
0.0
 40
0.0
 40
0.2582933602
 40
1.0
 40
1.0
 40
1.0
 40
1.0
 10
39.5730194761
 20
73.924420275
 30
0.0
 10
39.5384327269
 20
73.924420275
 30
0.0
 10
39.4045339045
 20
73.9274722946
 30
0.0
 10
39.2709906868
 20
73.9422838649
 30
0.0
 10
39.1730597612
 20
73.9588256568
 30
0.0
  0
ENDSEC
  0
SECTION
  2
OBJECTS
  0
DICTIONARY
  5
C
100
AcDbDictionary
280
0
281
1
  3
ACAD_GROUP
350
D
  3
ACAD_MLINESTYLE
350
17
  3
ACAD_LAYOUT
350
1A
  3
ACAD_PLOTSETTINGS
350
19
  3
ACAD_PLOTSTYLENAME
350
E
  0
DICTIONARY
  5
D
102
{ACAD_REACTORS
330
C
102
}
100
AcDbDictionary
280
0
281
1
  0
ACDBDICTIONARYWDFLT
  5
E
102
{ACAD_REACTORS
330
C
102
}
100
AcDbDictionary
281
1
  3
Normal
350
F
100
AcDbDictionaryWithDefault
340
F
  0
DICTIONARY
  5
17
102
{ACAD_REACTORS
330
C
102
}
100
AcDbDictionary
280
0
281
1
  3
Standard
350
18
  0
DICTIONARY
  5
19
102
{ACAD_REACTORS
330
C
102
}
100
AcDbDictionary
281
1
  0
DICTIONARY
  5
1A
102
{ACAD_REACTORS
330
C
102
}
100
AcDbDictionary
281
1
  3
Model
350
2D2
  3
Layout1
350
2D3
  0
ACDBPLACEHOLDER
  5
F
102
{ACAD_REACTORS
330
E
102
}
  0
MLINESTYLE
  5
18
102
{ACAD_REACTORS
330
17
102
}
100
AcDbMlineStyle
  2
STANDARD
 70
0
  3

 62
256
 51
90.0
 52
90.0
 71
2
 49
0.5
 62
256
  6
BYLAYER
 49
-0.5
 62
256
  6
BYLAYER
  0
LAYOUT
  5
2D2
102
{ACAD_REACTORS
330
1A
102
}
100
AcDbPlotSettings
  1

  2
none_device
  4

  6

 40
0.0
 41
0.0
 42
0.0
 43
0.0
 44
210.0
 45
297.0
 46
0.0
 47
0.0
 48
0.0
 49
0.0
140
0.0
141
0.0
142
1.0
143
1.0
 70
1024
 72
1
 73
0
 74
0
  7

 75
0
147
1.0
148
0.0
149
0.0
100
AcDbLayout
  1
Model
 70
0
 71
0
 10
0.0
 20
0.0
 11
210.0
 21
297.0
 12
0.0
 22
0.0
 32
0.0
 14
0.0
 24
0.0
 34
0.0
 15
0.0
 25
0.0
 35
0.0
146
0.0
 13
0.0
 23
0.0
 33
0.0
 16
1.0
 26
0.0
 36
0.0
 17
0.0
 27
1.0
 37
0.0
 76
0
330
210
345
0
346
0
  0
LAYOUT
  5
2D3
102
{ACAD_REACTORS
330
1A
102
}
100
AcDbPlotSettings
  1

  2
none_device
  4

  6

 40
0.0
 41
0.0
 42
0.0
 43
0.0
 44
210.0
 45
297.0
 46
0.0
 47
0.0
 48
0.0
 49
0.0
140
0.0
141
0.0
142
1.0
143
1.0
 70
0
 72
1
 73
0
 74
0
  7

 75
0
147
1.0
148
0.0
149
0.0
100
AcDbLayout
  1
Layout1
 70
0
 71
1
 10
0.0
 20
0.0
 11
210.0
 21
297.0
 12
0.0
 22
0.0
 32
0.0
 14
0.0
 24
0.0
 34
0.0
 15
0.0
 25
0.0
 35
0.0
146
0.0
 13
0.0
 23
0.0
 33
0.0
 16
1.0
 26
0.0
 36
0.0
 17
0.0
 27
1.0
 37
0.0
 76
0
330
211
345
0
346
0
  0
ENDSEC
  0
EOF
