999
DXF file: C:\Users\sesa63760\Dev\_Creo\CAD\MCADID0001740_3D-CAD\drw0001_4.dxf
999
Pro/ENGINEER 2019471 by Parametric Technology Corporation
  0
SECTION
  2
HEADER
  9
$ACADVER
  1
AC1024
  9
$DWGCODEPAGE
  3
ANSI_1252
  9
$EXTMAX
 10
89.6228970066
 20
126.7523829094
 30
0.0
  9
$EXTMIN
 10
0.0
 20
0.0
 30
0.0
  9
$LIMMIN
 10
0.0
 20
0.0
  9
$LIMMAX
 10
89.6228970066
 20
126.7523829094
  9
$VIEWCTR
 10
44.8114485033
 20
63.3761914547
  9
$VIEWSIZE
 40
126.7523829094
  9
$CLAYER
  8
0
  9
$LTSCALE
 40
8.2623775526
  9
$CELTYPE
  6
BYLAYER
  9
$DIMSCALE
 40
1.0
  9
$DIMASZ
 40
1.0669392501
  9
$DIMEXO
 40
1.0
  9
$DIMDLI
 40
5.7085517636
  9
$DIMEXE
 40
1.0
  9
$DIMCEN
 40
1.3520254177
  9
$DIMLFAC
 40
1.0
  9
$DIMBLK
  1
_FILLED
  9
$DIMALT
 70
0
  9
$DIMALTF
 40
0.0393700787
  9
$DIMTXT
 40
1.4937149501
  9
$DIMTOL
 70
1
  9
$DIMLIM
 70
0
  9
$DIMTFAC
 40
1.0
  9
$DIMTP
 40
0.01
  9
$DIMTM
 40
0.01
  9
$DIMGAP
 40
0.625
  9
$DIMDSEP
 70
46
  9
$AUNITS
 70
0
  9
$PDMODE
 70
3
  9
$PDSIZE
 40
0.3125
  9
$HANDSEED
  5
343
  9
$TILEMODE
 70
1
  9
$MEASUREMENT
 70
1
  9
$INSUNITS
 70
4
  0
ENDSEC
  0
SECTION
  2
CLASSES
  0
CLASS
  1
ACDBDICTIONARYWDFLT
  2
AcDbDictionaryWithDefault
  3
AutoCAD 2000
 90
0
 91
1
280
0
281
0
  0
CLASS
  1
ACDBPLACEHOLDER
  2
AcDbPlaceHolder
  3
AutoCAD 2000
 90
0
 91
1
280
0
281
0
  0
CLASS
  1
LAYOUT
  2
AcDbLayout
  3
AutoCAD 2000
 90
0
 91
0
280
0
281
0
  0
ENDSEC
  0
SECTION
  2
TABLES
  0
TABLE
  2
VPORT
  5
8
100
AcDbSymbolTable
 70
2
  0
VPORT
  5
1F4
100
AcDbSymbolTableRecord
100
AcDbViewportTableRecord
  2
*ACTIVE
 70
0
 10
0.0
 20
0.0
 11
1.0
 21
1.0
 12
44.8114485033
 22
63.3761914547
 13
0.0
 23
0.0
 14
1.0
 24
1.0
 15
0.0
 25
0.0
 16
0.0
 26
0.0
 36
1.0
 17
0.0
 27
0.0
 37
0.0
 40
126.7523829094
 41
0.7070707071
 42
50.0
 43
0.0
 44
0.0
 50
0.0
 51
0.0
 71
0
 72
100
 73
1
 74
1
 75
0
 76
0
 77
0
 78
0
  0
ENDTAB
  0
TABLE
  2
LTYPE
  5
5
100
AcDbSymbolTable
 70
6
  0
LTYPE
  5
14
100
AcDbSymbolTableRecord
100
AcDbLinetypeTableRecord
  2
BYBLOCK
 70
0
  3

 72
65
 73
0
 40
0.0
  0
LTYPE
  5
15
100
AcDbSymbolTableRecord
100
AcDbLinetypeTableRecord
  2
BYLAYER
 70
0
  3

 72
65
 73
0
 40
0.0
  0
LTYPE
  5
16
100
AcDbSymbolTableRecord
100
AcDbLinetypeTableRecord
  2
CONTINUOUS
 70
64
  3
Solid line
 72
65
 73
0
 40
0.0
  0
LTYPE
  5
1F5
100
AcDbSymbolTableRecord
100
AcDbLinetypeTableRecord
  2
CENTER
 70
64
  3
____ _ ____ _ ____ _ ____ _ ____ _ ____ _ ____
 72
65
 73
4
 40
0.6
 49
0.375
 74
0
 49
-0.075
 74
0
 49
0.075
 74
0
 49
-0.075
 74
0
  0
LTYPE
  5
1F6
100
AcDbSymbolTableRecord
100
AcDbLinetypeTableRecord
  2
HIDDEN
 70
64
  3
- - - - - - - - - - - - - - - - - - - -
 72
65
 73
2
 40
0.2
 49
0.1
 74
0
 49
-0.1
 74
0
  0
LTYPE
  5
1F7
100
AcDbSymbolTableRecord
100
AcDbLinetypeTableRecord
  2
PHANTOM
 70
64
  3
_____ _ _ _____ _ _ _____ _ _ _____
 72
65
 73
6
 40
0.8
 49
0.45
 74
0
 49
-0.05
 74
0
 49
0.1
 74
0
 49
-0.05
 74
0
 49
0.1
 74
0
 49
-0.05
 74
0
  0
LTYPE
  5
1F8
100
AcDbSymbolTableRecord
100
AcDbLinetypeTableRecord
  2
DOT
 70
64
  3
. . . . . . . . . . . . . . . . . . . .
 72
65
 73
2
 40
0.2
 49
0.1
 74
0
 49
-0.1
 74
0
  0
LTYPE
  5
1F9
100
AcDbSymbolTableRecord
100
AcDbLinetypeTableRecord
  2
DASHED
 70
64
  3
- - - - - - - - - - - - - - - - - - - -
 72
65
 73
2
 40
0.2
 49
0.1
 74
0
 49
-0.1
 74
0
  0
ENDTAB
  0
TABLE
  2
LAYER
  5
2
100
AcDbSymbolTable
 70
36
  0
LAYER
  5
10
100
AcDbSymbolTableRecord
100
AcDbLayerTableRecord
  2
0
 70
0
 62
7
  6
CONTINUOUS
370
-3
390
F
  0
LAYER
  5
1FA
100
AcDbSymbolTableRecord
100
AcDbLayerTableRecord
  2
DEFAULT_1
 70
0
 62
7
  6
CENTER
370
-3
390
F
  0
LAYER
  5
1FB
100
AcDbSymbolTableRecord
100
AcDbLayerTableRecord
  2
DEFAULT_2
 70
0
 62
8
  6
HIDDEN
370
-3
390
F
  0
LAYER
  5
1FC
100
AcDbSymbolTableRecord
100
AcDbLayerTableRecord
  2
DEFAULT_3
 70
0
 62
7
  6
PHANTOM
370
-3
390
F
  0
LAYER
  5
1FD
100
AcDbSymbolTableRecord
100
AcDbLayerTableRecord
  2
00_COMPONENTS
 70
0
 62
7
  6
CONTINUOUS
370
-3
390
F
  0
LAYER
  5
1FE
100
AcDbSymbolTableRecord
100
AcDbLayerTableRecord
  2
01_1_DEFAULT_DATUMS
 70
0
 62
7
  6
CONTINUOUS
370
-3
390
F
  0
LAYER
  5
1FF
100
AcDbSymbolTableRecord
100
AcDbLayerTableRecord
  2
01_PLANES
 70
0
 62
7
  6
CONTINUOUS
370
-3
390
F
  0
LAYER
  5
200
100
AcDbSymbolTableRecord
100
AcDbLayerTableRecord
  2
02_COORD_SYS
 70
0
 62
7
  6
CONTINUOUS
370
-3
390
F
  0
LAYER
  5
201
100
AcDbSymbolTableRecord
100
AcDbLayerTableRecord
  2
03_AXES
 70
0
 62
7
  6
CONTINUOUS
370
-3
390
F
  0
LAYER
  5
202
100
AcDbSymbolTableRecord
100
AcDbLayerTableRecord
  2
04_POINTS
 70
0
 62
7
  6
CONTINUOUS
370
-3
390
F
  0
LAYER
  5
203
100
AcDbSymbolTableRecord
100
AcDbLayerTableRecord
  2
05_CURVES
 70
0
 62
7
  6
CONTINUOUS
370
-3
390
F
  0
LAYER
  5
204
100
AcDbSymbolTableRecord
100
AcDbLayerTableRecord
  2
06_SURFS
 70
0
 62
7
  6
CONTINUOUS
370
-3
390
F
  0
LAYER
  5
205
100
AcDbSymbolTableRecord
100
AcDbLayerTableRecord
  2
07_COSMETICS
 70
0
 62
7
  6
CONTINUOUS
370
-3
390
F
  0
LAYER
  5
206
100
AcDbSymbolTableRecord
100
AcDbLayerTableRecord
  2
10_NOTES
 70
0
 62
7
  6
CONTINUOUS
370
-3
390
F
  0
LAYER
  5
207
100
AcDbSymbolTableRecord
100
AcDbLayerTableRecord
  2
11_NOTES_PUB
 70
0
 62
7
  6
CONTINUOUS
370
-3
390
F
  0
LAYER
  5
208
100
AcDbSymbolTableRecord
100
AcDbLayerTableRecord
  2
13_REF_GTOL
 70
0
 62
7
  6
CONTINUOUS
370
-3
390
F
  0
LAYER
  5
209
100
AcDbSymbolTableRecord
100
AcDbLayerTableRecord
  2
16_MISC
 70
0
 62
7
  6
CONTINUOUS
370
-3
390
F
  0
LAYER
  5
20A
100
AcDbSymbolTableRecord
100
AcDbLayerTableRecord
  2
17_NO_PRINT
 70
0
 62
7
  6
CONTINUOUS
370
-3
390
F
  0
LAYER
  5
20B
100
AcDbSymbolTableRecord
100
AcDbLayerTableRecord
  2
18_DATUM_CAMS_JOINTS
 70
0
 62
7
  6
CONTINUOUS
370
-3
390
F
  0
LAYER
  5
20C
100
AcDbSymbolTableRecord
100
AcDbLayerTableRecord
  2
19_DATUM_FUNCTIONAL
 70
0
 62
7
  6
CONTINUOUS
370
-3
390
F
  0
LAYER
  5
20D
100
AcDbSymbolTableRecord
100
AcDbLayerTableRecord
  2
20_DATUM_KINEMATIC_SCHEME
 70
0
 62
7
  6
CONTINUOUS
370
-3
390
F
  0
ENDTAB
  0
TABLE
  2
STYLE
  5
3
100
AcDbSymbolTable
 70
1
  0
STYLE
  5
11
100
AcDbSymbolTableRecord
100
AcDbTextStyleTableRecord
  2
STANDARD
 70
0
 40
0.0
 41
0.8
 50
0.0
 71
0
 42
0.2
  3
txt
  4

  0
STYLE
  5
20E
100
AcDbSymbolTableRecord
100
AcDbTextStyleTableRecord
  2
TEXTSTYLE_1
 70
0
 40
0.0
 41
0.8
 50
0.0
 71
0
 42
0.2
  3
gdt
  4

  0
ENDTAB
  0
TABLE
  2
VIEW
  5
6
100
AcDbSymbolTable
 70
0
  0
ENDTAB
  0
TABLE
  2
UCS
  5
7
100
AcDbSymbolTable
 70
0
  0
ENDTAB
  0
TABLE
  2
APPID
  5
9
100
AcDbSymbolTable
 70
1
  0
APPID
  5
20F
100
AcDbSymbolTableRecord
100
AcDbRegAppTableRecord
  2
ACAD
 70
0
  0
ENDTAB
  0
TABLE
  2
BLOCK_RECORD
  5
1
100
AcDbSymbolTable
 70
0
  0
BLOCK_RECORD
  5
210
100
AcDbSymbolTableRecord
100
AcDbBlockTableRecord
  2
*Model_Space
  0
BLOCK_RECORD
  5
211
100
AcDbSymbolTableRecord
100
AcDbBlockTableRecord
  2
*Paper_Space
  0
BLOCK_RECORD
  5
212
100
AcDbSymbolTableRecord
100
AcDbBlockTableRecord
  2
_FILLED
  0
ENDTAB
  0
TABLE
  2
DIMSTYLE
  5
A
100
AcDbSymbolTable
 70
1
100
AcDbDimStyleTable
 71
0
  0
DIMSTYLE
105
213
100
AcDbSymbolTableRecord
100
AcDbDimStyleTableRecord
  2
STANDARD
 70
0
  3

  4

 40
1.0
 41
1.0669392501
 42
1.0
 43
0.38
 44
1.0
 45
0.0
 46
0.0
 47
0.01
 48
0.01
140
1.4937149501
141
0.09
142
0.0
143
25.4
144
1.0
145
0.0
146
1.0
147
0.625
 71
1
 72
0
 73
0
 74
0
 75
0
 76
0
 77
1
 78
8
 79
2
170
0
171
1
172
0
173
0
174
0
175
0
176
0
177
0
178
0
270
2
179
2
271
2
272
2
273
2
274
2
275
0
280
0
281
0
282
0
283
1
284
8
285
0
286
0
287
3
288
0
340
11
278
46
341
212
342
212
343
212
344
212
  0
ENDTAB
  0
ENDSEC
  0
SECTION
  2
BLOCKS
  0
BLOCK
  5
20
100
AcDbEntity
  8
0
100
AcDbBlockBegin
  2
*Model_Space
 70
0
 10
0.0
 20
0.0
 30
0.0
  3
*Model_Space
  1

  0
ENDBLK
  5
21
100
AcDbEntity
  8
0
100
AcDbBlockEnd
  0
BLOCK
  5
1C
100
AcDbEntity
  8
0
100
AcDbBlockBegin
  2
*Paper_Space
 70
0
 10
0.0
 20
0.0
 30
0.0
  3
*Paper_Space
  1

  0
ENDBLK
  5
1D
100
AcDbEntity
  8
0
100
AcDbBlockEnd
  0
BLOCK
  5
214
100
AcDbEntity
  8
0
100
AcDbBlockBegin
  2
_FILLED
 70
64
 10
0.0
 20
0.0
  3
_FILLED
  1

  0
SOLID
  5
215
100
AcDbEntity
  8
0
  6
BYBLOCK
 62
0
100
AcDbTrace
 10
0.0
 20
0.0
 11
-1.0
 21
0.25
 12
-1.0
 22
-0.25
 13
-1.0
 23
-0.25
  0
ENDBLK
  5
216
100
AcDbEntity
  8
0
  6
BYBLOCK
 62
0
100
AcDbBlockEnd
  0
ENDSEC
  0
SECTION
  2
ENTITIES
  0
LINE
  5
217
100
AcDbEntity
  8
0
100
AcDbLine
 62
7
  6
CONTINUOUS
 10
57.5802833866
 20
19.5799740948
 11
57.8704197486
 21
19.6064095103
  0
LINE
  5
218
100
AcDbEntity
  8
0
100
AcDbLine
 62
7
  6
CONTINUOUS
 10
76.7083587932
 20
16.5883313473
 11
79.1083587932
 21
16.5883313473
  0
LINE
  5
219
100
AcDbEntity
  8
0
100
AcDbLine
 62
7
  6
CONTINUOUS
 10
79.2823881954
 20
17.5753011323
 11
76.7083587932
 21
17.5753011323
  0
LINE
  5
21A
100
AcDbEntity
  8
0
100
AcDbLine
 62
7
  6
CONTINUOUS
 10
81.9683587932
 20
19.3883313473
 11
57.973882432
 21
19.388329357
  0
LINE
  5
21B
100
AcDbEntity
  8
0
100
AcDbLine
 62
7
  6
CONTINUOUS
 10
72.4683587932
 20
19.8883051667
 11
58.2821594397
 21
19.8882788667
  0
LINE
  5
21C
100
AcDbEntity
  8
0
100
AcDbLine
 62
7
  6
CONTINUOUS
 10
81.9683587932
 20
19.8883313473
 11
72.5683587932
 21
19.8883313473
  0
LINE
  5
21D
100
AcDbEntity
  8
0
100
AcDbLine
 62
7
  6
CONTINUOUS
 10
72.5683587932
 20
20.7383313473
 11
72.4683587932
 21
20.7383313473
  0
LINE
  5
21E
100
AcDbEntity
  8
0
100
AcDbLine
 62
7
  6
CONTINUOUS
 10
72.5683587932
 20
21.1383313473
 11
72.4683587932
 21
21.1383313473
  0
LINE
  5
21F
100
AcDbEntity
  8
0
100
AcDbLine
 62
7
  6
CONTINUOUS
 10
72.5683587932
 20
22.4883313473
 11
74.7683587932
 21
22.4883313473
  0
LINE
  5
220
100
AcDbEntity
  8
0
100
AcDbLine
 62
7
  6
CONTINUOUS
 10
74.7683587932
 20
22.5383313473
 11
72.4683587932
 21
22.5383313473
  0
LINE
  5
221
100
AcDbEntity
  8
0
100
AcDbLine
 62
7
  6
CONTINUOUS
 10
9.9683587932
 20
84.9883313473
 11
9.9683587932
 21
42.5883313473
  0
LINE
  5
222
100
AcDbEntity
  8
0
100
AcDbLine
 62
7
  6
CONTINUOUS
 10
10.7632154105
 20
83.1883313473
 11
10.7632154105
 21
84.097976307
  0
LINE
  5
223
100
AcDbEntity
  8
0
100
AcDbLine
 62
7
  6
CONTINUOUS
 10
11.1952116594
 20
83.1543412243
 11
11.1952116594
 21
42.5883313473
  0
LINE
  5
224
100
AcDbEntity
  8
0
100
AcDbLine
 62
7
  6
CONTINUOUS
 10
11.7524845087
 20
83.3496648609
 11
11.8818940946
 21
83.8326280105
  0
LINE
  5
225
100
AcDbEntity
  8
0
100
AcDbLine
 62
7
  6
CONTINUOUS
 10
11.6747641117
 20
42.0883313473
 11
11.6747641117
 21
83.025845532
  0
LINE
  5
226
100
AcDbEntity
  8
0
100
AcDbLine
 62
7
  6
CONTINUOUS
 10
12.2183587932
 20
86.3883311025
 11
12.2183587932
 21
86.8883313473
  0
LINE
  5
227
100
AcDbEntity
  8
0
100
AcDbLine
 62
7
  6
CONTINUOUS
 10
39.1682709784
 20
30.8758817112
 11
38.8780618546
 21
30.8519299193
  0
LINE
  5
228
100
AcDbEntity
  8
0
100
AcDbLine
 62
7
  6
CONTINUOUS
 10
51.7683587932
 20
30.6383313473
 11
74.7683587932
 21
30.6383313473
  0
LINE
  5
229
100
AcDbEntity
  8
0
100
AcDbLine
 62
7
  6
CONTINUOUS
 10
51.7683587932
 20
30.6583313473
 11
39.2731846612
 21
30.6583296317
  0
LINE
  5
22A
100
AcDbEntity
  8
0
100
AcDbLine
 62
7
  6
CONTINUOUS
 10
51.7683587932
 20
31.1583313473
 11
39.5798022503
 21
31.1583120447
  0
LINE
  5
22B
100
AcDbEntity
  8
0
100
AcDbLine
 62
7
  6
CONTINUOUS
 10
16.4683587932
 20
42.0883313473
 11
16.4683587932
 21
81.970951017
  0
LINE
  5
22C
100
AcDbEntity
  8
0
100
AcDbLine
 62
7
  6
CONTINUOUS
 10
16.9683587932
 20
41.8883313473
 11
16.9683587932
 21
82.4697136488
  0
LINE
  5
22D
100
AcDbEntity
  8
0
100
AcDbLine
 62
7
  6
CONTINUOUS
 10
18.4683587932
 20
86.8883313473
 11
18.4683587932
 21
41.8883313473
  0
LINE
  5
22E
100
AcDbEntity
  8
0
100
AcDbLine
 62
7
  6
CONTINUOUS
 10
37.8721043173
 20
32.7227984987
 11
38.068793673
 21
32.7281600667
  0
LINE
  5
22F
100
AcDbEntity
  8
0
100
AcDbLine
 62
7
  6
CONTINUOUS
 10
36.8678681868
 20
35.947340586
 11
36.7460094709
 21
35.945658131
  0
LINE
  5
230
100
AcDbEntity
  8
0
100
AcDbLine
 62
7
  6
CONTINUOUS
 10
51.7683587932
 20
33.7383313473
 11
53.9683587932
 21
33.7383313473
  0
LINE
  5
231
100
AcDbEntity
  8
0
100
AcDbLine
 62
7
  6
CONTINUOUS
 10
53.9683587932
 20
33.8083313473
 11
51.7683587932
 21
33.8083313473
  0
LINE
  5
232
100
AcDbEntity
  8
0
100
AcDbLine
 62
7
  6
CONTINUOUS
 10
36.9890365268
 20
35.8083313473
 11
36.7500386146
 21
35.8083313473
  0
LWPOLYLINE
  5
233
100
AcDbEntity
  8
0
100
AcDbPolyline
 62
7
  6
CONTINUOUS
 90
7
 70
0
 10
36.780246243
 20
97.946448242
 10
36.0474897141
 20
96.7869148065
 10
35.3514684402
 20
95.3703402172
 10
34.6620199354
 20
93.735126031
 10
33.9587112404
 20
91.8337533623
 10
33.2361513596
 20
89.5828393116
 10
32.5333997853
 20
86.8883313473
  0
LINE
  5
234
100
AcDbEntity
  8
0
100
AcDbLine
 62
7
  6
CONTINUOUS
 10
35.8202178573
 20
38.6829121874
 11
35.5600046171
 21
38.6662912159
  0
LINE
  5
235
100
AcDbEntity
  8
0
100
AcDbLine
 62
7
  6
CONTINUOUS
 10
35.5038025878
 20
38.6627309081
 11
35.5320834159
 21
38.6645221149
  0
LINE
  5
236
100
AcDbEntity
  8
0
100
AcDbLine
 62
7
  6
CONTINUOUS
 10
36.3582581045
 20
38.7413863736
 11
35.9966313239
 21
38.7206249292
  0
LINE
  5
237
100
AcDbEntity
  8
0
100
AcDbLine
 62
7
  6
CONTINUOUS
 10
36.3582581045
 20
38.7413863736
 11
35.8516752728
 21
38.7124210327
  0
LINE
  5
238
100
AcDbEntity
  8
0
100
AcDbLine
 62
7
  6
CONTINUOUS
 10
36.644121843
 20
35.9437385261
 11
36.5620049311
 21
35.9415803708
  0
LINE
  5
239
100
AcDbEntity
  8
0
100
AcDbLine
 62
7
  6
CONTINUOUS
 10
36.8676840069
 20
35.9479164541
 11
36.5617285011
 21
35.9423619873
  0
LINE
  5
23A
100
AcDbEntity
  8
0
100
AcDbLine
 62
7
  6
CONTINUOUS
 10
35.8202209582
 20
38.6829169294
 11
35.8190788752
 21
38.6831056888
  0
LWPOLYLINE
  5
23B
100
AcDbEntity
  8
0
100
AcDbPolyline
 62
7
  6
CONTINUOUS
 90
15
 70
0
 10
36.9674997591
 20
35.8359836622
 10
36.9768465165
 20
35.8257971818
 10
37.0310286929
 20
35.7481650144
 10
37.116523878
 20
35.5943148128
 10
37.2306415034
 20
35.3527238735
 10
37.3754292015
 20
35.0036494761
 10
37.5553015368
 20
34.5189463737
 10
37.6973121001
 20
34.1040427077
 10
37.8109797924
 20
33.7540871208
 10
37.899168819
 20
33.4707562147
 10
37.9659177229
 20
33.2463510897
 10
38.0138267221
 20
33.0751038955
 10
38.0451154117
 20
32.9511991743
 10
38.0615595468
 20
32.8712334383
 10
38.0649607806
 20
32.846520638
  0
LINE
  5
23C
100
AcDbEntity
  8
0
100
AcDbLine
 62
7
  6
CONTINUOUS
 10
23.9683587932
 20
43.5883313473
 11
23.9683587932
 21
41.8883313473
  0
LINE
  5
23D
100
AcDbEntity
  8
0
100
AcDbLine
 62
7
  6
CONTINUOUS
 10
23.9683587932
 20
85.1883313473
 11
23.9683587932
 21
86.8883313473
  0
LINE
  5
23E
100
AcDbEntity
  8
0
100
AcDbLine
 62
7
  6
CONTINUOUS
 10
24.2183587932
 20
41.8883313473
 11
24.2183587932
 21
43.4883313473
  0
LINE
  5
23F
100
AcDbEntity
  8
0
100
AcDbLine
 62
7
  6
CONTINUOUS
 10
24.2183587932
 20
85.2883313473
 11
24.2183587932
 21
86.8883313473
  0
LINE
  5
240
100
AcDbEntity
  8
0
100
AcDbLine
 62
7
  6
CONTINUOUS
 10
25.9683587932
 20
85.2883313473
 11
25.9683587932
 21
85.1883313473
  0
LINE
  5
241
100
AcDbEntity
  8
0
100
AcDbLine
 62
7
  6
CONTINUOUS
 10
25.9683587932
 20
43.4883313473
 11
25.9683587932
 21
43.5883313473
  0
LINE
  5
242
100
AcDbEntity
  8
0
100
AcDbLine
 62
7
  6
CONTINUOUS
 10
35.8244407632
 20
41.4083313473
 11
35.1896012974
 21
41.4083313473
  0
LINE
  5
243
100
AcDbEntity
  8
0
100
AcDbLine
 62
7
  6
CONTINUOUS
 10
35.1411826829
 20
41.4083313473
 11
34.8187739431
 21
41.4083313473
  0
LINE
  5
244
100
AcDbEntity
  8
0
100
AcDbLine
 62
7
  6
CONTINUOUS
 10
34.7838865257
 20
41.4083313473
 11
34.7484718966
 21
41.4083313473
  0
LINE
  5
245
100
AcDbEntity
  8
0
100
AcDbLine
 62
7
  6
CONTINUOUS
 10
16.9683587932
 20
41.8883313473
 11
53.9683587932
 21
41.8883313473
  0
LINE
  5
246
100
AcDbEntity
  8
0
100
AcDbLine
 62
7
  6
CONTINUOUS
 10
10.4684235622
 20
42.0883313473
 11
16.4683587932
 21
42.0883313473
  0
LINE
  5
247
100
AcDbEntity
  8
0
100
AcDbLine
 62
7
  6
CONTINUOUS
 10
33.6683587932
 20
42.3883313473
 11
30.9683587932
 21
42.3883313473
  0
LINE
  5
248
100
AcDbEntity
  8
0
100
AcDbLine
 62
7
  6
CONTINUOUS
 10
30.7183587932
 20
42.3883313473
 11
24.2183587932
 21
42.3883313473
  0
LINE
  5
249
100
AcDbEntity
  8
0
100
AcDbLine
 62
7
  6
CONTINUOUS
 10
23.9683587932
 20
42.3883313473
 11
16.4683587932
 21
42.3883313473
  0
LINE
  5
24A
100
AcDbEntity
  8
0
100
AcDbLine
 62
7
  6
CONTINUOUS
 10
16.4683587932
 20
42.5883313473
 11
9.9683587932
 21
42.5883313473
  0
LINE
  5
24B
100
AcDbEntity
  8
0
100
AcDbLine
 62
7
  6
CONTINUOUS
 10
24.2183587932
 20
43.0883313473
 11
30.7183587932
 21
43.0883313473
  0
LINE
  5
24C
100
AcDbEntity
  8
0
100
AcDbLine
 62
7
  6
CONTINUOUS
 10
23.9683587932
 20
43.4883313473
 11
30.9683587932
 21
43.4883313473
  0
LINE
  5
24D
100
AcDbEntity
  8
0
100
AcDbLine
 62
7
  6
CONTINUOUS
 10
30.9683587932
 20
43.5883313473
 11
23.9683587932
 21
43.5883313473
  0
LWPOLYLINE
  5
24E
100
AcDbEntity
  8
0
100
AcDbPolyline
 62
7
  6
CONTINUOUS
 90
3
 70
0
 10
37.7855079786
 20
32.7215929746
 10
38.1090563363
 20
32.0884104133
 10
38.8781262553
 20
30.8520720563
  0
LINE
  5
24F
100
AcDbEntity
  8
0
100
AcDbLine
 62
7
  6
CONTINUOUS
 10
37.7100906219
 20
32.8848678633
 11
37.7323468942
 21
32.8358301987
  0
LWPOLYLINE
  5
250
100
AcDbEntity
  8
0
100
AcDbPolyline
 62
7
  6
CONTINUOUS
 90
5
 70
0
 10
37.0823218823
 20
34.3315838787
 10
37.3414391875
 20
33.7173292433
 10
37.5781034757
 20
33.1757087235
 10
37.7322497626
 20
32.8360389906
 10
37.7846191868
 20
32.7234667761
  0
LINE
  5
251
100
AcDbEntity
  8
0
100
AcDbLine
 62
7
  6
CONTINUOUS
 10
36.8297837648
 20
34.9460823157
 11
37.0823223666
 21
34.3315840472
  0
LINE
  5
252
100
AcDbEntity
  8
0
100
AcDbLine
 62
7
  6
CONTINUOUS
 10
36.4290565661
 20
35.9376742806
 11
36.4290048861
 21
35.9378002961
  0
LINE
  5
253
100
AcDbEntity
  8
0
100
AcDbLine
 62
7
  6
CONTINUOUS
 10
28.9683587932
 20
85.2883313473
 11
28.9683587932
 21
85.1883313473
  0
LINE
  5
254
100
AcDbEntity
  8
0
100
AcDbLine
 62
7
  6
CONTINUOUS
 10
28.9683587932
 20
43.4883313473
 11
28.9683587932
 21
43.5883313473
  0
LINE
  5
255
100
AcDbEntity
  8
0
100
AcDbLine
 62
7
  6
CONTINUOUS
 10
30.7183587932
 20
43.4883313473
 11
30.7183587932
 21
41.8883313473
  0
LINE
  5
256
100
AcDbEntity
  8
0
100
AcDbLine
 62
7
  6
CONTINUOUS
 10
30.7183587932
 20
85.2883313473
 11
30.7183587932
 21
86.8883313473
  0
LINE
  5
257
100
AcDbEntity
  8
0
100
AcDbLine
 62
7
  6
CONTINUOUS
 10
76.7083587932
 20
47.0883313473
 11
77.7083587932
 21
47.0883313473
  0
LINE
  5
258
100
AcDbEntity
  8
0
100
AcDbLine
 62
7
  6
CONTINUOUS
 10
36.6137929325
 20
35.4792208295
 11
36.8301438359
 21
34.9452061603
  0
LINE
  5
259
100
AcDbEntity
  8
0
100
AcDbLine
 62
7
  6
CONTINUOUS
 10
36.4290045401
 20
35.9378008095
 11
36.6137929325
 21
35.4792208295
  0
LWPOLYLINE
  5
25A
100
AcDbEntity
  8
0
100
AcDbPolyline
 62
7
  6
CONTINUOUS
 90
3
 70
0
 10
35.50379762
 20
38.6627293122
 10
35.9967935054
 20
37.1479159864
 10
36.4290264396
 20
35.9377359755
  0
LINE
  5
25B
100
AcDbEntity
  8
0
100
AcDbLine
 62
7
  6
CONTINUOUS
 10
34.6378612963
 20
41.8883313473
 11
34.7484701382
 21
41.4083313473
  0
LWPOLYLINE
  5
25C
100
AcDbEntity
  8
0
100
AcDbPolyline
 62
7
  6
CONTINUOUS
 90
4
 70
0
 10
35.1394479576
 20
41.4083313473
 10
35.3278030255
 20
40.5722838459
 10
35.5600830024
 20
39.6380131752
 10
35.8190066821
 20
38.6830846432
  0
LINE
  5
25D
100
AcDbEntity
  8
0
100
AcDbLine
 62
7
  6
CONTINUOUS
 10
30.9683587932
 20
41.8883313473
 11
30.9683587932
 21
43.5883313473
  0
LINE
  5
25E
100
AcDbEntity
  8
0
100
AcDbLine
 62
7
  6
CONTINUOUS
 10
30.9683587932
 20
85.1883313473
 11
30.9683587932
 21
86.8883313473
  0
LINE
  5
25F
100
AcDbEntity
  8
0
100
AcDbLine
 62
7
  6
CONTINUOUS
 10
33.6683587932
 20
42.3883313473
 11
33.6683587932
 21
41.8883313473
  0
LINE
  5
260
100
AcDbEntity
  8
0
100
AcDbLine
 62
7
  6
CONTINUOUS
 10
33.6683587932
 20
86.3883313473
 11
33.6683587932
 21
86.8883313473
  0
LWPOLYLINE
  5
261
100
AcDbEntity
  8
0
100
AcDbPolyline
 62
7
  6
CONTINUOUS
 90
3
 70
0
 10
59.6781262553
 20
109.1945906384
 10
58.9090498023
 20
107.9582400859
 10
58.5852508388
 20
107.3245434671
  0
LINE
  5
262
100
AcDbEntity
  8
0
100
AcDbLine
 62
7
  6
CONTINUOUS
 10
37.4823615389
 20
97.6383693704
 11
37.4823615389
 21
98.1383313473
  0
LINE
  5
263
100
AcDbEntity
  8
0
100
AcDbLine
 62
7
  6
CONTINUOUS
 10
81.9683587932
 20
45.264610789
 11
76.4683587932
 21
46.7383313473
  0
LINE
  5
264
100
AcDbEntity
  8
0
100
AcDbLine
 62
7
  6
CONTINUOUS
 10
39.5798606095
 20
30.6583313495
 11
39.5798606095
 21
31.1583313473
  0
LINE
  5
265
100
AcDbEntity
  8
0
100
AcDbLine
 62
7
  6
CONTINUOUS
 10
42.1683587932
 20
41.8883315084
 11
42.1683587932
 21
30.6583313481
  0
LINE
  5
266
100
AcDbEntity
  8
0
100
AcDbLine
 62
7
  6
CONTINUOUS
 10
57.2290032732
 20
104.1088586034
 11
57.277201279
 21
104.2286201561
  0
LWPOLYLINE
  5
267
100
AcDbEntity
  8
0
100
AcDbPolyline
 62
7
  6
CONTINUOUS
 90
4
 70
0
 10
57.8823197587
 20
105.7150786638
 10
57.6309782697
 20
105.1035161245
 10
57.414478844
 20
104.5691418729
 10
57.277201279
 20
104.2286201561
  0
LWPOLYLINE
  5
268
100
AcDbEntity
  8
0
100
AcDbPolyline
 62
7
  6
CONTINUOUS
 90
5
 70
0
 10
58.5846190599
 20
107.3231956478
 10
58.5324054483
 20
107.2109615119
 10
58.3787425285
 20
106.8723930829
 10
58.1426448965
 20
106.3321515241
 10
57.8823205267
 20
105.7150784316
  0
LWPOLYLINE
  5
269
100
AcDbEntity
  8
0
100
AcDbPolyline
 62
7
  6
CONTINUOUS
 90
4
 70
0
 10
56.6190023421
 20
101.363581517
 10
56.3602937095
 20
100.4094651254
 10
56.1279918318
 20
99.4751926013
 10
55.9394164603
 20
98.6383313473
  0
LINE
  5
26A
100
AcDbEntity
  8
0
100
AcDbLine
 62
7
  6
CONTINUOUS
 10
56.7967915123
 20
102.8987408961
 11
56.3037978668
 21
101.3839341831
  0
LINE
  5
26B
100
AcDbEntity
  8
0
100
AcDbLine
 62
7
  6
CONTINUOUS
 10
57.2290996592
 20
104.1091237083
 11
56.7967915123
 21
102.8987408961
  0
LINE
  5
26C
100
AcDbEntity
  8
0
100
AcDbLine
 62
7
  6
CONTINUOUS
 10
76.4683587932
 20
60.3883313473
 11
74.2683587932
 21
60.3883313473
  0
LINE
  5
26D
100
AcDbEntity
  8
0
100
AcDbLine
 62
7
  6
CONTINUOUS
 10
74.4683587932
 20
60.6383313473
 11
76.4683587932
 21
60.6383313473
  0
LINE
  5
26E
100
AcDbEntity
  8
0
100
AcDbLine
 62
7
  6
CONTINUOUS
 10
74.2683587932
 20
62.3883313473
 11
74.4683587932
 21
62.3883313473
  0
LWPOLYLINE
  5
26F
100
AcDbEntity
  8
0
100
AcDbPolyline
 62
7
  6
CONTINUOUS
 90
7
 70
0
 10
53.3333997853
 20
30.6383313473
 10
54.0361513596
 20
27.943823383
 10
54.7587112404
 20
25.6929093324
 10
55.4620199354
 20
23.7915366636
 10
56.1514684402
 20
22.1563224774
 10
56.8474897141
 20
20.7397478882
 10
57.580246243
 20
19.5802144527
  0
LINE
  5
270
100
AcDbEntity
  8
0
100
AcDbLine
 62
7
  6
CONTINUOUS
 10
55.5484701382
 20
98.6383313473
 11
55.4378612963
 21
98.1583313473
  0
LINE
  5
271
100
AcDbEntity
  8
0
100
AcDbLine
 62
7
  6
CONTINUOUS
 10
74.2683587932
 20
66.3883313473
 11
74.4683587932
 21
66.3883313473
  0
LINE
  5
272
100
AcDbEntity
  8
0
100
AcDbLine
 62
7
  6
CONTINUOUS
 10
51.7447062197
 20
96.3883313473
 11
51.7683587932
 21
95.93701336
  0
LINE
  5
273
100
AcDbEntity
  8
0
100
AcDbLine
 62
7
  6
CONTINUOUS
 10
51.815327718
 20
95.0407928844
 11
51.8180771107
 21
94.9883313473
  0
LINE
  5
274
100
AcDbEntity
  8
0
100
AcDbLine
 62
7
  6
CONTINUOUS
 10
51.6683587932
 20
94.9883313473
 11
51.6683587932
 21
98.1383313473
  0
LINE
  5
275
100
AcDbEntity
  8
0
100
AcDbLine
 62
7
  6
CONTINUOUS
 10
51.7683587932
 20
98.1383313473
 11
51.7683587932
 21
95.0383313473
  0
LINE
  5
276
100
AcDbEntity
  8
0
100
AcDbLine
 62
7
  6
CONTINUOUS
 10
51.7683587932
 20
30.6383313473
 11
51.7683587932
 21
33.8083313473
  0
LINE
  5
277
100
AcDbEntity
  8
0
100
AcDbLine
 62
7
  6
CONTINUOUS
 10
53.9683587932
 20
95.0383313473
 11
53.9683587932
 21
86.8883313473
  0
LINE
  5
278
100
AcDbEntity
  8
0
100
AcDbLine
 62
7
  6
CONTINUOUS
 10
53.9683587932
 20
41.8883313473
 11
53.9683587932
 21
33.7383313473
  0
LWPOLYLINE
  5
279
100
AcDbEntity
  8
0
100
AcDbPolyline
 62
7
  6
CONTINUOUS
 90
14
 70
0
 10
58.8653192782
 20
107.204675365
 10
58.8615163971
 20
107.1752256619
 10
58.8449745301
 20
107.0949020801
 10
58.8135362398
 20
106.9705179633
 10
58.7654050915
 20
106.7985803836
 10
58.6983472882
 20
106.5732544108
 10
58.6097550558
 20
106.2887604359
 10
58.4955146948
 20
105.9372465425
 10
58.3528664485
 20
105.5208562534
 10
58.1726436177
 20
105.0359316611
 10
58.0289889476
 20
104.6902112522
 10
57.915504123
 20
104.4503558369
 10
57.830508282
 20
104.2976590396
 10
57.7750205998
 20
104.2187323619
  0
LINE
  5
27A
100
AcDbEntity
  8
0
100
AcDbLine
 62
7
  6
CONTINUOUS
 10
74.4683587932
 20
68.1383313473
 11
76.4683587932
 21
68.1383313473
  0
LINE
  5
27B
100
AcDbEntity
  8
0
100
AcDbLine
 62
7
  6
CONTINUOUS
 10
74.2683587932
 20
68.3883313473
 11
76.4683587932
 21
68.3883313473
  0
LINE
  5
27C
100
AcDbEntity
  8
0
100
AcDbLine
 62
7
  6
CONTINUOUS
 10
54.8183587932
 20
98.1583305443
 11
54.8183587932
 21
98.1383313473
  0
LINE
  5
27D
100
AcDbEntity
  8
0
100
AcDbLine
 62
7
  6
CONTINUOUS
 10
79.4882712414
 20
80.0383313473
 11
81.9683587932
 21
82.518418899
  0
LINE
  5
27E
100
AcDbEntity
  8
0
100
AcDbLine
 62
7
  6
CONTINUOUS
 10
11.0683587932
 20
83.1883313473
 11
16.4683587932
 21
81.7414057082
  0
LINE
  5
27F
100
AcDbEntity
  8
0
100
AcDbLine
 62
7
  6
CONTINUOUS
 10
11.7524845103
 20
83.3496648605
 11
16.3571814568
 21
82.1158400322
  0
LINE
  5
280
100
AcDbEntity
  8
0
100
AcDbLine
 62
7
  6
CONTINUOUS
 10
11.8819120516
 20
83.8326234524
 11
16.9683587932
 21
82.4697136488
  0
LINE
  5
281
100
AcDbEntity
  8
0
100
AcDbLine
 62
7
  6
CONTINUOUS
 10
81.7083587932
 20
46.0467033186
 11
78.0834876626
 21
49.0883313473
  0
LINE
  5
282
100
AcDbEntity
  8
0
100
AcDbLine
 62
7
  6
CONTINUOUS
 10
58.282360723
 20
19.3883313473
 11
58.282360723
 21
19.8882920167
  0
LINE
  5
283
100
AcDbEntity
  8
0
100
AcDbLine
 62
7
  6
CONTINUOUS
 10
60.3798933246
 20
108.88836086
 11
60.3798933242
 21
109.3883313473
  0
LINE
  5
284
100
AcDbEntity
  8
0
100
AcDbLine
 62
7
  6
CONTINUOUS
 10
62.9683587932
 20
109.3883313473
 11
62.9683587932
 21
98.1383313473
  0
LINE
  5
285
100
AcDbEntity
  8
0
100
AcDbLine
 62
7
  6
CONTINUOUS
 10
35.529937869
 20
38.6711267479
 11
35.50379762
 21
38.6627293123
  0
LINE
  5
286
100
AcDbEntity
  8
0
100
AcDbLine
 62
7
  6
CONTINUOUS
 10
79.1882712414
 20
80.0383313473
 11
79.4882712414
 21
80.0383313473
  0
LINE
  5
287
100
AcDbEntity
  8
0
100
AcDbLine
 62
7
  6
CONTINUOUS
 10
75.7683587932
 20
82.0383313473
 11
77.2683587932
 21
82.0383313473
  0
LINE
  5
288
100
AcDbEntity
  8
0
100
AcDbLine
 62
7
  6
CONTINUOUS
 10
39.1767249248
 20
30.8815570716
 11
39.5798585376
 21
31.1583861734
  0
LINE
  5
289
100
AcDbEntity
  8
0
100
AcDbLine
 62
7
  6
CONTINUOUS
 10
39.1683689007
 20
30.8758959431
 11
39.1767249248
 21
30.8815570716
  0
LINE
  5
28A
100
AcDbEntity
  8
0
100
AcDbLine
 62
7
  6
CONTINUOUS
 10
37.0823746806
 20
34.3316058193
 11
37.0823218823
 21
34.3315838787
  0
LINE
  5
28B
100
AcDbEntity
  8
0
100
AcDbLine
 62
7
  6
CONTINUOUS
 10
35.5598740971
 20
38.6662540489
 11
35.8007214673
 21
38.741564527
  0
LINE
  5
28C
100
AcDbEntity
  8
0
100
AcDbLine
 62
7
  6
CONTINUOUS
 10
10.7632154105
 20
83.1883313473
 11
11.0683587932
 21
83.1883313473
  0
LINE
  5
28D
100
AcDbEntity
  8
0
100
AcDbLine
 62
7
  6
CONTINUOUS
 10
81.9683587932
 20
83.6383313473
 11
75.7683587932
 21
83.6383313473
  0
LINE
  5
28E
100
AcDbEntity
  8
0
100
AcDbLine
 62
7
  6
CONTINUOUS
 10
75.6683587932
 20
83.7383313473
 11
81.9683587932
 21
83.7383313473
  0
LINE
  5
28F
100
AcDbEntity
  8
0
100
AcDbLine
 62
7
  6
CONTINUOUS
 10
9.9683587932
 20
84.9883313473
 11
10.4405282594
 21
84.9883313473
  0
LINE
  5
290
100
AcDbEntity
  8
0
100
AcDbLine
 62
7
  6
CONTINUOUS
 10
30.9683587932
 20
85.1883313473
 11
23.9683587932
 21
85.1883313473
  0
LINE
  5
291
100
AcDbEntity
  8
0
100
AcDbLine
 62
7
  6
CONTINUOUS
 10
23.9683587932
 20
85.2883313473
 11
30.9683587932
 21
85.2883313473
  0
LINE
  5
292
100
AcDbEntity
  8
0
100
AcDbLine
 62
7
  6
CONTINUOUS
 10
24.2183587932
 20
85.6883313473
 11
30.7183587932
 21
85.6883313473
  0
LINE
  5
293
100
AcDbEntity
  8
0
100
AcDbLine
 62
7
  6
CONTINUOUS
 10
24.2183587932
 20
86.3883313473
 11
30.7183587932
 21
86.3883313473
  0
LINE
  5
294
100
AcDbEntity
  8
0
100
AcDbLine
 62
7
  6
CONTINUOUS
 10
30.9683587932
 20
86.3883313473
 11
33.6683587932
 21
86.3883313473
  0
LINE
  5
295
100
AcDbEntity
  8
0
100
AcDbLine
 62
7
  6
CONTINUOUS
 10
12.218355089
 20
86.3883308577
 11
23.9683587932
 21
86.3883313473
  0
LINE
  5
296
100
AcDbEntity
  8
0
100
AcDbLine
 62
7
  6
CONTINUOUS
 10
53.9683587932
 20
86.8883313473
 11
12.2183587932
 21
86.8883313473
  0
LINE
  5
297
100
AcDbEntity
  8
0
100
AcDbLine
 62
7
  6
CONTINUOUS
 10
37.070508098
 20
97.9202297935
 11
37.482359141
 21
97.6382280767
  0
LINE
  5
298
100
AcDbEntity
  8
0
100
AcDbLine
 62
7
  6
CONTINUOUS
 10
72.4683587932
 20
19.3883313473
 11
72.4683587932
 21
22.5383313473
  0
LINE
  5
299
100
AcDbEntity
  8
0
100
AcDbLine
 62
7
  6
CONTINUOUS
 10
72.5683587932
 20
19.3883313473
 11
72.5683587932
 21
22.4883313473
  0
LINE
  5
29A
100
AcDbEntity
  8
0
100
AcDbLine
 62
7
  6
CONTINUOUS
 10
72.5683587932
 20
106.2383313473
 11
72.5683587932
 21
109.3883313473
  0
LINE
  5
29B
100
AcDbEntity
  8
0
100
AcDbLine
 62
7
  6
CONTINUOUS
 10
74.2683587932
 20
60.3883313473
 11
74.2683587932
 21
68.3883313473
  0
LINE
  5
29C
100
AcDbEntity
  8
0
100
AcDbLine
 62
7
  6
CONTINUOUS
 10
74.4683587932
 20
60.3883313473
 11
74.4683587932
 21
68.3883313473
  0
LINE
  5
29D
100
AcDbEntity
  8
0
100
AcDbLine
 62
7
  6
CONTINUOUS
 10
74.7683587932
 20
106.2883313473
 11
74.7683587932
 21
98.1383313473
  0
LINE
  5
29E
100
AcDbEntity
  8
0
100
AcDbLine
 62
7
  6
CONTINUOUS
 10
74.7683587932
 20
30.6383313473
 11
74.7683587932
 21
22.4883313473
  0
LINE
  5
29F
100
AcDbEntity
  8
0
100
AcDbLine
 62
7
  6
CONTINUOUS
 10
74.8683587932
 20
60.6383313473
 11
74.8683587932
 21
68.1383313473
  0
LINE
  5
2A0
100
AcDbEntity
  8
0
100
AcDbLine
 62
7
  6
CONTINUOUS
 10
75.6683587931
 20
80.7239719934
 11
75.6683587932
 21
83.7383313473
  0
LINE
  5
2A1
100
AcDbEntity
  8
0
100
AcDbLine
 62
7
  6
CONTINUOUS
 10
75.7683587931
 20
80.5383313473
 11
75.7683587932
 21
83.6383313473
  0
LINE
  5
2A2
100
AcDbEntity
  8
0
100
AcDbLine
 62
7
  6
CONTINUOUS
 10
76.4683587932
 20
46.7383313473
 11
76.4683587932
 21
79.3383313473
  0
LINE
  5
2A3
100
AcDbEntity
  8
0
100
AcDbLine
 62
7
  6
CONTINUOUS
 10
76.7083587932
 20
47.0883313473
 11
76.7083587932
 21
46.6740235411
  0
LINE
  5
2A4
100
AcDbEntity
  8
0
100
AcDbLine
 62
7
  6
CONTINUOUS
 10
76.7083587932
 20
16.5883313473
 11
76.7083587932
 21
19.3883313473
  0
LINE
  5
2A5
100
AcDbEntity
  8
0
100
AcDbLine
 62
7
  6
CONTINUOUS
 10
77.2683587932
 20
82.0383313473
 11
77.2683587932
 21
81.5383313473
  0
LINE
  5
2A6
100
AcDbEntity
  8
0
100
AcDbLine
 62
7
  6
CONTINUOUS
 10
77.7083587932
 20
47.6883313473
 11
77.7083587932
 21
47.0883313473
  0
LINE
  5
2A7
100
AcDbEntity
  8
0
100
AcDbLine
 62
7
  6
CONTINUOUS
 10
72.6180771107
 20
22.5383313473
 11
72.615327718
 21
22.4858698103
  0
LINE
  5
2A8
100
AcDbEntity
  8
0
100
AcDbLine
 62
7
  6
CONTINUOUS
 10
72.5683587932
 20
21.5896493347
 11
72.5447062197
 21
21.1383313473
  0
LINE
  5
2A9
100
AcDbEntity
  8
0
100
AcDbLine
 62
7
  6
CONTINUOUS
 10
80.0083587932
 20
47.4731726916
 11
80.0083587932
 21
45.7897912061
  0
LINE
  5
2AA
100
AcDbEntity
  8
0
100
AcDbLine
 62
7
  6
CONTINUOUS
 10
81.7083587932
 20
46.0467033186
 11
81.7083587932
 21
45.334277579
  0
LINE
  5
2AB
100
AcDbEntity
  8
0
100
AcDbLine
 62
7
  6
CONTINUOUS
 10
78.0834876626
 20
49.0883313473
 11
77.7083587932
 21
47.6883313473
  0
LINE
  5
2AC
100
AcDbEntity
  8
0
100
AcDbLine
 62
7
  6
CONTINUOUS
 10
37.4746266939
 20
98.1382706873
 11
37.4823414445
 21
98.1383292077
  0
LINE
  5
2AD
100
AcDbEntity
  8
0
100
AcDbLine
 62
7
  6
CONTINUOUS
 10
53.9683587932
 20
94.9883313473
 11
51.6683587932
 21
94.9883313473
  0
LINE
  5
2AE
100
AcDbEntity
  8
0
100
AcDbLine
 62
7
  6
CONTINUOUS
 10
51.7683587932
 20
95.0383313473
 11
53.9683587932
 21
95.0383313473
  0
LINE
  5
2AF
100
AcDbEntity
  8
0
100
AcDbLine
 62
7
  6
CONTINUOUS
 10
51.7683587932
 20
96.3883313473
 11
51.6683587932
 21
96.3883313473
  0
LINE
  5
2B0
100
AcDbEntity
  8
0
100
AcDbLine
 62
7
  6
CONTINUOUS
 10
51.7683587932
 20
96.7883313473
 11
51.6683587932
 21
96.7883313473
  0
LINE
  5
2B1
100
AcDbEntity
  8
0
100
AcDbLine
 62
7
  6
CONTINUOUS
 10
37.4821364264
 20
97.6383803873
 11
51.6683587932
 21
97.6383583534
  0
LINE
  5
2B2
100
AcDbEntity
  8
0
100
AcDbLine
 62
7
  6
CONTINUOUS
 10
74.7683587932
 20
98.1383313473
 11
37.173882432
 21
98.1383333376
  0
LINE
  5
2B3
100
AcDbEntity
  8
0
100
AcDbLine
 62
7
  6
CONTINUOUS
 10
54.8183587932
 20
98.1583313473
 11
74.7683587932
 21
98.1583313473
  0
LINE
  5
2B4
100
AcDbEntity
  8
0
100
AcDbLine
 62
7
  6
CONTINUOUS
 10
55.5484714799
 20
98.6383313473
 11
55.583786157
 21
98.6383313473
  0
LINE
  5
2B5
100
AcDbEntity
  8
0
100
AcDbLine
 62
7
  6
CONTINUOUS
 10
55.6188443733
 20
98.6383313473
 11
55.9411652713
 21
98.6383313473
  0
LINE
  5
2B6
100
AcDbEntity
  8
0
100
AcDbLine
 62
7
  6
CONTINUOUS
 10
55.9896294129
 20
98.6383313473
 11
56.6244161843
 21
98.6383313473
  0
LINE
  5
2B7
100
AcDbEntity
  8
0
100
AcDbLine
 62
7
  6
CONTINUOUS
 10
37.0704244096
 20
97.9202570666
 11
36.7802833866
 21
97.9466885998
  0
LINE
  5
2B8
100
AcDbEntity
  8
0
100
AcDbLine
 62
7
  6
CONTINUOUS
 10
77.2683587932
 20
81.5383313473
 11
79.1882712414
 21
80.0383313473
  0
LINE
  5
2B9
100
AcDbEntity
  8
0
100
AcDbLine
 62
7
  6
CONTINUOUS
 10
76.4683587932
 20
79.3383313473
 11
75.6683587931
 21
80.7239719934
  0
LINE
  5
2BA
100
AcDbEntity
  8
0
100
AcDbLine
 62
7
  6
CONTINUOUS
 10
81.9683587932
 20
19.3883313473
 11
81.9683587932
 21
45.264610789
  0
LINE
  5
2BB
100
AcDbEntity
  8
0
100
AcDbLine
 62
7
  6
CONTINUOUS
 10
81.9683587932
 20
82.518418899
 11
81.9683587932
 21
98.3883313473
  0
LINE
  5
2BC
100
AcDbEntity
  8
0
100
AcDbLine
 62
7
  6
CONTINUOUS
 10
56.6202161571
 20
101.36374821
 11
56.618999509
 21
101.3635714672
  0
LINE
  5
2BD
100
AcDbEntity
  8
0
100
AcDbLine
 62
7
  6
CONTINUOUS
 10
56.3036766318
 20
101.3835407699
 11
56.3324218856
 21
101.3833035082
  0
LINE
  5
2BE
100
AcDbEntity
  8
0
100
AcDbLine
 62
7
  6
CONTINUOUS
 10
56.6516703491
 20
101.3342361526
 11
57.1582498318
 21
101.3052734127
  0
LINE
  5
2BF
100
AcDbEntity
  8
0
100
AcDbLine
 62
7
  6
CONTINUOUS
 10
56.9655633566
 20
101.3163962691
 11
57.1582498318
 21
101.3052734127
  0
LINE
  5
2C0
100
AcDbEntity
  8
0
100
AcDbLine
 62
7
  6
CONTINUOUS
 10
56.3599975762
 20
101.3803624497
 11
56.620213296
 21
101.3637455207
  0
LINE
  5
2C1
100
AcDbEntity
  8
0
100
AcDbLine
 62
7
  6
CONTINUOUS
 10
79.6020743391
 20
19.3883313473
 11
79.1083587931
 21
16.5883313473
  0
LINE
  5
2C2
100
AcDbEntity
  8
0
100
AcDbLine
 62
7
  6
CONTINUOUS
 10
57.5500432207
 20
104.2383313473
 11
57.7887992398
 21
104.2383313473
  0
LINE
  5
2C3
100
AcDbEntity
  8
0
100
AcDbLine
 62
7
  6
CONTINUOUS
 10
72.5683587932
 20
106.2383313473
 11
74.7683587932
 21
106.2383313473
  0
LINE
  5
2C4
100
AcDbEntity
  8
0
100
AcDbLine
 62
7
  6
CONTINUOUS
 10
72.5683587932
 20
106.2883313473
 11
74.7683587932
 21
106.2883313473
  0
LINE
  5
2C5
100
AcDbEntity
  8
0
100
AcDbLine
 62
7
  6
CONTINUOUS
 10
56.3037978668
 20
101.3839341831
 11
56.3300858805
 21
101.3754892875
  0
LINE
  5
2C6
100
AcDbEntity
  8
0
100
AcDbLine
 62
7
  6
CONTINUOUS
 10
81.9683587932
 20
98.3883313473
 11
80.2261299496
 21
109.3883313473
  0
LINE
  5
2C7
100
AcDbEntity
  8
0
100
AcDbLine
 62
7
  6
CONTINUOUS
 10
60.3798314077
 20
108.8883744121
 11
80.3053221697
 21
108.8883313473
  0
LINE
  5
2C8
100
AcDbEntity
  8
0
100
AcDbLine
 62
7
  6
CONTINUOUS
 10
60.0732195995
 20
109.3883313473
 11
80.2261299496
 21
109.3883313473
  0
LINE
  5
2C9
100
AcDbEntity
  8
0
100
AcDbLine
 62
7
  6
CONTINUOUS
 10
58.8687775595
 20
107.3185101997
 11
58.6720951798
 21
107.3238700285
  0
LINE
  5
2CA
100
AcDbEntity
  8
0
100
AcDbLine
 62
7
  6
CONTINUOUS
 10
59.968763934
 20
109.1714444322
 11
59.6780759177
 21
109.1947509105
  0
LINE
  5
2CB
100
AcDbEntity
  8
0
100
AcDbLine
 62
7
  6
CONTINUOUS
 10
57.8823205267
 20
105.7150784316
 11
57.8823733919
 21
105.7150564625
  0
LINE
  5
2CC
100
AcDbEntity
  8
0
100
AcDbLine
 62
7
  6
CONTINUOUS
 10
59.9688446831
 20
109.1714207431
 11
60.3798946059
 21
108.8883366127
  0
ARC
  5
2CD
100
AcDbEntity
  8
0
100
AcDbCircle
 62
7
  6
CONTINUOUS
 10
6.5248102324
 20
23.832552121
 40
32.8231317526
100
AcDbArc
 50
17.4680211296
 51
17.6661970779
  0
ARC
  5
2CE
100
AcDbEntity
  8
0
100
AcDbCircle
 62
7
  6
CONTINUOUS
 10
25.2032037873
 20
29.5299218105
 40
13.2946689202
100
AcDbArc
 50
15.9925300753
 51
16.2670530815
  0
ARC
  5
2CF
100
AcDbEntity
  8
0
100
AcDbCircle
 62
7
  6
CONTINUOUS
 10
34.5878994982
 20
32.1061634145
 40
3.5623270203
100
AcDbArc
 50
13.3633850066
 51
14.5910589357
  0
ARC
  5
2D0
100
AcDbEntity
  8
0
100
AcDbCircle
 62
7
  6
CONTINUOUS
 10
35.9532075877
 20
35.1371138669
 40
1.2457664805
100
AcDbArc
 50
32.8478564802
 51
33.6937598044
  0
ARC
  5
2D1
100
AcDbEntity
  8
0
100
AcDbCircle
 62
7
  6
CONTINUOUS
 10
37.2606622239
 20
32.6882219055
 40
0.8263415255
100
AcDbArc
 50
9.0894617096
 51
9.4963946665
  0
ARC
  5
2D2
100
AcDbEntity
  8
0
100
AcDbCircle
 62
7
  6
CONTINUOUS
 10
57.9738784317
 20
19.8883294281
 40
0.5000000711
100
AcDbArc
 50
218.0520071402
 51
270.0
  0
ARC
  5
2D3
100
AcDbEntity
  8
0
100
AcDbCircle
 62
7
  6
CONTINUOUS
 10
39.2731811018
 20
31.1583296414
 40
0.5000000097
100
AcDbArc
 50
217.7838472476
 51
270.0
  0
ARC
  5
2D4
100
AcDbEntity
  8
0
100
AcDbCircle
 62
7
  6
CONTINUOUS
 10
58.2831271517
 20
19.8872516313
 40
0.4991113933
100
AcDbArc
 50
214.2371245035
 51
242.0816093956
  0
ARC
  5
2D5
100
AcDbEntity
  8
0
100
AcDbCircle
 62
7
  6
CONTINUOUS
 10
39.5804284645
 20
31.1570549598
 40
0.4988421362
100
AcDbArc
 50
214.3067405607
 51
241.0180630076
  0
ARC
  5
2D6
100
AcDbEntity
  8
0
100
AcDbCircle
 62
7
  6
CONTINUOUS
 10
58.2823894007
 20
19.8859257116
 40
0.4975943663
100
AcDbArc
 50
242.085187512
 51
269.9942674921
  0
ARC
  5
2D7
100
AcDbEntity
  8
0
100
AcDbCircle
 62
7
  6
CONTINUOUS
 10
39.5798865399
 20
31.1559046881
 40
0.4975733363
100
AcDbArc
 50
241.0084727198
 51
269.9972625527
  0
ARC
  5
2D8
100
AcDbEntity
  8
0
100
AcDbCircle
 62
7
  6
CONTINUOUS
 10
38.0540954186
 20
32.8085607293
 40
0.2011888498
100
AcDbArc
 50
180.0652320379
 51
205.2318832265
  0
ARC
  5
2D9
100
AcDbEntity
  8
0
100
AcDbCircle
 62
7
  6
CONTINUOUS
 10
38.2532118623
 20
32.8082561684
 40
0.2011381487
100
AcDbArc
 50
168.3941212277
 51
203.5125219516
  0
ARC
  5
2DA
100
AcDbEntity
  8
0
100
AcDbCircle
 62
7
  6
CONTINUOUS
 10
38.2527554339
 20
32.8083208831
 40
0.2006872228
100
AcDbArc
 50
159.1841743008
 51
162.1577665699
  0
ARC
  5
2DB
100
AcDbEntity
  8
0
100
AcDbCircle
 62
7
  6
CONTINUOUS
 10
38.2523328708
 20
32.8084581456
 40
0.2002429265
100
AcDbArc
 50
162.158106655
 51
163.0893808161
  0
ARC
  5
2DC
100
AcDbEntity
  8
0
100
AcDbCircle
 62
7
  6
CONTINUOUS
 10
38.0528328988
 20
32.8084317864
 40
0.1999134538
100
AcDbArc
 50
96.045916134
 51
180.028691791
  0
ARC
  5
2DD
100
AcDbEntity
  8
0
100
AcDbCircle
 62
7
  6
CONTINUOUS
 10
38.2518457361
 20
32.8086478483
 40
0.1997211856
100
AcDbArc
 50
163.1007561949
 51
168.4253441759
  0
ARC
  5
2DE
100
AcDbEntity
  8
0
100
AcDbCircle
 62
7
  6
CONTINUOUS
 10
36.7502064626
 20
36.0078288205
 40
0.1995112026
100
AcDbArc
 50
199.3924704617
 51
269.9533067703
  0
ARC
  5
2DF
100
AcDbEntity
  8
0
100
AcDbCircle
 62
7
  6
CONTINUOUS
 10
78.0721235519
 20
50.6995277754
 40
43.9262136883
100
AcDbArc
 50
193.7915130552
 51
194.3143227595
  0
ARC
  5
2E0
100
AcDbEntity
  8
0
100
AcDbCircle
 62
7
  6
CONTINUOUS
 10
75.5174370239
 20
50.0740683721
 40
41.2960767994
100
AcDbArc
 50
192.9314197806
 51
193.7937101393
  0
ARC
  5
2E1
100
AcDbEntity
  8
0
100
AcDbCircle
 62
7
  6
CONTINUOUS
 10
73.6331125898
 20
49.6390541375
 40
39.3621920012
100
AcDbArc
 50
192.6494886783
 51
192.9280735709
  0
ARC
  5
2E2
100
AcDbEntity
  8
0
100
AcDbCircle
 62
7
  6
CONTINUOUS
 10
70.6076260265
 20
48.9629621391
 40
36.2620854754
100
AcDbArc
 50
192.0244817243
 51
192.6540038505
  0
ARC
  5
2E3
100
AcDbEntity
  8
0
100
AcDbCircle
 62
7
  6
CONTINUOUS
 10
10.4683587932
 20
42.5883313473
 40
0.5
100
AcDbArc
 50
180.0
 51
270.0
  0
ARC
  5
2E4
100
AcDbEntity
  8
0
100
AcDbCircle
 62
7
  6
CONTINUOUS
 10
16.9683587932
 20
42.3883313473
 40
0.5
100
AcDbArc
 50
180.0
 51
270.0
  0
ARC
  5
2E5
100
AcDbEntity
  8
0
100
AcDbCircle
 62
7
  6
CONTINUOUS
 10
30.8991058702
 20
115.0806896988
 40
29.0734527033
100
AcDbArc
 50
341.83561127
 51
342.8426904051
  0
ARC
  5
2E6
100
AcDbEntity
  8
0
100
AcDbCircle
 62
7
  6
CONTINUOUS
 10
35.6056481388
 20
113.6235234708
 40
24.1465007902
100
AcDbArc
 50
342.8519633334
 51
343.1870231836
  0
ARC
  5
2E7
100
AcDbEntity
  8
0
100
AcDbCircle
 62
7
  6
CONTINUOUS
 10
37.2744832537
 20
112.9990577897
 40
22.3668508379
100
AcDbArc
 50
341.4151907007
 51
341.8110388553
  0
ARC
  5
2E8
100
AcDbEntity
  8
0
100
AcDbCircle
 62
7
  6
CONTINUOUS
 10
51.3052504703
 20
107.6304617816
 40
7.341515756
100
AcDbArc
 50
336.2162423982
 51
336.7015016253
  0
ARC
  5
2E9
100
AcDbEntity
  8
0
100
AcDbCircle
 62
7
  6
CONTINUOUS
 10
55.4121903259
 20
107.9352384263
 40
3.5374532858
100
AcDbArc
 50
345.8419155197
 51
346.6049940965
  0
ARC
  5
2EA
100
AcDbEntity
  8
0
100
AcDbCircle
 62
7
  6
CONTINUOUS
 10
54.9360392245
 20
105.9463339933
 40
3.3384742817
100
AcDbArc
 50
331.7457663078
 51
333.2922246992
  0
ARC
  5
2EB
100
AcDbEntity
  8
0
100
AcDbCircle
 62
7
  6
CONTINUOUS
 10
11.7683587932
 20
84.9883313473
 40
1.8
100
AcDbArc
 50
93.7825642766
 51
180.0
  0
ARC
  5
2EC
100
AcDbEntity
  8
0
100
AcDbCircle
 62
7
  6
CONTINUOUS
 10
12.2183587932
 20
85.0883313473
 40
1.8
100
AcDbArc
 50
89.9999999981
 51
254.9999999731
  0
ARC
  5
2ED
100
AcDbEntity
  8
0
100
AcDbCircle
 62
7
  6
CONTINUOUS
 10
12.2183587932
 20
85.0883313473
 40
1.2999985311
100
AcDbArc
 50
90.0001632561
 51
255.0008163084
  0
ARC
  5
2EE
100
AcDbEntity
  8
0
100
AcDbCircle
 62
7
  6
CONTINUOUS
 10
57.7016764618
 20
107.4220189885
 40
1.1909026249
100
AcDbArc
 50
348.8421730213
 51
350.0146901498
  0
ARC
  5
2EF
100
AcDbEntity
  8
0
100
AcDbCircle
 62
7
  6
CONTINUOUS
 10
57.0053272718
 20
104.7390717909
 40
0.9417262745
100
AcDbArc
 50
325.6896405688
 51
325.9884375674
  0
CIRCLE
  5
2F0
100
AcDbEntity
  8
0
100
AcDbCircle
 62
7
  6
CONTINUOUS
 10
12.2183587932
 20
85.0883313473
 40
0.9
  0
CIRCLE
  5
2F1
100
AcDbEntity
  8
0
100
AcDbCircle
 62
7
  6
CONTINUOUS
 10
12.2183587932
 20
85.0883313473
 40
0.86
  0
ARC
  5
2F2
100
AcDbEntity
  8
0
100
AcDbCircle
 62
7
  6
CONTINUOUS
 10
37.1738784317
 20
97.6383332666
 40
0.5000000711
100
AcDbArc
 50
90.0
 51
141.9479928599
  0
ARC
  5
2F3
100
AcDbEntity
  8
0
100
AcDbCircle
 62
7
  6
CONTINUOUS
 10
60.0731811018
 20
108.8883330533
 40
0.5000000097
100
AcDbArc
 50
90.0
 51
142.2161527527
  0
ARC
  5
2F4
100
AcDbEntity
  8
0
100
AcDbCircle
 62
7
  6
CONTINUOUS
 10
37.4829085294
 20
97.6395212737
 40
0.4989546418
100
AcDbArc
 50
117.8590992259
 51
145.7608822027
  0
ARC
  5
2F5
100
AcDbEntity
  8
0
100
AcDbCircle
 62
7
  6
CONTINUOUS
 10
60.3801135108
 20
108.8900276781
 40
0.4983125013
100
AcDbArc
 50
90.0251254711
 51
145.6197877539
  0
ARC
  5
2F6
100
AcDbEntity
  8
0
100
AcDbCircle
 62
7
  6
CONTINUOUS
 10
37.4822472733
 20
97.6409108386
 40
0.4974171282
100
AcDbArc
 50
90.8776822072
 51
117.8665547809
  0
ARC
  5
2F7
100
AcDbEntity
  8
0
100
AcDbCircle
 62
7
  6
CONTINUOUS
 10
59.0541856758
 20
107.2385741357
 40
0.2021344891
100
AcDbArc
 50
190.2665957107
 51
191.6206680213
  0
ARC
  5
2F8
100
AcDbEntity
  8
0
100
AcDbCircle
 62
7
  6
CONTINUOUS
 10
59.0535378248
 20
107.2381551162
 40
0.2014724947
100
AcDbArc
 50
156.4950390149
 51
179.9499597084
  0
ARC
  5
2F9
100
AcDbEntity
  8
0
100
AcDbCircle
 62
7
  6
CONTINUOUS
 10
58.8538411562
 20
107.2381612987
 40
0.2009381787
100
AcDbArc
 50
154.7521234148
 51
179.9515857451
  0
ARC
  5
2FA
100
AcDbEntity
  8
0
100
AcDbCircle
 62
7
  6
CONTINUOUS
 10
59.0529613602
 20
107.2383964317
 40
0.2008981087
100
AcDbArc
 50
180.0186393685
 51
190.2789588106
  0
ARC
  5
2FB
100
AcDbEntity
  8
0
100
AcDbCircle
 62
7
  6
CONTINUOUS
 10
58.8528221018
 20
107.2382326342
 40
0.1999146004
100
AcDbArc
 50
179.9717835971
 51
263.9539937059
  0
ARC
  5
2FC
100
AcDbEntity
  8
0
100
AcDbCircle
 62
7
  6
CONTINUOUS
 10
57.5502083346
 20
104.0388371937
 40
0.1995106565
100
AcDbArc
 50
90.047115071
 51
160.6554258341
  0
ARC
  5
2FD
100
AcDbEntity
  8
0
100
AcDbCircle
 62
7
  6
CONTINUOUS
 10
16.3183587932
 20
81.9709511066
 40
0.15
100
AcDbArc
 50
0.0000115429
 51
75.0
  0
ARC
  5
2FE
100
AcDbEntity
  8
0
100
AcDbCircle
 62
7
  6
CONTINUOUS
 10
150.0623553991
 20
67.4738422381
 40
99.7974935683
100
AcDbArc
 50
157.4686971545
 51
157.8729664694
  0
ARC
  5
2FF
100
AcDbEntity
  8
0
100
AcDbCircle
 62
7
  6
CONTINUOUS
 10
83.9260241174
 20
52.2333381799
 40
49.9778215261
100
AcDbArc
 50
195.2239558562
 51
195.5558587152
  0
ARC
  5
300
100
AcDbEntity
  8
0
100
AcDbCircle
 62
7
  6
CONTINUOUS
 10
83.6549534605
 20
52.157444632
 40
49.6963273777
100
AcDbArc
 50
195.5553763134
 51
195.7319593253
  0
ARC
  5
301
100
AcDbEntity
  8
0
100
AcDbCircle
 62
7
  6
CONTINUOUS
 10
81.4642379985
 20
51.5695562324
 40
47.428123515
100
AcDbArc
 50
194.3195740987
 51
195.2311549016
  0
ARC
  5
302
100
AcDbEntity
  8
0
100
AcDbCircle
 62
7
  6
CONTINUOUS
 10
113.6331105754
 20
82.5593753329
 40
60.3682885717
100
AcDbArc
 50
156.7920958983
 51
157.4447845469
  0
ARC
  5
303
100
AcDbEntity
  8
0
100
AcDbCircle
 62
7
  6
CONTINUOUS
 10
98.7955985025
 20
88.8970349507
 40
44.2339456117
100
AcDbArc
 50
156.2455354546
 51
156.7633706534
  0
ARC
  5
304
100
AcDbEntity
  8
0
100
AcDbCircle
 62
7
  6
CONTINUOUS
 10
411.1566513948
 20
-38.3195506616
 40
381.510964929
100
AcDbArc
 50
157.9291103345
 51
158.0790180936
  0
SPLINE
  5
305
100
AcDbEntity
  8
0
100
AcDbSpline
 62
7
  6
CONTINUOUS
 70
0
 71
3
 72
10
 73
6
 74
0
 42
0.0000001
 43
0.0000001
 44
0.0000000001
 40
0.0
 40
0.0
 40
0.0
 40
0.0
 40
0.2495629265
 40
0.4994334163
 40
1.0
 40
1.0
 40
1.0
 40
1.0
 10
34.7839057667
 20
41.4083620291
 30
0.0
 10
34.8382402711
 20
41.1780181132
 30
0.0
 10
34.9516461623
 20
40.7181372085
 30
0.0
 10
35.1946221834
 20
39.8014419102
 30
0.0
 10
35.393440349
 20
39.1179781192
 30
0.0
 10
35.5322207144
 20
38.6640205134
 30
0.0
  0
SPLINE
  5
306
100
AcDbEntity
  8
0
100
AcDbSpline
 62
7
  6
CONTINUOUS
 70
0
 71
3
 72
9
 73
5
 74
0
 42
0.0000001
 43
0.0000001
 44
0.0000000001
 40
0.0
 40
0.0
 40
0.0
 40
0.0
 40
0.4999989509
 40
1.0
 40
1.0
 40
1.0
 40
1.0
 10
35.8244039125
 20
41.408780835
 30
0.0
 10
35.89795757
 20
40.9613457677
 30
0.0
 10
36.0627119715
 20
40.0693273713
 30
0.0
 10
36.2556612618
 20
39.1830693974
 30
0.0
 10
36.3582581045
 20
38.7413863736
 30
0.0
  0
SPLINE
  5
307
100
AcDbEntity
  8
0
100
AcDbSpline
 62
7
  6
CONTINUOUS
 70
0
 71
3
 72
35
 73
31
 74
0
 42
0.0000001
 43
0.0000001
 44
0.0000000001
 40
0.0
 40
0.0
 40
0.0
 40
0.0
 40
0.001665496
 40
0.0036005422
 40
0.0063136024
 40
0.0100039521
 40
0.0147475877
 40
0.0205663439
 40
0.0274583062
 40
0.0354133756
 40
0.0444170215
 40
0.0544455267
 40
0.0774460218
 40
0.104142479
 40
0.1342149642
 40
0.167310886
 40
0.2030721608
 40
0.2411364949
 40
0.2811403922
 40
0.365525156
 40
0.4535503583
 40
0.6306042766
 40
0.7149997383
 40
0.7935660954
 40
0.8638787908
 40
0.9234444004
 40
0.9483802542
 40
0.9696476011
 40
0.9869404334
 40
1.0
 40
1.0
 40
1.0
 40
1.0
 10
36.7500686114
 20
35.8083265649
 30
0.0
 10
36.7483625174
 20
35.8083219086
 30
0.0
 10
36.7445272523
 20
35.8070346823
 30
0.0
 10
36.7411257402
 20
35.8011403927
 30
0.0
 10
36.7395082439
 20
35.792732593
 30
0.0
 10
36.7392589915
 20
35.7812677281
 30
0.0
 10
36.7404681788
 20
35.766708438
 30
0.0
 10
36.7431259957
 20
35.7490160809
 30
0.0
 10
36.7472495939
 20
35.728247071
 30
0.0
 10
36.7528347859
 20
35.7044578496
 30
0.0
 10
36.759876041
 20
35.677721769
 30
0.0
 10
36.7717369988
 20
35.6363275662
 30
0.0
 10
36.7901715277
 20
35.577978486
 30
0.0
 10
36.8166928426
 20
35.500682342
 30
0.0
 10
36.848221103
 20
35.4141890284
 30
0.0
 10
36.8843907099
 20
35.3195184019
 30
0.0
 10
36.9248007141
 20
35.2177144894
 30
0.0
 10
36.9690131448
 20
35.1098145463
 30
0.0
 10
37.0336178791
 20
34.9564508951
 30
0.0
 10
37.1208319062
 20
34.757088336
 30
0.0
 10
37.2694148151
 20
34.4313857197
 30
0.0
 10
37.4250831195
 20
34.1089404867
 30
0.0
 10
37.5832167911
 20
33.7985915364
 30
0.0
 10
37.6949211262
 20
33.5873330658
 30
0.0
 10
37.79788001
 20
33.4002577347
 30
0.0
 10
37.8771395923
 20
33.2628749623
 30
0.0
 10
37.9333082033
 20
33.170220028
 30
0.0
 10
37.9680211154
 20
33.1152051317
 30
0.0
 10
37.9973568685
 20
33.0712083367
 30
0.0
 10
38.0155611268
 20
33.0459756284
 30
0.0
 10
38.0238519457
 20
33.0354764841
 30
0.0
  0
SPLINE
  5
308
100
AcDbEntity
  8
0
100
AcDbSpline
 62
7
  6
CONTINUOUS
 70
0
 71
3
 72
46
 73
42
 74
0
 42
0.0000001
 43
0.0000001
 44
0.0000000001
 40
0.0
 40
0.0
 40
0.0
 40
0.0
 40
0.0012426928
 40
0.0023861693
 40
0.0038967979
 40
0.0057567074
 40
0.0079410411
 40
0.0131881605
 40
0.0195759707
 40
0.0271150754
 40
0.0456714102
 40
0.0686765177
 40
0.0957173935
 40
0.1263969428
 40
0.1603489693
 40
0.1971948177
 40
0.2365439858
 40
0.2780231969
 40
0.3212736164
 40
0.4117190132
 40
0.5051613325
 40
0.5987590971
 40
0.6895747142
 40
0.7745536141
 40
0.8137939105
 40
0.8502748847
 40
0.8835500991
 40
0.9132206953
 40
0.9389193879
 40
0.9501735363
 40
0.9603115642
 40
0.969295842
 40
0.9770968554
 40
0.9836938924
 40
0.9890727849
 40
0.993239348
 40
0.9962739287
 40
0.9974230289
 40
0.998377106
 40
0.9992042491
 40
1.0
 40
1.0
 40
1.0
 40
1.0
 10
37.8721014107
 20
32.722797283
 30
0.0
 10
37.8709245054
 20
32.7219515862
 30
0.0
 10
37.8676081901
 20
32.7236263961
 30
0.0
 10
37.8644861506
 20
32.7264648
 30
0.0
 10
37.8607658563
 20
32.7303595608
 30
0.0
 10
37.8566642311
 20
32.7353235187
 30
0.0
 10
37.8500569556
 20
32.7439366145
 30
0.0
 10
37.840817895
 20
32.7571358378
 30
0.0
 10
37.8286078507
 20
32.775876836
 30
0.0
 10
37.8087415847
 20
32.8081337921
 30
0.0
 10
37.7801562459
 20
32.8577630301
 30
0.0
 10
37.7418003151
 20
32.9279775642
 30
0.0
 10
37.6980459717
 20
33.0113396315
 30
0.0
 10
37.6496073827
 20
33.1066489555
 30
0.0
 10
37.5971690808
 20
33.212743776
 30
0.0
 10
37.5413724288
 20
33.3284496472
 30
0.0
 10
37.4828373682
 20
33.4525746905
 30
0.0
 10
37.4221627707
 20
33.583943544
 30
0.0
 10
37.3378942752
 20
33.770046782
 30
0.0
 10
37.2312929539
 20
34.0125524198
 30
0.0
 10
37.1052602415
 20
34.3106190552
 30
0.0
 10
36.9831733968
 20
34.6107914093
 30
0.0
 10
36.8691833346
 20
34.9035634192
 30
0.0
 10
36.7819158078
 20
35.1386816939
 30
0.0
 10
36.7193641979
 20
35.3153487763
 30
0.0
 10
36.6783047314
 20
35.4356511762
 30
0.0
 10
36.6423339304
 20
35.5458881567
 30
0.0
 10
36.6118893762
 20
35.644687167
 30
0.0
 10
36.5905692672
 20
35.719411844
 30
0.0
 10
36.5767107021
 20
35.7725547923
 30
0.0
 10
36.5683892423
 20
35.8069915204
 30
0.0
 10
36.5617013256
 20
35.8376723276
 30
0.0
 10
36.5566672098
 20
35.8644785609
 30
0.0
 10
36.5532972224
 20
35.8872999493
 30
0.0
 10
36.5515742432
 20
35.9060687529
 30
0.0
 10
36.5515111881
 20
35.9207473388
 30
0.0
 10
36.5528466898
 20
35.9304877114
 30
0.0
 10
36.555012147
 20
35.936107006
 30
0.0
 10
36.556920391
 20
35.9389884679
 30
0.0
 10
36.5593101335
 20
35.9409087217
 30
0.0
 10
36.5611713552
 20
35.9414706765
 30
0.0
 10
36.5620924981
 20
35.9415834047
 30
0.0
  0
SPLINE
  5
309
100
AcDbEntity
  8
0
100
AcDbSpline
 62
7
  6
CONTINUOUS
 70
0
 71
3
 72
22
 73
18
 74
0
 42
0.0000001
 43
0.0000001
 44
0.0000000001
 40
0.0
 40
0.0
 40
0.0
 40
0.0
 40
0.1252624209
 40
0.2506377657
 40
0.3760484889
 40
0.50145457
 40
0.5641448923
 40
0.6268108168
 40
0.6894450539
 40
0.7520421707
 40
0.8145428539
 40
0.8457361374
 40
0.8768811891
 40
0.9079564314
 40
0.9389141916
 40
0.9697312446
 40
1.0
 40
1.0
 40
1.0
 40
1.0
 10
36.2916869789
 20
41.888317531
 30
0.0
 10
36.3619801168
 20
41.4227504424
 30
0.0
 10
36.5242946166
 20
40.4944171661
 30
0.0
 10
36.8149890669
 20
39.1109220317
 30
0.0
 10
37.1463478728
 20
37.7360337141
 30
0.0
 10
37.455952244
 20
36.5988124725
 30
0.0
 10
37.7236790025
 20
35.6950207997
 30
0.0
 10
37.9355155246
 20
35.0208538936
 30
0.0
 10
38.1594447967
 20
34.3509648771
 30
0.0
 10
38.3969367646
 20
33.6864225383
 30
0.0
 10
38.6073124466
 20
33.1378132276
 30
0.0
 10
38.786350128
 20
32.7040310732
 30
0.0
 10
38.9266270945
 20
32.3821136945
 30
0.0
 10
39.0736271375
 20
32.0641733776
 30
0.0
 10
39.2295377684
 20
31.7518401618
 30
0.0
 10
39.3950878753
 20
31.4479874374
 30
0.0
 10
39.5152804585
 20
31.2520240337
 30
0.0
 10
39.5796707137
 20
31.1582217519
 30
0.0
  0
SPLINE
  5
30A
100
AcDbEntity
  8
0
100
AcDbSpline
 62
7
  6
CONTINUOUS
 70
0
 71
3
 72
14
 73
10
 74
0
 42
0.0000001
 43
0.0000001
 44
0.0000000001
 40
0.0
 40
0.0
 40
0.0
 40
0.0
 40
0.3553430123
 40
0.518623219
 40
0.6650006268
 40
0.7898916845
 40
0.8893953626
 40
0.960122311
 40
1.0
 40
1.0
 40
1.0
 40
1.0
 10
35.9955805791
 20
38.7496265938
 30
0.0
 10
35.9786508108
 20
38.7447744486
 30
0.0
 10
35.9539037304
 20
38.7378235201
 30
0.0
 10
35.9220932635
 20
38.7292014611
 30
0.0
 10
35.9012673307
 20
38.7237083942
 30
0.0
 10
35.8834573059
 20
38.7191932237
 30
0.0
 10
35.8692355302
 20
38.7157412787
 30
0.0
 10
35.8590635958
 20
38.7135780843
 30
0.0
 10
35.8536580952
 20
38.7125385258
 30
0.0
 10
35.8516848166
 20
38.7124274504
 30
0.0
  0
LINE
  5
30B
100
AcDbEntity
  8
0
100
AcDbLine
 62
7
  6
CONTINUOUS
 10
36.3348090132
 20
38.8466598369
 11
35.9955804092
 21
38.7496271865
  0
SPLINE
  5
30C
100
AcDbEntity
  8
0
100
AcDbSpline
 62
7
  6
CONTINUOUS
 70
0
 71
3
 72
9
 73
5
 74
0
 42
0.0000001
 43
0.0000001
 44
0.0000000001
 40
0.0
 40
0.0
 40
0.0
 40
0.0
 40
0.4999480619
 40
1.0
 40
1.0
 40
1.0
 40
1.0
 10
35.3406302149
 20
41.4083057885
 30
0.0
 10
35.4347818521
 20
40.9617540388
 30
0.0
 10
35.6405026843
 20
40.0721857712
 30
0.0
 10
35.873165859
 20
39.1893705695
 30
0.0
 10
35.9954723082
 20
38.7495971223
 30
0.0
  0
SPLINE
  5
30D
100
AcDbEntity
  8
0
100
AcDbSpline
 62
7
  6
CONTINUOUS
 70
0
 71
3
 72
10
 73
6
 74
0
 42
0.0000001
 43
0.0000001
 44
0.0000000001
 40
0.0
 40
0.0
 40
0.0
 40
0.0
 40
0.5005486885
 40
0.7504232094
 40
1.0
 40
1.0
 40
1.0
 40
1.0
 10
35.5599659326
 20
38.6662829411
 30
0.0
 10
35.4224095568
 20
39.1198569654
 30
0.0
 10
35.2254169855
 20
39.8027329958
 30
0.0
 10
34.9848527967
 20
40.7186048549
 30
0.0
 10
34.8726399371
 20
41.1780700813
 30
0.0
 10
34.8188981821
 20
41.408204779
 30
0.0
  0
SPLINE
  5
30E
100
AcDbEntity
  8
0
100
AcDbSpline
 62
7
  6
CONTINUOUS
 70
0
 71
3
 72
16
 73
12
 74
0
 42
0.0000001
 43
0.0000001
 44
0.0000000001
 40
0.0
 40
0.0
 40
0.0
 40
0.0
 40
0.0052588717
 40
0.0207066171
 40
0.046469471
 40
0.0825121261
 40
0.1821359003
 40
0.3100517226
 40
0.4624457507
 40
0.6320515253
 40
1.0
 40
1.0
 40
1.0
 40
1.0
 10
37.7855810412
 20
32.7214448523
 30
0.0
 10
37.7842481873
 20
32.7242217578
 30
0.0
 10
37.779169292
 20
32.7352359264
 30
0.0
 10
37.7676064265
 20
32.7598753152
 30
0.0
 10
37.7485581632
 20
32.8009194886
 30
0.0
 10
37.7088348963
 20
32.8867221345
 30
0.0
 10
37.6446043858
 20
33.0271127842
 30
0.0
 10
37.5536010056
 20
33.2301904005
 30
0.0
 10
37.4474580795
 20
33.4713942496
 30
0.0
 10
37.2872111785
 20
33.8423815418
 30
0.0
 10
37.1650789926
 20
34.1325928191
 30
0.0
 10
37.0823746806
 20
34.3316058193
 30
0.0
  0
SPLINE
  5
30F
100
AcDbEntity
  8
0
100
AcDbSpline
 62
7
  6
CONTINUOUS
 70
0
 71
3
 72
10
 73
6
 74
0
 42
0.0000001
 43
0.0000001
 44
0.0000000001
 40
0.0
 40
0.0
 40
0.0
 40
0.0
 40
0.4999928985
 40
0.7499971432
 40
1.0
 40
1.0
 40
1.0
 40
1.0
 10
35.8516752728
 20
38.7124210327
 30
0.0
 10
35.727844318
 20
39.1582365452
 30
0.0
 10
35.5510964119
 20
39.829538494
 30
0.0
 10
35.3365956316
 20
40.7297658382
 30
0.0
 10
35.2371267663
 20
41.181688898
 30
0.0
 10
35.1896365955
 20
41.4081150922
 30
0.0
  0
SPLINE
  5
310
100
AcDbEntity
  8
0
100
AcDbSpline
 62
7
  6
CONTINUOUS
 70
0
 71
3
 72
25
 73
21
 74
0
 42
0.0000001
 43
0.0000001
 44
0.0000000001
 40
0.0
 40
0.0
 40
0.0
 40
0.0
 40
0.062496499
 40
0.1249939689
 40
0.1874914001
 40
0.2499904916
 40
0.3749848045
 40
0.4999808193
 40
0.5624820454
 40
0.6249813946
 40
0.6874797241
 40
0.749983404
 40
0.8124940596
 40
0.8437443542
 40
0.874990821
 40
0.9062363719
 40
0.9374815731
 40
0.9531093705
 40
0.9687444262
 40
1.0
 40
1.0
 40
1.0
 40
1.0
 10
35.8044701095
 20
41.8883353605
 30
0.0
 10
35.8393182316
 20
41.6497796754
 30
0.0
 10
35.9149198029
 20
41.1735156684
 30
0.0
 10
36.0426050623
 20
40.4615677561
 30
0.0
 10
36.1829179098
 20
39.7519900098
 30
0.0
 10
36.3855067451
 20
38.8091077785
 30
0.0
 10
36.6650468274
 20
37.6363076693
 30
0.0
 10
36.9796092084
 20
36.4724009319
 30
0.0
 10
37.2522109152
 20
35.5473042743
 30
0.0
 10
37.4682850235
 20
34.8569941904
 30
0.0
 10
37.6970931069
 20
34.1707781157
 30
0.0
 10
37.9402656531
 20
33.4894727425
 30
0.0
 10
38.1562221174
 20
32.9265751407
 30
0.0
 10
38.3405012073
 20
32.4809142095
 30
0.0
 10
38.485305448
 20
32.1495213469
 30
0.0
 10
38.6375651143
 20
31.8214959736
 30
0.0
 10
38.772598537
 20
31.5520218282
 30
0.0
 10
38.8866804712
 20
31.3395609024
 30
0.0
 10
39.0049663344
 20
31.1293978356
 30
0.0
 10
39.1001783809
 20
30.9753376557
 30
0.0
 10
39.1683413638
 20
30.8758820275
 30
0.0
  0
SPLINE
  5
311
100
AcDbEntity
  8
0
100
AcDbSpline
 62
7
  6
CONTINUOUS
 70
0
 71
3
 72
13
 73
9
 74
0
 42
0.0000001
 43
0.0000001
 44
0.0000000001
 40
0.0
 40
0.0
 40
0.0
 40
0.0
 40
0.3677459109
 40
0.6891543075
 40
0.8168116588
 40
0.9151566954
 40
0.9775831056
 40
1.0
 40
1.0
 40
1.0
 40
1.0
 10
37.0823752414
 20
34.3316060198
 30
0.0
 10
37.0008195971
 20
34.5278774016
 30
0.0
 10
36.8495908718
 20
34.8963569123
 30
0.0
 10
36.6724773996
 20
35.3339551753
 30
0.0
 10
36.5540752315
 20
35.6273441344
 30
0.0
 10
36.491836793
 20
35.7819891829
 30
0.0
 10
36.4522389825
 20
35.8801802432
 30
0.0
 10
36.4339432592
 20
35.9256751948
 30
0.0
 10
36.4290565661
 20
35.9376742806
 30
0.0
  0
SPLINE
  5
312
100
AcDbEntity
  8
0
100
AcDbSpline
 62
7
  6
CONTINUOUS
 70
0
 71
3
 72
15
 73
11
 74
0
 42
0.0000001
 43
0.0000001
 44
0.0000000001
 40
0.0
 40
0.0
 40
0.0
 40
0.0
 40
0.0545887547
 40
0.1149075139
 40
0.1941586883
 40
0.2985442415
 40
0.4307279892
 40
0.591712494
 40
0.7815595511
 40
1.0
 40
1.0
 40
1.0
 40
1.0
 10
38.0687887612
 20
32.728157383
 30
0.0
 10
38.0705495773
 20
32.7281955926
 30
0.0
 10
38.0743510072
 20
32.7293203938
 30
0.0
 10
38.0784000401
 20
32.7344319087
 30
0.0
 10
38.0809011476
 20
32.7419602888
 30
0.0
 10
38.0822775635
 20
32.7520941845
 30
0.0
 10
38.0825130859
 20
32.7649351268
 30
0.0
 10
38.0816324128
 20
32.7805038684
 30
0.0
 10
38.079649758
 20
32.7987688122
 30
0.0
 10
38.0777402352
 20
32.8118051613
 30
0.0
 10
38.0766272795
 20
32.8187644075
 30
0.0
  0
SPLINE
  5
313
100
AcDbEntity
  8
0
100
AcDbSpline
 62
7
  6
CONTINUOUS
 70
0
 71
3
 72
9
 73
5
 74
0
 42
0.0000001
 43
0.0000001
 44
0.0000000001
 40
0.0
 40
0.0
 40
0.0
 40
0.0
 40
0.4560930367
 40
1.0
 40
1.0
 40
1.0
 40
1.0
 10
38.0756795529
 20
32.8245563112
 30
0.0
 10
38.0729908544
 20
32.8406353953
 30
0.0
 10
38.0661566124
 20
32.8757312622
 30
0.0
 10
38.0582563291
 20
32.9105936364
 30
0.0
 10
38.0537721633
 20
32.9295105278
 30
0.0
  0
LINE
  5
314
100
AcDbEntity
  8
0
100
AcDbLine
 62
7
  6
CONTINUOUS
 10
38.0353361086
 20
33.0035789353
 11
38.0341720607
 21
33.008065326
  0
SPLINE
  5
315
100
AcDbEntity
  8
0
100
AcDbSpline
 62
7
  6
CONTINUOUS
 70
0
 71
3
 72
9
 73
5
 74
0
 42
0.0000001
 43
0.0000001
 44
0.0000000001
 40
0.0
 40
0.0
 40
0.0
 40
0.0
 40
0.2293486524
 40
1.0
 40
1.0
 40
1.0
 40
1.0
 10
38.0341720607
 20
33.008065326
 30
0.0
 10
38.0304871875
 20
33.0222395081
 30
0.0
 10
38.0141428169
 20
33.0839692485
 30
0.0
 10
37.996893838
 20
33.1454562306
 30
0.0
 10
37.9833374313
 20
33.1927630222
 30
0.0
  0
SPLINE
  5
316
100
AcDbEntity
  8
0
100
AcDbSpline
 62
7
  6
CONTINUOUS
 70
0
 71
3
 72
9
 73
5
 74
0
 42
0.0000001
 43
0.0000001
 44
0.0000000001
 40
0.0
 40
0.0
 40
0.0
 40
0.0
 40
0.2305149824
 40
1.0
 40
1.0
 40
1.0
 40
1.0
 10
37.9656409207
 20
33.2539545862
 30
0.0
 10
37.955941343
 20
33.2872071831
 30
0.0
 10
37.9133507672
 20
33.4313111824
 30
0.0
 10
37.8689977982
 20
33.5748896155
 30
0.0
 10
37.8342913525
 20
33.6851847657
 30
0.0
  0
SPLINE
  5
317
100
AcDbEntity
  8
0
100
AcDbSpline
 62
7
  6
CONTINUOUS
 70
0
 71
3
 72
11
 73
7
 74
0
 42
0.0000001
 43
0.0000001
 44
0.0000000001
 40
0.0
 40
0.0
 40
0.0
 40
0.0
 40
0.2533279086
 40
0.5133334773
 40
0.7666737315
 40
1.0
 40
1.0
 40
1.0
 40
1.0
 10
37.8000256255
 20
33.7934195612
 30
0.0
 10
37.7602148015
 20
33.9184138943
 30
0.0
 10
37.6778335898
 20
34.1711593022
 30
0.0
 10
37.5484512825
 20
34.5465119856
 30
0.0
 10
37.4161235364
 20
34.9098407978
 30
0.0
 10
37.3228792938
 20
35.1440394238
 30
0.0
 10
37.2757547042
 20
35.2552941997
 30
0.0
  0
SPLINE
  5
318
100
AcDbEntity
  8
0
100
AcDbSpline
 62
7
  6
CONTINUOUS
 70
0
 71
3
 72
9
 73
5
 74
0
 42
0.0000001
 43
0.0000001
 44
0.0000000001
 40
0.0
 40
0.0
 40
0.0
 40
0.0
 40
0.2609287322
 40
1.0
 40
1.0
 40
1.0
 40
1.0
 10
37.2757547042
 20
35.2552941997
 30
0.0
 10
37.2674597342
 20
35.2748775008
 30
0.0
 10
37.2353847875
 20
35.3498083077
 30
0.0
 10
37.2022372694
 20
35.4242842153
 30
0.0
 10
37.1769238808
 20
35.4789474268
 30
0.0
  0
SPLINE
  5
319
100
AcDbEntity
  8
0
100
AcDbSpline
 62
7
  6
CONTINUOUS
 70
0
 71
3
 72
9
 73
5
 74
0
 42
0.0000001
 43
0.0000001
 44
0.0000000001
 40
0.0
 40
0.0
 40
0.0
 40
0.0
 40
0.2773407967
 40
1.0
 40
1.0
 40
1.0
 40
1.0
 10
37.1769238808
 20
35.4789474268
 30
0.0
 10
37.1660544025
 20
35.5024196138
 30
0.0
 10
37.1262947575
 20
35.5867795113
 30
0.0
 10
37.0838777526
 20
35.6699516617
 30
0.0
 10
37.0505996329
 20
35.7285636554
 30
0.0
  0
SPLINE
  5
31A
100
AcDbEntity
  8
0
100
AcDbSpline
 62
7
  6
CONTINUOUS
 70
0
 71
3
 72
9
 73
5
 74
0
 42
0.0000001
 43
0.0000001
 44
0.0000000001
 40
0.0
 40
0.0
 40
0.0
 40
0.0
 40
0.2671814247
 40
1.0
 40
1.0
 40
1.0
 40
1.0
 10
37.0505996329
 20
35.7285636554
 30
0.0
 10
37.0462725112
 20
35.7361849161
 30
0.0
 10
37.0299038045
 20
35.7646100777
 30
0.0
 10
37.0128332791
 20
35.7926369499
 30
0.0
 10
36.9997932579
 20
35.8128301971
 30
0.0
  0
SPLINE
  5
31B
100
AcDbEntity
  8
0
100
AcDbSpline
 62
7
  6
CONTINUOUS
 70
0
 71
3
 72
9
 73
5
 74
0
 42
0.0000001
 43
0.0000001
 44
0.0000000001
 40
0.0
 40
0.0
 40
0.0
 40
0.0
 40
0.2627749584
 40
1.0
 40
1.0
 40
1.0
 40
1.0
 10
36.9897034209
 20
35.8282075738
 30
0.0
 10
36.9875056158
 20
35.8315018888
 30
0.0
 10
36.9790765863
 20
35.8439946608
 30
0.0
 10
36.9703770942
 20
35.8563068272
 30
0.0
 10
36.9637661058
 20
35.8652362873
 30
0.0
  0
SPLINE
  5
31C
100
AcDbEntity
  8
0
100
AcDbSpline
 62
7
  6
CONTINUOUS
 70
0
 71
3
 72
12
 73
8
 74
0
 42
0.0000001
 43
0.0000001
 44
0.0000000001
 40
0.0
 40
0.0
 40
0.0
 40
0.0
 40
0.355176153
 40
0.6371050522
 40
0.7511790666
 40
0.8484569403
 40
1.0
 40
1.0
 40
1.0
 40
1.0
 10
36.9637661058
 20
35.8652362873
 30
0.0
 10
36.9546549558
 20
35.8775427148
 30
0.0
 10
36.9376473659
 20
35.8991426018
 30
0.0
 10
36.9151410166
 20
35.9225650251
 30
0.0
 10
36.898375993
 20
35.9357661116
 30
0.0
 10
36.8850746887
 20
35.9438991481
 30
0.0
 10
36.8743988299
 20
35.9474683112
 30
0.0
 10
36.8678667497
 20
35.9473459015
 30
0.0
  0
SPLINE
  5
31D
100
AcDbEntity
  8
0
100
AcDbSpline
 62
7
  6
CONTINUOUS
 70
0
 71
3
 72
9
 73
5
 74
0
 42
0.0000001
 43
0.0000001
 44
0.0000000001
 40
0.0
 40
0.0
 40
0.0
 40
0.0
 40
0.5068325524
 40
1.0
 40
1.0
 40
1.0
 40
1.0
 10
36.8678684
 20
35.9473407017
 30
0.0
 10
36.8757446362
 20
35.9225260492
 30
0.0
 10
36.9011502807
 20
35.8761550189
 30
0.0
 10
36.9422654043
 20
35.8430084678
 30
0.0
 10
36.9646685871
 20
35.8311829574
 30
0.0
  0
SPLINE
  5
31E
100
AcDbEntity
  8
0
100
AcDbSpline
 62
7
  6
CONTINUOUS
 70
0
 71
3
 72
9
 73
5
 74
0
 42
0.0000001
 43
0.0000001
 44
0.0000000001
 40
0.0
 40
0.0
 40
0.0
 40
0.0
 40
0.5000008884
 40
1.0
 40
1.0
 40
1.0
 40
1.0
 10
57.1582498318
 20
101.3052734127
 30
0.0
 10
57.0556530338
 20
100.8635883766
 30
0.0
 10
56.8627137
 20
99.9773243897
 30
0.0
 10
56.6979301067
 20
99.0853067575
 30
0.0
 10
56.6243880143
 20
98.6378675176
 30
0.0
  0
SPLINE
  5
31F
100
AcDbEntity
  8
0
100
AcDbSpline
 62
7
  6
CONTINUOUS
 70
0
 71
3
 72
10
 73
6
 74
0
 42
0.0000001
 43
0.0000001
 44
0.0000000001
 40
0.0
 40
0.0
 40
0.0
 40
0.0
 40
0.2495628494
 40
0.4994332827
 40
1.0
 40
1.0
 40
1.0
 40
1.0
 10
55.5839058839
 20
98.6383014529
 30
0.0
 10
55.6382419067
 20
98.8686540433
 30
0.0
 10
55.7516504231
 20
99.3285524475
 30
0.0
 10
55.9946361951
 20
100.2452819296
 30
0.0
 10
56.1934640625
 20
100.9287707549
 30
0.0
 10
56.332251147
 20
101.3827450317
 30
0.0
  0
SPLINE
  5
320
100
AcDbEntity
  8
0
100
AcDbSpline
 62
7
  6
CONTINUOUS
 70
0
 71
3
 72
12
 73
8
 74
0
 42
0.0000001
 43
0.0000001
 44
0.0000000001
 40
0.0
 40
0.0
 40
0.0
 40
0.0
 40
0.145247752
 40
0.2414941598
 40
0.3554398202
 40
0.6388096012
 40
1.0
 40
1.0
 40
1.0
 40
1.0
 10
57.6678258262
 20
104.0991885466
 30
0.0
 10
57.6756843332
 20
104.0992720013
 30
0.0
 10
57.6884362963
 20
104.1045583041
 30
0.0
 10
57.7041543102
 20
104.1154521098
 30
0.0
 10
57.7243360903
 20
104.1330910567
 30
0.0
 10
57.7516155167
 20
104.1638804429
 30
0.0
 10
57.7721735763
 20
104.1921016009
 30
0.0
 10
57.7831897768
 20
104.2082438533
 30
0.0
  0
SPLINE
  5
321
100
AcDbEntity
  8
0
100
AcDbSpline
 62
7
  6
CONTINUOUS
 70
0
 71
3
 72
9
 73
5
 74
0
 42
0.0000001
 43
0.0000001
 44
0.0000000001
 40
0.0
 40
0.0
 40
0.0
 40
0.0
 40
0.2395454742
 40
1.0
 40
1.0
 40
1.0
 40
1.0
 10
57.78594745
 20
104.2123075994
 30
0.0
 10
57.7878680249
 20
104.2151536194
 30
0.0
 10
57.7958219417
 20
104.227077473
 30
0.0
 10
57.8035372558
 20
104.2391596649
 30
0.0
 10
57.8092986724
 20
104.2484121737
 30
0.0
  0
SPLINE
  5
322
100
AcDbEntity
  8
0
100
AcDbSpline
 62
7
  6
CONTINUOUS
 70
0
 71
3
 72
9
 73
5
 74
0
 42
0.0000001
 43
0.0000001
 44
0.0000000001
 40
0.0
 40
0.0
 40
0.0
 40
0.0
 40
0.229574265
 40
1.0
 40
1.0
 40
1.0
 40
1.0
 10
57.8092986724
 20
104.2484121737
 30
0.0
 10
57.8147809755
 20
104.2572164419
 30
0.0
 10
57.8382394692
 20
104.2958295401
 30
0.0
 10
57.8602699449
 20
104.3352957736
 30
0.0
 10
57.8767535296
 20
104.3659511582
 30
0.0
  0
SPLINE
  5
323
100
AcDbEntity
  8
0
100
AcDbSpline
 62
7
  6
CONTINUOUS
 70
0
 71
3
 72
9
 73
5
 74
0
 42
0.0000001
 43
0.0000001
 44
0.0000000001
 40
0.0
 40
0.0
 40
0.0
 40
0.0
 40
0.2318433868
 40
1.0
 40
1.0
 40
1.0
 40
1.0
 10
57.9183330387
 20
104.4458893473
 30
0.0
 10
57.926931449
 20
104.4629523062
 30
0.0
 10
57.9634591672
 20
104.5368315204
 30
0.0
 10
57.9977468074
 20
104.6118034856
 30
0.0
 10
58.0232808754
 20
104.6697319608
 30
0.0
  0
SPLINE
  5
324
100
AcDbEntity
  8
0
100
AcDbSpline
 62
7
  6
CONTINUOUS
 70
0
 71
3
 72
11
 73
7
 74
0
 42
0.0000001
 43
0.0000001
 44
0.0000000001
 40
0.0
 40
0.0
 40
0.0
 40
0.0
 40
0.2284192409
 40
0.4761624518
 40
0.7363243949
 40
1.0
 40
1.0
 40
1.0
 40
1.0
 10
58.048115154
 20
104.7267349604
 30
0.0
 10
58.0849062237
 20
104.812128494
 30
0.0
 10
58.1587624253
 20
104.9913678015
 30
0.0
 10
58.2659653923
 20
105.2713046901
 30
0.0
 10
58.3714812801
 20
105.567153261
 30
0.0
 10
58.4407624979
 20
105.7688259264
 30
0.0
 10
58.4749686161
 20
105.8705630815
 30
0.0
  0
SPLINE
  5
325
100
AcDbEntity
  8
0
100
AcDbSpline
 62
7
  6
CONTINUOUS
 70
0
 71
3
 72
9
 73
5
 74
0
 42
0.0000001
 43
0.0000001
 44
0.0000000001
 40
0.0
 40
0.0
 40
0.0
 40
0.0
 40
0.5296531437
 40
1.0
 40
1.0
 40
1.0
 40
1.0
 10
58.7199828645
 20
106.6391816549
 30
0.0
 10
58.7364960713
 20
106.6938660972
 30
0.0
 10
58.7672572834
 20
106.7972380239
 30
0.0
 10
58.796870243
 20
106.9009479558
 30
0.0
 10
58.8103466331
 20
106.9498522209
 30
0.0
  0
SPLINE
  5
326
100
AcDbEntity
  8
0
100
AcDbSpline
 62
7
  6
CONTINUOUS
 70
0
 71
3
 72
9
 73
5
 74
0
 42
0.0000001
 43
0.0000001
 44
0.0000000001
 40
0.0
 40
0.0
 40
0.0
 40
0.0
 40
0.2664014374
 40
1.0
 40
1.0
 40
1.0
 40
1.0
 10
58.8103466331
 20
106.9498522209
 30
0.0
 10
58.8132785932
 20
106.9604919658
 30
0.0
 10
58.8241994848
 20
107.0004538933
 30
0.0
 10
58.834763515
 20
107.0405147515
 30
0.0
 10
58.8421918708
 20
107.0699840414
 30
0.0
  0
SPLINE
  5
327
100
AcDbEntity
  8
0
100
AcDbSpline
 62
7
  6
CONTINUOUS
 70
0
 71
3
 72
9
 73
5
 74
0
 42
0.0000001
 43
0.0000001
 44
0.0000000001
 40
0.0
 40
0.0
 40
0.0
 40
0.0
 40
0.2707250248
 40
1.0
 40
1.0
 40
1.0
 40
1.0
 10
58.8534109959
 20
107.1157409891
 30
0.0
 10
58.8550300293
 20
107.1225572018
 30
0.0
 10
58.8609176527
 20
107.1477563519
 30
0.0
 10
58.8664216491
 20
107.1730481651
 30
0.0
 10
58.8700684755
 20
107.1915647317
 30
0.0
  0
SPLINE
  5
328
100
AcDbEntity
  8
0
100
AcDbSpline
 62
7
  6
CONTINUOUS
 70
0
 71
3
 72
15
 73
11
 74
0
 42
0.0000001
 43
0.0000001
 44
0.0000000001
 40
0.0
 40
0.0
 40
0.0
 40
0.0
 40
0.220188867
 40
0.4117232864
 40
0.5741507348
 40
0.7073030398
 40
0.8118740504
 40
0.8902915607
 40
0.9484880375
 40
1.0
 40
1.0
 40
1.0
 40
1.0
 10
58.8745395827
 20
107.2155216233
 30
0.0
 10
58.8759244544
 20
107.2234298375
 30
0.0
 10
58.8783354083
 20
107.2382499041
 30
0.0
 10
58.8809846239
 20
107.2590215349
 30
0.0
 10
58.8823866604
 20
107.2767375852
 30
0.0
 10
58.8825245283
 20
107.2913419738
 30
0.0
 10
58.8813587889
 20
107.3028533173
 30
0.0
 10
58.8789315105
 20
107.311359151
 30
0.0
 10
58.8747788594
 20
107.317194327
 30
0.0
 10
58.8706601907
 20
107.3184799898
 30
0.0
 10
58.8687821563
 20
107.3185075231
 30
0.0
  0
SPLINE
  5
329
100
AcDbEntity
  8
0
100
AcDbSpline
 62
7
  6
CONTINUOUS
 70
0
 71
3
 72
9
 73
5
 74
0
 42
0.0000001
 43
0.0000001
 44
0.0000000001
 40
0.0
 40
0.0
 40
0.0
 40
0.0
 40
0.4269313577
 40
1.0
 40
1.0
 40
1.0
 40
1.0
 10
57.3619511013
 20
104.1049284334
 30
0.0
 10
57.4054646212
 20
104.1034800399
 30
0.0
 10
57.5074212373
 20
104.1011868963
 30
0.0
 10
57.6093902225
 20
104.0998207572
 30
0.0
 10
57.6678272494
 20
104.0991918298
 30
0.0
  0
SPLINE
  5
32A
100
AcDbEntity
  8
0
100
AcDbSpline
 62
7
  6
CONTINUOUS
 70
0
 71
3
 72
9
 73
5
 74
0
 42
0.0000001
 43
0.0000001
 44
0.0000000001
 40
0.0
 40
0.0
 40
0.0
 40
0.0
 40
0.5000011248
 40
1.0
 40
1.0
 40
1.0
 40
1.0
 10
56.620213296
 20
101.3637455207
 30
0.0
 10
56.4932771186
 20
100.9130686719
 30
0.0
 10
56.2517146982
 20
100.0081998706
 30
0.0
 10
56.0386652406
 20
99.0961014967
 30
0.0
 10
55.9411769979
 20
98.6381533719
 30
0.0
  0
SPLINE
  5
32B
100
AcDbEntity
  8
0
100
AcDbSpline
 62
7
  6
CONTINUOUS
 70
0
 71
3
 72
25
 73
21
 74
0
 42
0.0000001
 43
0.0000001
 44
0.0000000001
 40
0.0
 40
0.0
 40
0.0
 40
0.0
 40
0.0312549728
 40
0.046890516
 40
0.0625188245
 40
0.0937647551
 40
0.1250106067
 40
0.1562571246
 40
0.1875073298
 40
0.2500177011
 40
0.3125212789
 40
0.3750195933
 40
0.4375188749
 40
0.5000200413
 40
0.6250161552
 40
0.7500104639
 40
0.8125093666
 40
0.8750065177
 40
0.9375037091
 40
1.0
 40
1.0
 40
1.0
 40
1.0
 10
59.9688275774
 20
109.1714452351
 30
0.0
 10
59.9004957187
 20
109.0720978526
 30
0.0
 10
59.8052458857
 20
108.9180333823
 30
0.0
 10
59.6870086717
 20
108.7078233927
 30
0.0
 10
59.5729387617
 20
108.4953285346
 30
0.0
 10
59.4378921805
 20
108.2258308003
 30
0.0
 10
59.2855934863
 20
107.8977902539
 30
0.0
 10
59.1407593118
 20
107.5663809325
 30
0.0
 10
58.9564475997
 20
107.120697285
 30
0.0
 10
58.7404624802
 20
106.5577660772
 30
0.0
 10
58.4972641699
 20
105.8764163041
 30
0.0
 10
58.2684340609
 20
105.190153488
 30
0.0
 10
58.0523406157
 20
104.4997955372
 30
0.0
 10
57.7797143498
 20
103.5746339556
 30
0.0
 10
57.4651189949
 20
102.4106462624
 30
0.0
 10
57.185545137
 20
101.2377654858
 30
0.0
 10
56.9829315745
 20
100.2948195095
 30
0.0
 10
56.8426054394
 20
99.5851942795
 30
0.0
 10
56.7149209548
 20
98.8731962783
 30
0.0
 10
56.6393223479
 20
98.3968987676
 30
0.0
 10
56.6044662973
 20
98.1583275366
 30
0.0
  0
SPLINE
  5
32C
100
AcDbEntity
  8
0
100
AcDbSpline
 62
7
  6
CONTINUOUS
 70
0
 71
3
 72
22
 73
18
 74
0
 42
0.0000001
 43
0.0000001
 44
0.0000000001
 40
0.0
 40
0.0
 40
0.0
 40
0.0
 40
0.0302401078
 40
0.0610588451
 40
0.0920194263
 40
0.1230955731
 40
0.1542414659
 40
0.185435711
 40
0.2479381458
 40
0.3105365375
 40
0.3731723868
 40
0.4358399323
 40
0.4985318564
 40
0.6239414258
 40
0.7493556104
 40
0.8747338149
 40
1.0
 40
1.0
 40
1.0
 40
1.0
 10
60.3797137385
 20
108.8884554732
 30
0.0
 10
60.315228764
 20
108.79484843
 30
0.0
 10
60.1951048654
 20
108.5989448328
 30
0.0
 10
60.0296872109
 20
108.2951279366
 30
0.0
 10
59.8737679624
 20
107.9827740996
 30
0.0
 10
59.7267483121
 20
107.6648225642
 30
0.0
 10
59.5864566945
 20
107.3428987603
 30
0.0
 10
59.4074028995
 20
106.9091066554
 30
0.0
 10
59.1970146674
 20
106.3604833572
 30
0.0
 10
58.9595121729
 20
105.6959230726
 30
0.0
 10
58.7355782772
 20
105.0260145611
 30
0.0
 10
58.5237372985
 20
104.351826881
 30
0.0
 10
58.2560028598
 20
103.448007057
 30
0.0
 10
57.9463813116
 20
102.3107519594
 30
0.0
 10
57.6149995826
 20
100.9358256838
 30
0.0
 10
57.3242583913
 20
99.5522940943
 30
0.0
 10
57.1620093699
 20
98.6239206848
 30
0.0
 10
57.0916970451
 20
98.1583401726
 30
0.0
  0
SPLINE
  5
32D
100
AcDbEntity
  8
0
100
AcDbSpline
 62
7
  6
CONTINUOUS
 70
0
 71
3
 72
43
 73
39
 74
0
 42
0.0000001
 43
0.0000001
 44
0.0000000001
 40
0.0
 40
0.0
 40
0.0
 40
0.0
 40
0.0016138996
 40
0.0037146318
 40
0.0067229391
 40
0.0108560153
 40
0.016224074
 40
0.0228288934
 40
0.0306441952
 40
0.039637072
 40
0.0610221672
 40
0.0867210809
 40
0.1164045981
 40
0.1496587424
 40
0.1860839986
 40
0.22529639
 40
0.310300434
 40
0.4011522645
 40
0.4947308302
 40
0.5881603622
 40
0.6786402314
 40
0.7219503716
 40
0.7634710901
 40
0.8028140711
 40
0.8396461823
 40
0.8736380663
 40
0.9043671371
 40
0.9313896383
 40
0.9543607227
 40
0.9642332401
 40
0.9729787387
 40
0.9805567921
 40
0.986928314
 40
0.9920578178
 40
0.995923836
 40
0.9985303458
 40
0.9993876034
 40
1.0
 40
1.0
 40
1.0
 40
1.0
 10
57.3620269327
 20
104.104898921
 30
0.0
 10
57.3601889324
 20
104.1053029715
 30
0.0
 10
57.3562745558
 20
104.1078655024
 30
0.0
 10
57.3531063848
 20
104.1152922443
 30
0.0
 10
57.3515221415
 20
104.1259745175
 30
0.0
 10
57.3515625101
 20
104.1406085173
 30
0.0
 10
57.353273947
 20
104.1593180473
 30
0.0
 10
57.3566553479
 20
104.1821534256
 30
0.0
 10
57.3617025564
 20
104.2089877335
 30
0.0
 10
57.3711976971
 20
104.2525040555
 30
0.0
 10
57.3873362813
 20
104.3158868196
 30
0.0
 10
57.4118870557
 20
104.4019762261
 30
0.0
 10
57.442337764
 20
104.5007501061
 30
0.0
 10
57.4782716884
 20
104.6109031221
 30
0.0
 10
57.5192670474
 20
104.7310798618
 30
0.0
 10
57.5817826575
 20
104.9076596097
 30
0.0
 10
57.6690620037
 20
105.1427780864
 30
0.0
 10
57.7830869804
 20
105.4355416525
 30
0.0
 10
57.9050661753
 20
105.7357144075
 30
0.0
 10
58.0311426916
 20
106.0337170698
 30
0.0
 10
58.137757931
 20
106.2762794764
 30
0.0
 10
58.2220640172
 20
106.4625081377
 30
0.0
 10
58.2827684851
 20
106.5939630519
 30
0.0
 10
58.3413077156
 20
106.718092792
 30
0.0
 10
58.3971102389
 20
106.8338017911
 30
0.0
 10
58.4495812859
 20
106.9399601927
 30
0.0
 10
58.4980345293
 20
107.0353386247
 30
0.0
 10
58.5417866646
 20
107.1186821313
 30
0.0
 10
58.575258295
 20
107.1799469486
 30
0.0
 10
58.5992785049
 20
107.2220770119
 30
0.0
 10
58.6147934211
 20
107.2483902825
 30
0.0
 10
58.6286604881
 20
107.2709341727
 30
0.0
 10
58.6407992374
 20
107.289575863
 30
0.0
 10
58.6511309893
 20
107.3042396227
 30
0.0
 10
58.6595803821
 20
107.3147817881
 30
0.0
 10
58.6656257414
 20
107.320941636
 30
0.0
 10
58.6696571767
 20
107.3234808788
 30
0.0
 10
58.6713878119
 20
107.3239286885
 30
0.0
 10
58.6720993404
 20
107.3238683155
 30
0.0
  0
SPLINE
  5
32E
100
AcDbEntity
  8
0
100
AcDbSpline
 62
7
  6
CONTINUOUS
 70
0
 71
3
 72
11
 73
7
 74
0
 42
0.0000001
 43
0.0000001
 44
0.0000000001
 40
0.0
 40
0.0
 40
0.0
 40
0.0
 40
0.250000156
 40
0.49999965
 40
0.749999912
 40
1.0
 40
1.0
 40
1.0
 40
1.0
 10
55.9896359853
 20
98.6385336945
 30
0.0
 10
56.0371249926
 20
98.8649613278
 30
0.0
 10
56.1366297529
 20
99.316874905
 30
0.0
 10
56.2974201259
 20
99.9920846267
 30
0.0
 10
56.468961635
 20
100.6646402636
 30
0.0
 10
56.5897438351
 20
101.1113241596
 30
0.0
 10
56.6516703491
 20
101.3342361526
 30
0.0
  0
SPLINE
  5
32F
100
AcDbEntity
  8
0
100
AcDbSpline
 62
7
  6
CONTINUOUS
 70
0
 71
3
 72
9
 73
5
 74
0
 42
0.0000001
 43
0.0000001
 44
0.0000000001
 40
0.0
 40
0.0
 40
0.0
 40
0.0
 40
0.4913908842
 40
1.0
 40
1.0
 40
1.0
 40
1.0
 10
57.7736619503
 20
104.2199377497
 30
0.0
 10
57.7492930897
 20
104.2086082815
 30
0.0
 10
57.7040130257
 20
104.1749440278
 30
0.0
 10
57.6762242894
 20
104.1257094415
 30
0.0
 10
57.6678268886
 20
104.0991919016
 30
0.0
  0
SPLINE
  5
330
100
AcDbEntity
  8
0
100
AcDbSpline
 62
7
  6
CONTINUOUS
 70
0
 71
3
 72
11
 73
7
 74
0
 42
0.0000001
 43
0.0000001
 44
0.0000000001
 40
0.0
 40
0.0
 40
0.0
 40
0.0
 40
0.1228708933
 40
0.326532415
 40
0.6184423695
 40
1.0
 40
1.0
 40
1.0
 40
1.0
 10
58.8526963623
 20
107.0383265607
 30
0.0
 10
58.8510528997
 20
107.0383163099
 30
0.0
 10
58.8469441342
 20
107.0361501923
 30
0.0
 10
58.8407655847
 20
107.0308054124
 30
0.0
 10
58.8327187247
 20
107.0221698073
 30
0.0
 10
58.8270235615
 20
107.0152080718
 30
0.0
 10
58.8238604528
 20
107.0112028491
 30
0.0
  0
SPLINE
  5
331
100
AcDbEntity
  8
0
100
AcDbSpline
 62
7
  6
CONTINUOUS
 70
0
 71
3
 72
35
 73
31
 74
0
 42
0.0000001
 43
0.0000001
 44
0.0000000001
 40
0.0
 40
0.0
 40
0.0
 40
0.0
 40
0.0130575682
 40
0.0303485934
 40
0.051614558
 40
0.076549453
 40
0.1361141424
 40
0.2064268504
 40
0.2849939541
 40
0.3693907842
 40
0.5464488637
 40
0.6344763772
 40
0.7188631419
 40
0.7588678123
 40
0.7969327472
 40
0.8326944441
 40
0.8657906016
 40
0.8958630953
 40
0.922559262
 40
0.9455591776
 40
0.9555873053
 40
0.9645905274
 40
0.972545131
 40
0.9794365647
 40
0.985254708
 40
0.989997629
 40
0.9936871884
 40
0.9963994873
 40
0.99833409
 40
1.0
 40
1.0
 40
1.0
 40
1.0
 10
58.8238604528
 20
107.0112028491
 30
0.0
 10
58.8155703249
 20
107.0007056414
 30
0.0
 10
58.7973674905
 20
106.9754764089
 30
0.0
 10
58.768033741
 20
106.9314841975
 30
0.0
 10
58.7333222083
 20
106.8764728822
 30
0.0
 10
58.6771540635
 20
106.7838206339
 30
0.0
 10
58.5978939876
 20
106.6464389912
 30
0.0
 10
58.4949337911
 20
106.4593627633
 30
0.0
 10
58.3832273068
 20
106.2481009588
 30
0.0
 10
58.2250897718
 20
105.9377438627
 30
0.0
 10
58.0694175181
 20
105.6152886709
 30
0.0
 10
57.9208302798
 20
105.2895755762
 30
0.0
 10
57.8336138707
 20
105.0902066126
 30
0.0
 10
57.7690077007
 20
104.9368384774
 30
0.0
 10
57.7247945689
 20
104.8289358998
 30
0.0
 10
57.6843841558
 20
104.7271298894
 30
0.0
 10
57.6482144512
 20
104.632457766
 30
0.0
 10
57.6166864151
 20
104.5459636948
 30
0.0
 10
57.5901657166
 20
104.4686676316
 30
0.0
 10
57.5717319886
 20
104.4103191607
 30
0.0
 10
57.559871887
 20
104.3689258516
 30
0.0
 10
57.5528313645
 20
104.3421907076
 30
0.0
 10
57.5472469678
 20
104.3184026058
 30
0.0
 10
57.5431242107
 20
104.2976349433
 30
0.0
 10
57.5404673058
 20
104.2799442432
 30
0.0
 10
57.5392590117
 20
104.265386921
 30
0.0
 10
57.5395093407
 20
104.2539243396
 30
0.0
 10
57.5411278294
 20
104.245518609
 30
0.0
 10
57.5445324512
 20
104.239626477
 30
0.0
 10
57.5483688486
 20
104.2383426068
 30
0.0
 10
57.5500753816
 20
104.2383388571
 30
0.0
  0
LINE
  5
332
100
AcDbEntity
  8
0
100
AcDbLine
 62
7
  6
CONTINUOUS
 10
57.6029713752
 20
105.0345062106
 11
57.6148458312
 21
105.0637038662
  0
SPLINE
  5
333
100
AcDbEntity
  8
0
100
AcDbSpline
 62
7
  6
CONTINUOUS
 70
0
 71
3
 72
10
 73
6
 74
0
 42
0.0000001
 43
0.0000001
 44
0.0000000001
 40
0.0
 40
0.0
 40
0.0
 40
0.0
 40
0.5005488671
 40
0.7504233101
 40
1.0
 40
1.0
 40
1.0
 40
1.0
 10
56.3599597093
 20
101.380373263
 30
0.0
 10
56.2223993732
 20
100.9267889535
 30
0.0
 10
56.0254008802
 20
100.2438976262
 30
0.0
 10
55.7848323756
 20
99.3280045171
 30
0.0
 10
55.6726201271
 20
98.8685281928
 30
0.0
 10
55.6188783072
 20
98.6383880666
 30
0.0
  0
SPLINE
  5
334
100
AcDbEntity
  8
0
100
AcDbSpline
 62
7
  6
CONTINUOUS
 70
0
 71
3
 72
14
 73
10
 74
0
 42
0.0000001
 43
0.0000001
 44
0.0000000001
 40
0.0
 40
0.0
 40
0.0
 40
0.0
 40
0.355333227
 40
0.5186121002
 40
0.6649870531
 40
0.7898596179
 40
0.8893575698
 40
0.9601089843
 40
1.0
 40
1.0
 40
1.0
 40
1.0
 10
56.7955434121
 20
101.2970476196
 30
0.0
 10
56.778616976
 20
101.3018978164
 30
0.0
 10
56.7538738978
 20
101.3088433026
 30
0.0
 10
56.722070818
 20
101.3174667914
 30
0.0
 10
56.7012507281
 20
101.322961868
 30
0.0
 10
56.6834453478
 20
101.327476851
 30
0.0
 10
56.6692258673
 20
101.3309251357
 30
0.0
 10
56.659052507
 20
101.3330846243
 30
0.0
 10
56.6536468499
 20
101.3341205517
 30
0.0
 10
56.6516736976
 20
101.3342388831
 30
0.0
  0
LINE
  5
335
100
AcDbEntity
  8
0
100
AcDbLine
 62
7
  6
CONTINUOUS
 10
56.7955434148
 20
101.2970476293
 11
57.1348144691
 21
101.2000023936
  0
LINE
  5
336
100
AcDbEntity
  8
0
100
AcDbLine
 62
7
  6
CONTINUOUS
 10
56.359996677
 20
101.3803692892
 11
56.6007103129
 21
101.305089854
  0
SPLINE
  5
337
100
AcDbEntity
  8
0
100
AcDbSpline
 62
7
  6
CONTINUOUS
 70
0
 71
3
 72
15
 73
11
 74
0
 42
0.0000001
 43
0.0000001
 44
0.0000000001
 40
0.0
 40
0.0
 40
0.0
 40
0.0
 40
0.215030914
 40
0.4090611187
 40
0.5806066096
 40
0.7286060198
 40
0.8479804002
 40
0.9336887893
 40
0.9840537872
 40
1.0
 40
1.0
 40
1.0
 40
1.0
 10
58.3091486091
 20
106.7152649247
 30
0.0
 10
58.3284763261
 20
106.7591472666
 30
0.0
 10
58.3653765647
 20
106.8425164554
 30
0.0
 10
58.4183289584
 20
106.9608697313
 30
0.0
 10
58.4652787931
 20
107.06469962
 30
0.0
 10
58.5067288274
 20
107.15522922
 30
0.0
 10
58.537783919
 20
107.2226036583
 30
0.0
 10
58.5662391833
 20
107.2836482243
 30
0.0
 10
58.5729047185
 20
107.2982356828
 30
0.0
 10
58.5868205069
 20
107.3277815791
 30
0.0
 10
58.5852743652
 20
107.3245794359
 30
0.0
  0
SPLINE
  5
338
100
AcDbEntity
  8
0
100
AcDbSpline
 62
7
  6
CONTINUOUS
 70
0
 71
3
 72
9
 73
5
 74
0
 42
0.0000001
 43
0.0000001
 44
0.0000000001
 40
0.0
 40
0.0
 40
0.0
 40
0.0
 40
0.2500570223
 40
1.0
 40
1.0
 40
1.0
 40
1.0
 10
56.7953539326
 20
101.2971003229
 30
0.0
 10
56.7341990206
 20
101.0771919833
 30
0.0
 10
56.4953301776
 20
100.196204628
 30
0.0
 10
56.2817855167
 20
99.3081975638
 30
0.0
 10
56.1405615699
 20
98.6383713812
 30
0.0
  0
SPLINE
  5
339
100
AcDbEntity
  8
0
100
AcDbSpline
 62
7
  6
CONTINUOUS
 70
0
 71
3
 72
11
 73
7
 74
0
 42
0.0000001
 43
0.0000001
 44
0.0000000001
 40
0.0
 40
0.0
 40
0.0
 40
0.0
 40
0.2548321807
 40
0.5068145621
 40
0.7548064975
 40
1.0
 40
1.0
 40
1.0
 40
1.0
 10
11.1952116594
 20
42.5883313473
 30
0.0
 10
11.1952116594
 20
42.5233931274
 30
0.0
 10
11.2198079156
 20
42.3929011859
 30
0.0
 10
11.3258009899
 20
42.2268382714
 30
0.0
 10
11.4851445303
 20
42.1147335306
 30
0.0
 10
11.612282091
 20
42.0883313473
 30
0.0
 10
11.6747641117
 20
42.0883313473
 30
0.0
  0
SPLINE
  5
33A
100
AcDbEntity
  8
0
100
AcDbSpline
 62
7
  6
CONTINUOUS
 70
0
 71
3
 72
18
 73
14
 74
0
 42
0.0000001
 43
0.0000001
 44
0.0000000001
 40
0.0
 40
0.0
 40
0.0
 40
0.0
 40
0.0101583307
 40
0.0291265588
 40
0.0567405702
 40
0.092761213
 40
0.136842475
 40
0.1886191737
 40
0.3133187701
 40
0.4624375201
 40
0.6306125094
 40
0.8120381688
 40
1.0
 40
1.0
 40
1.0
 40
1.0
 10
57.8705036764
 20
19.6064419972
 30
0.0
 10
57.871800424
 20
19.6075259467
 30
0.0
 10
57.8758530302
 20
19.6102064959
 30
0.0
 10
57.8836699998
 20
19.6154834895
 30
0.0
 10
57.8950860298
 20
19.6231430836
 30
0.0
 10
57.9098681787
 20
19.6332730125
 30
0.0
 10
57.9279598107
 20
19.645688815
 30
0.0
 10
57.9582164543
 20
19.6664518175
 30
0.0
 10
58.0029132328
 20
19.6970588751
 30
0.0
 10
58.0636321522
 20
19.7385438089
 30
0.0
 10
58.1319862384
 20
19.7855842594
 30
0.0
 10
58.2059398445
 20
19.835881384
 30
0.0
 10
58.2568013725
 20
19.8703886365
 30
0.0
 10
58.2823574456
 20
19.8884126445
 30
0.0
  0
SPLINE
  5
33B
100
AcDbEntity
  8
0
100
AcDbSpline
 62
7
  6
CONTINUOUS
 70
0
 71
3
 72
24
 73
20
 74
0
 42
0.0000001
 43
0.0000001
 44
0.0000000001
 40
0.0
 40
0.0
 40
0.0
 40
0.0
 40
0.1252533073
 40
0.2506216183
 40
0.3760290345
 40
0.5014299754
 40
0.5641185654
 40
0.6267834977
 40
0.6894146111
 40
0.752001147
 40
0.8145007285
 40
0.8457055463
 40
0.876868475
 40
0.9079622964
 40
0.938892409
 40
0.9542708917
 40
0.9695936116
 40
0.9848654758
 40
1.0
 40
1.0
 40
1.0
 40
1.0
 10
54.9958377113
 20
30.6383312581
 30
0.0
 10
55.0657043395
 20
30.1719241845
 30
0.0
 10
55.227571316
 20
29.2419455245
 30
0.0
 10
55.5171751695
 20
27.8558351627
 30
0.0
 10
55.8484910857
 20
26.4785185046
 30
0.0
 10
56.1574398548
 20
25.3390834172
 30
0.0
 10
56.4249861723
 20
24.4335941102
 30
0.0
 10
56.6367507676
 20
23.7581665964
 30
0.0
 10
56.8605547181
 20
23.0870293559
 30
0.0
 10
57.0978287051
 20
22.4211855147
 30
0.0
 10
57.3089790735
 20
21.8718030774
 30
0.0
 10
57.4880484757
 20
21.437058984
 30
0.0
 10
57.628037113
 20
21.1141704506
 30
0.0
 10
57.7743132671
 20
20.7952069714
 30
0.0
 10
57.9038946021
 20
20.534078821
 30
0.0
 10
58.0134097915
 20
20.3294696208
 30
0.0
 10
58.0986851213
 20
20.1788075107
 30
0.0
 10
58.187485266
 20
20.0312739452
 30
0.0
 10
58.2495977174
 20
19.9350463491
 30
0.0
 10
58.2818629349
 20
19.8880751929
 30
0.0
  0
SPLINE
  5
33C
100
AcDbEntity
  8
0
100
AcDbSpline
 62
7
  6
CONTINUOUS
 70
0
 71
3
 72
23
 73
19
 74
0
 42
0.0000001
 43
0.0000001
 44
0.0000000001
 40
0.0
 40
0.0
 40
0.0
 40
0.0
 40
0.1249911492
 40
0.2499858217
 40
0.3749809326
 40
0.4999767207
 40
0.5624761225
 40
0.6249752572
 40
0.6874750549
 40
0.7499732745
 40
0.7812235493
 40
0.8124766598
 40
0.8749784815
 40
0.9062295775
 40
0.9374825188
 40
0.9531147273
 40
0.9687509819
 40
1.0
 40
1.0
 40
1.0
 40
1.0
 10
54.508506365
 20
30.6383429599
 30
0.0
 10
54.5778438794
 20
30.1604069256
 30
0.0
 10
54.7396732386
 20
29.2078331532
 30
0.0
 10
55.0316522986
 20
27.7884971034
 30
0.0
 10
55.3670853507
 20
26.37877365
 30
0.0
 10
55.6809187432
 20
25.2126757565
 30
0.0
 10
55.9534671158
 20
24.2859633166
 30
0.0
 10
56.1693249091
 20
23.5943750584
 30
0.0
 10
56.3979390278
 20
22.9068966068
 30
0.0
 10
56.6004930118
 20
22.3381184023
 30
0.0
 10
56.7710438052
 20
21.886237526
 30
0.0
 10
56.9477151104
 20
21.4367090045
 30
0.0
 10
57.1353431535
 20
20.9914828587
 30
0.0
 10
57.3382216307
 20
20.5531093205
 30
0.0
 10
57.4731269574
 20
20.2829555547
 30
0.0
 10
57.5871073314
 20
20.0699440346
 30
0.0
 10
57.7055329013
 20
19.8594136572
 30
0.0
 10
57.8012986756
 20
19.7053825882
 30
0.0
 10
57.869596227
 20
19.6058160184
 30
0.0
  0
SPLINE
  5
33D
100
AcDbEntity
  8
0
100
AcDbSpline
 62
7
  6
CONTINUOUS
 70
0
 71
3
 72
22
 73
18
 74
0
 42
0.0000001
 43
0.0000001
 44
0.0000000001
 40
0.0
 40
0.0
 40
0.0
 40
0.0
 40
0.0304360215
 40
0.0611386006
 40
0.0920651535
 40
0.1231496974
 40
0.1543104205
 40
0.1855189587
 40
0.2480158406
 40
0.3106018115
 40
0.3732314259
 40
0.4358951007
 40
0.4985827524
 40
0.6239806878
 40
0.7493857038
 40
0.8747508876
 40
1.0
 40
1.0
 40
1.0
 40
1.0
 10
37.4818400434
 20
97.6385846291
 30
0.0
 10
37.4168132638
 20
97.544221803
 30
0.0
 10
37.296271433
 20
97.3477876069
 30
0.0
 10
37.1293260233
 20
97.043931049
 30
0.0
 10
36.974280192
 20
96.7310580762
 30
0.0
 10
36.8278228008
 20
96.4122480929
 30
0.0
 10
36.687883282
 20
96.0893699005
 30
0.0
 10
36.5089474502
 20
95.6545809823
 30
0.0
 10
36.2977279134
 20
95.1052298115
 30
0.0
 10
36.0604509564
 20
94.4394108171
 30
0.0
 10
35.8366974335
 20
93.7682760768
 30
0.0
 10
35.6249533369
 20
93.0928628622
 30
0.0
 10
35.3574052446
 20
92.1874026652
 30
0.0
 10
35.0484250445
 20
91.0480100126
 30
0.0
 10
34.7171748671
 20
89.6707227624
 30
0.0
 10
34.4275257541
 20
88.2846702711
 30
0.0
 10
34.2657254513
 20
87.3547161409
 30
0.0
 10
34.195841271
 20
86.8883315078
 30
0.0
  0
SPLINE
  5
33E
100
AcDbEntity
  8
0
100
AcDbSpline
 62
7
  6
CONTINUOUS
 70
0
 71
3
 72
21
 73
17
 74
0
 42
0.0000001
 43
0.0000001
 44
0.0000000001
 40
0.0
 40
0.0
 40
0.0
 40
0.0
 40
0.0625008073
 40
0.1250038968
 40
0.2499999524
 40
0.3749963837
 40
0.4999925346
 40
0.5624922829
 40
0.6249922144
 40
0.687492474
 40
0.7499924808
 40
0.8124940512
 40
0.8749953607
 40
0.9062471522
 40
0.9375038357
 40
1.0
 40
1.0
 40
1.0
 40
1.0
 10
33.7084600333
 20
86.8883192827
 30
0.0
 10
33.7431101214
 20
87.127303378
 30
0.0
 10
33.8183813645
 20
87.6044283713
 30
0.0
 10
33.9883510572
 20
88.5553194388
 30
0.0
 10
34.2316390257
 20
89.7381811601
 30
0.0
 10
34.5671057488
 20
91.1478438051
 30
0.0
 10
34.8808728573
 20
92.3139371956
 30
0.0
 10
35.1534711326
 20
93.2406110532
 30
0.0
 10
35.3692639743
 20
93.9322040631
 30
0.0
 10
35.5979726153
 20
94.6196435483
 30
0.0
 10
35.8409196248
 20
95.3022028827
 30
0.0
 10
36.1008996974
 20
95.9784990064
 30
0.0
 10
36.3356934499
 20
96.5348370257
 30
0.0
 10
36.5378412924
 20
96.9735977612
 30
0.0
 10
36.75347219
 20
97.4056904886
 30
0.0
 10
36.9342204684
 20
97.7208732541
 30
0.0
 10
37.0704940853
 20
97.9202093122
 30
0.0
  0
SPLINE
  5
33F
100
AcDbEntity
  8
0
100
AcDbSpline
 62
7
  6
CONTINUOUS
 70
0
 71
3
 72
26
 73
22
 74
0
 42
0.0000001
 43
0.0000001
 44
0.0000000001
 40
0.0
 40
0.0
 40
0.0
 40
0.0
 40
0.000363479
 40
0.0016774551
 40
0.0039268499
 40
0.0070827034
 40
0.0159937209
 40
0.0281699878
 40
0.0433799377
 40
0.0614191045
 40
0.0820881029
 40
0.1051872158
 40
0.1578813813
 40
0.2179431136
 40
0.2838329473
 40
0.3542672208
 40
0.4283935745
 40
0.5054103648
 40
0.6658067724
 40
0.8317373118
 40
1.0
 40
1.0
 40
1.0
 40
1.0
 10
16.3571808968
 20
82.1158401823
 30
0.0
 10
16.3570982436
 20
82.1158623292
 30
0.0
 10
16.3577419512
 20
82.1162764165
 30
0.0
 10
16.3581967062
 20
82.1165486768
 30
0.0
 10
16.3597753925
 20
82.1174427175
 30
0.0
 10
16.3626025861
 20
82.1190020125
 30
0.0
 10
16.3676900723
 20
82.1218100406
 30
0.0
 10
16.3750954223
 20
82.1259755512
 30
0.0
 10
16.3843716934
 20
82.1313330702
 30
0.0
 10
16.3953270083
 20
82.1377313347
 30
0.0
 10
16.4078798338
 20
82.1450935301
 30
0.0
 10
16.4274708155
 20
82.1565758874
 30
0.0
 10
16.4551209605
 20
82.1726502168
 30
0.0
 10
16.4915318764
 20
82.1936964585
 30
0.0
 10
16.5315586813
 20
82.2168329049
 30
0.0
 10
16.5744322748
 20
82.2416604163
 30
0.0
 10
16.6195755355
 20
82.2677957668
 30
0.0
 10
16.6830758275
 20
82.3044927679
 30
0.0
 10
16.7653264053
 20
82.351939055
 30
0.0
 10
16.8657978665
 20
82.4107804099
 30
0.0
 10
16.9338705023
 20
82.4502297665
 30
0.0
 10
16.968359089
 20
82.4697138229
 30
0.0
  0
SPLINE
  5
340
100
AcDbEntity
  8
0
100
AcDbSpline
 62
7
  6
CONTINUOUS
 70
0
 71
3
 72
20
 73
16
 74
0
 42
0.0000001
 43
0.0000001
 44
0.0000000001
 40
0.0
 40
0.0
 40
0.0
 40
0.0
 40
0.1682998785
 40
0.3342078327
 40
0.4945076119
 40
0.5715495458
 40
0.6457070987
 40
0.7161501978
 40
0.7820106376
 40
0.8420119081
 40
0.894620791
 40
0.938390037
 40
0.9720100287
 40
0.9938041406
 40
1.0
 40
1.0
 40
1.0
 40
1.0
 10
16.9683587932
 20
82.4697136488
 30
0.0
 10
16.9404377146
 20
82.4415982718
 30
0.0
 10
16.8847319586
 20
82.3860260736
 30
0.0
 10
16.8021259936
 20
82.3039832325
 30
0.0
 10
16.7349875613
 20
82.2368551433
 30
0.0
 10
16.6830791263
 20
82.1850496491
 30
0.0
 10
16.6461217083
 20
82.1482032695
 30
0.0
 10
16.6110401147
 20
82.1132317651
 30
0.0
 10
16.5782955878
 20
82.0805426958
 30
0.0
 10
16.5486638109
 20
82.0509850715
 30
0.0
 10
16.5221656481
 20
82.024702111
 30
0.0
 10
16.5012990288
 20
82.0043004818
 30
0.0
 10
16.482440798
 20
81.9851164448
 30
0.0
 10
16.4771091831
 20
81.9793198122
 30
0.0
 10
16.4683587932
 20
81.9694921494
 30
0.0
 10
16.4683587932
 20
81.9709508831
 30
0.0
  0
ENDSEC
  0
SECTION
  2
OBJECTS
  0
DICTIONARY
  5
C
100
AcDbDictionary
280
0
281
1
  3
ACAD_GROUP
350
D
  3
ACAD_MLINESTYLE
350
17
  3
ACAD_LAYOUT
350
1A
  3
ACAD_PLOTSETTINGS
350
19
  3
ACAD_PLOTSTYLENAME
350
E
  0
DICTIONARY
  5
D
102
{ACAD_REACTORS
330
C
102
}
100
AcDbDictionary
280
0
281
1
  0
ACDBDICTIONARYWDFLT
  5
E
102
{ACAD_REACTORS
330
C
102
}
100
AcDbDictionary
281
1
  3
Normal
350
F
100
AcDbDictionaryWithDefault
340
F
  0
DICTIONARY
  5
17
102
{ACAD_REACTORS
330
C
102
}
100
AcDbDictionary
280
0
281
1
  3
Standard
350
18
  0
DICTIONARY
  5
19
102
{ACAD_REACTORS
330
C
102
}
100
AcDbDictionary
281
1
  0
DICTIONARY
  5
1A
102
{ACAD_REACTORS
330
C
102
}
100
AcDbDictionary
281
1
  3
Model
350
341
  3
Layout1
350
342
  0
ACDBPLACEHOLDER
  5
F
102
{ACAD_REACTORS
330
E
102
}
  0
MLINESTYLE
  5
18
102
{ACAD_REACTORS
330
17
102
}
100
AcDbMlineStyle
  2
STANDARD
 70
0
  3

 62
256
 51
90.0
 52
90.0
 71
2
 49
0.5
 62
256
  6
BYLAYER
 49
-0.5
 62
256
  6
BYLAYER
  0
LAYOUT
  5
341
102
{ACAD_REACTORS
330
1A
102
}
100
AcDbPlotSettings
  1

  2
none_device
  4

  6

 40
0.0
 41
0.0
 42
0.0
 43
0.0
 44
210.0
 45
297.0
 46
0.0
 47
0.0
 48
0.0
 49
0.0
140
0.0
141
0.0
142
1.0
143
1.0
 70
1024
 72
1
 73
0
 74
0
  7

 75
0
147
1.0
148
0.0
149
0.0
100
AcDbLayout
  1
Model
 70
0
 71
0
 10
0.0
 20
0.0
 11
210.0
 21
297.0
 12
0.0
 22
0.0
 32
0.0
 14
0.0
 24
0.0
 34
0.0
 15
0.0
 25
0.0
 35
0.0
146
0.0
 13
0.0
 23
0.0
 33
0.0
 16
1.0
 26
0.0
 36
0.0
 17
0.0
 27
1.0
 37
0.0
 76
0
330
210
345
0
346
0
  0
LAYOUT
  5
342
102
{ACAD_REACTORS
330
1A
102
}
100
AcDbPlotSettings
  1

  2
none_device
  4

  6

 40
0.0
 41
0.0
 42
0.0
 43
0.0
 44
210.0
 45
297.0
 46
0.0
 47
0.0
 48
0.0
 49
0.0
140
0.0
141
0.0
142
1.0
143
1.0
 70
0
 72
1
 73
0
 74
0
  7

 75
0
147
1.0
148
0.0
149
0.0
100
AcDbLayout
  1
Layout1
 70
0
 71
1
 10
0.0
 20
0.0
 11
210.0
 21
297.0
 12
0.0
 22
0.0
 32
0.0
 14
0.0
 24
0.0
 34
0.0
 15
0.0
 25
0.0
 35
0.0
146
0.0
 13
0.0
 23
0.0
 33
0.0
 16
1.0
 26
0.0
 36
0.0
 17
0.0
 27
1.0
 37
0.0
 76
0
330
211
345
0
346
0
  0
ENDSEC
  0
EOF
