999
DXF file: C:\Users\sesa63760\Dev\_Creo\CAD\MCADID0001835_3D-CAD\drw0001_1.dxf
999
Pro/ENGINEER 2019471 by Parametric Technology Corporation
  0
SECTION
  2
HEADER
  9
$ACADVER
  1
AC1024
  9
$DWGCODEPAGE
  3
ANSI_1252
  9
$EXTMAX
 10
89.7922273601
 20
126.9918644093
 30
0.0
  9
$EXTMIN
 10
0.0
 20
0.0
 30
0.0
  9
$LIMMIN
 10
0.0
 20
0.0
  9
$LIMMAX
 10
89.7922273601
 20
126.9918644093
  9
$VIEWCTR
 10
44.89611368
 20
63.4959322046
  9
$VIEWSIZE
 40
126.9918644093
  9
$CLAYER
  8
0
  9
$LTSCALE
 40
8.2779881985
  9
$CELTYPE
  6
BYLAYER
  9
$DIMSCALE
 40
1.0
  9
$DIMASZ
 40
1.0689550876
  9
$DIMEXO
 40
1.0
  9
$DIMDLI
 40
5.7193373008
  9
$DIMEXE
 40
1.0
  9
$DIMCEN
 40
1.354579887
  9
$DIMLFAC
 40
1.0
  9
$DIMBLK
  1
_FILLED
  9
$DIMALT
 70
0
  9
$DIMALTF
 40
0.0393700787
  9
$DIMTXT
 40
1.4965371227
  9
$DIMTOL
 70
1
  9
$DIMLIM
 70
0
  9
$DIMTFAC
 40
1.0
  9
$DIMTP
 40
0.01
  9
$DIMTM
 40
0.01
  9
$DIMGAP
 40
0.625
  9
$DIMDSEP
 70
46
  9
$AUNITS
 70
0
  9
$PDMODE
 70
3
  9
$PDSIZE
 40
0.3125
  9
$HANDSEED
  5
536
  9
$TILEMODE
 70
1
  9
$MEASUREMENT
 70
1
  9
$INSUNITS
 70
4
  0
ENDSEC
  0
SECTION
  2
CLASSES
  0
CLASS
  1
ACDBDICTIONARYWDFLT
  2
AcDbDictionaryWithDefault
  3
AutoCAD 2000
 90
0
 91
1
280
0
281
0
  0
CLASS
  1
ACDBPLACEHOLDER
  2
AcDbPlaceHolder
  3
AutoCAD 2000
 90
0
 91
1
280
0
281
0
  0
CLASS
  1
LAYOUT
  2
AcDbLayout
  3
AutoCAD 2000
 90
0
 91
0
280
0
281
0
  0
ENDSEC
  0
SECTION
  2
TABLES
  0
TABLE
  2
VPORT
  5
8
100
AcDbSymbolTable
 70
2
  0
VPORT
  5
1F4
100
AcDbSymbolTableRecord
100
AcDbViewportTableRecord
  2
*ACTIVE
 70
0
 10
0.0
 20
0.0
 11
1.0
 21
1.0
 12
44.89611368
 22
63.4959322046
 13
0.0
 23
0.0
 14
1.0
 24
1.0
 15
0.0
 25
0.0
 16
0.0
 26
0.0
 36
1.0
 17
0.0
 27
0.0
 37
0.0
 40
126.9918644093
 41
0.7070707071
 42
50.0
 43
0.0
 44
0.0
 50
0.0
 51
0.0
 71
0
 72
100
 73
1
 74
1
 75
0
 76
0
 77
0
 78
0
  0
ENDTAB
  0
TABLE
  2
LTYPE
  5
5
100
AcDbSymbolTable
 70
6
  0
LTYPE
  5
14
100
AcDbSymbolTableRecord
100
AcDbLinetypeTableRecord
  2
BYBLOCK
 70
0
  3

 72
65
 73
0
 40
0.0
  0
LTYPE
  5
15
100
AcDbSymbolTableRecord
100
AcDbLinetypeTableRecord
  2
BYLAYER
 70
0
  3

 72
65
 73
0
 40
0.0
  0
LTYPE
  5
16
100
AcDbSymbolTableRecord
100
AcDbLinetypeTableRecord
  2
CONTINUOUS
 70
64
  3
Solid line
 72
65
 73
0
 40
0.0
  0
LTYPE
  5
1F5
100
AcDbSymbolTableRecord
100
AcDbLinetypeTableRecord
  2
CENTER
 70
64
  3
____ _ ____ _ ____ _ ____ _ ____ _ ____ _ ____
 72
65
 73
4
 40
0.6
 49
0.375
 74
0
 49
-0.075
 74
0
 49
0.075
 74
0
 49
-0.075
 74
0
  0
LTYPE
  5
1F6
100
AcDbSymbolTableRecord
100
AcDbLinetypeTableRecord
  2
HIDDEN
 70
64
  3
- - - - - - - - - - - - - - - - - - - -
 72
65
 73
2
 40
0.2
 49
0.1
 74
0
 49
-0.1
 74
0
  0
LTYPE
  5
1F7
100
AcDbSymbolTableRecord
100
AcDbLinetypeTableRecord
  2
PHANTOM
 70
64
  3
_____ _ _ _____ _ _ _____ _ _ _____
 72
65
 73
6
 40
0.8
 49
0.45
 74
0
 49
-0.05
 74
0
 49
0.1
 74
0
 49
-0.05
 74
0
 49
0.1
 74
0
 49
-0.05
 74
0
  0
LTYPE
  5
1F8
100
AcDbSymbolTableRecord
100
AcDbLinetypeTableRecord
  2
DOT
 70
64
  3
. . . . . . . . . . . . . . . . . . . .
 72
65
 73
2
 40
0.2
 49
0.1
 74
0
 49
-0.1
 74
0
  0
LTYPE
  5
1F9
100
AcDbSymbolTableRecord
100
AcDbLinetypeTableRecord
  2
DASHED
 70
64
  3
- - - - - - - - - - - - - - - - - - - -
 72
65
 73
2
 40
0.2
 49
0.1
 74
0
 49
-0.1
 74
0
  0
ENDTAB
  0
TABLE
  2
LAYER
  5
2
100
AcDbSymbolTable
 70
36
  0
LAYER
  5
10
100
AcDbSymbolTableRecord
100
AcDbLayerTableRecord
  2
0
 70
0
 62
7
  6
CONTINUOUS
370
-3
390
F
  0
LAYER
  5
1FA
100
AcDbSymbolTableRecord
100
AcDbLayerTableRecord
  2
DEFAULT_1
 70
0
 62
7
  6
CENTER
370
-3
390
F
  0
LAYER
  5
1FB
100
AcDbSymbolTableRecord
100
AcDbLayerTableRecord
  2
DEFAULT_2
 70
0
 62
8
  6
HIDDEN
370
-3
390
F
  0
LAYER
  5
1FC
100
AcDbSymbolTableRecord
100
AcDbLayerTableRecord
  2
DEFAULT_3
 70
0
 62
7
  6
PHANTOM
370
-3
390
F
  0
LAYER
  5
1FD
100
AcDbSymbolTableRecord
100
AcDbLayerTableRecord
  2
00_COMPONENTS
 70
0
 62
7
  6
CONTINUOUS
370
-3
390
F
  0
LAYER
  5
1FE
100
AcDbSymbolTableRecord
100
AcDbLayerTableRecord
  2
01_1_DEFAULT_DATUMS
 70
0
 62
7
  6
CONTINUOUS
370
-3
390
F
  0
LAYER
  5
1FF
100
AcDbSymbolTableRecord
100
AcDbLayerTableRecord
  2
01_PLANES
 70
0
 62
7
  6
CONTINUOUS
370
-3
390
F
  0
LAYER
  5
200
100
AcDbSymbolTableRecord
100
AcDbLayerTableRecord
  2
02_COORD_SYS
 70
0
 62
7
  6
CONTINUOUS
370
-3
390
F
  0
LAYER
  5
201
100
AcDbSymbolTableRecord
100
AcDbLayerTableRecord
  2
03_AXES
 70
0
 62
7
  6
CONTINUOUS
370
-3
390
F
  0
LAYER
  5
202
100
AcDbSymbolTableRecord
100
AcDbLayerTableRecord
  2
04_POINTS
 70
0
 62
7
  6
CONTINUOUS
370
-3
390
F
  0
LAYER
  5
203
100
AcDbSymbolTableRecord
100
AcDbLayerTableRecord
  2
05_CURVES
 70
0
 62
7
  6
CONTINUOUS
370
-3
390
F
  0
LAYER
  5
204
100
AcDbSymbolTableRecord
100
AcDbLayerTableRecord
  2
06_SURFS
 70
0
 62
7
  6
CONTINUOUS
370
-3
390
F
  0
LAYER
  5
205
100
AcDbSymbolTableRecord
100
AcDbLayerTableRecord
  2
07_COSMETICS
 70
0
 62
7
  6
CONTINUOUS
370
-3
390
F
  0
LAYER
  5
206
100
AcDbSymbolTableRecord
100
AcDbLayerTableRecord
  2
10_NOTES
 70
0
 62
7
  6
CONTINUOUS
370
-3
390
F
  0
LAYER
  5
207
100
AcDbSymbolTableRecord
100
AcDbLayerTableRecord
  2
11_NOTES_PUB
 70
0
 62
7
  6
CONTINUOUS
370
-3
390
F
  0
LAYER
  5
208
100
AcDbSymbolTableRecord
100
AcDbLayerTableRecord
  2
13_REF_GTOL
 70
0
 62
7
  6
CONTINUOUS
370
-3
390
F
  0
LAYER
  5
209
100
AcDbSymbolTableRecord
100
AcDbLayerTableRecord
  2
16_MISC
 70
0
 62
7
  6
CONTINUOUS
370
-3
390
F
  0
LAYER
  5
20A
100
AcDbSymbolTableRecord
100
AcDbLayerTableRecord
  2
17_NO_PRINT
 70
0
 62
7
  6
CONTINUOUS
370
-3
390
F
  0
LAYER
  5
20B
100
AcDbSymbolTableRecord
100
AcDbLayerTableRecord
  2
18_DATUM_CAMS_JOINTS
 70
0
 62
7
  6
CONTINUOUS
370
-3
390
F
  0
LAYER
  5
20C
100
AcDbSymbolTableRecord
100
AcDbLayerTableRecord
  2
19_DATUM_FUNCTIONAL
 70
0
 62
7
  6
CONTINUOUS
370
-3
390
F
  0
LAYER
  5
20D
100
AcDbSymbolTableRecord
100
AcDbLayerTableRecord
  2
20_DATUM_KINEMATIC_SCHEME
 70
0
 62
7
  6
CONTINUOUS
370
-3
390
F
  0
ENDTAB
  0
TABLE
  2
STYLE
  5
3
100
AcDbSymbolTable
 70
1
  0
STYLE
  5
11
100
AcDbSymbolTableRecord
100
AcDbTextStyleTableRecord
  2
STANDARD
 70
0
 40
0.0
 41
0.8
 50
0.0
 71
0
 42
0.2
  3
txt
  4

  0
STYLE
  5
20E
100
AcDbSymbolTableRecord
100
AcDbTextStyleTableRecord
  2
TEXTSTYLE_1
 70
0
 40
0.0
 41
0.8
 50
0.0
 71
0
 42
0.2
  3
gdt
  4

  0
ENDTAB
  0
TABLE
  2
VIEW
  5
6
100
AcDbSymbolTable
 70
0
  0
ENDTAB
  0
TABLE
  2
UCS
  5
7
100
AcDbSymbolTable
 70
0
  0
ENDTAB
  0
TABLE
  2
APPID
  5
9
100
AcDbSymbolTable
 70
1
  0
APPID
  5
20F
100
AcDbSymbolTableRecord
100
AcDbRegAppTableRecord
  2
ACAD
 70
0
  0
ENDTAB
  0
TABLE
  2
BLOCK_RECORD
  5
1
100
AcDbSymbolTable
 70
0
  0
BLOCK_RECORD
  5
210
100
AcDbSymbolTableRecord
100
AcDbBlockTableRecord
  2
*Model_Space
  0
BLOCK_RECORD
  5
211
100
AcDbSymbolTableRecord
100
AcDbBlockTableRecord
  2
*Paper_Space
  0
BLOCK_RECORD
  5
212
100
AcDbSymbolTableRecord
100
AcDbBlockTableRecord
  2
_FILLED
  0
ENDTAB
  0
TABLE
  2
DIMSTYLE
  5
A
100
AcDbSymbolTable
 70
1
100
AcDbDimStyleTable
 71
0
  0
DIMSTYLE
105
213
100
AcDbSymbolTableRecord
100
AcDbDimStyleTableRecord
  2
STANDARD
 70
0
  3

  4

 40
1.0
 41
1.0689550876
 42
1.0
 43
0.38
 44
1.0
 45
0.0
 46
0.0
 47
0.01
 48
0.01
140
1.4965371227
141
0.09
142
0.0
143
25.4
144
1.0
145
0.0
146
1.0
147
0.625
 71
1
 72
0
 73
0
 74
0
 75
0
 76
0
 77
1
 78
8
 79
2
170
0
171
1
172
0
173
0
174
0
175
0
176
0
177
0
178
0
270
2
179
2
271
2
272
2
273
2
274
2
275
0
280
0
281
0
282
0
283
1
284
8
285
0
286
0
287
3
288
0
340
11
278
46
341
212
342
212
343
212
344
212
  0
ENDTAB
  0
ENDSEC
  0
SECTION
  2
BLOCKS
  0
BLOCK
  5
20
100
AcDbEntity
  8
0
100
AcDbBlockBegin
  2
*Model_Space
 70
0
 10
0.0
 20
0.0
 30
0.0
  3
*Model_Space
  1

  0
ENDBLK
  5
21
100
AcDbEntity
  8
0
100
AcDbBlockEnd
  0
BLOCK
  5
1C
100
AcDbEntity
  8
0
100
AcDbBlockBegin
  2
*Paper_Space
 70
0
 10
0.0
 20
0.0
 30
0.0
  3
*Paper_Space
  1

  0
ENDBLK
  5
1D
100
AcDbEntity
  8
0
100
AcDbBlockEnd
  0
BLOCK
  5
214
100
AcDbEntity
  8
0
100
AcDbBlockBegin
  2
_FILLED
 70
64
 10
0.0
 20
0.0
  3
_FILLED
  1

  0
SOLID
  5
215
100
AcDbEntity
  8
0
  6
BYBLOCK
 62
0
100
AcDbTrace
 10
0.0
 20
0.0
 11
-1.0
 21
0.25
 12
-1.0
 22
-0.25
 13
-1.0
 23
-0.25
  0
ENDBLK
  5
216
100
AcDbEntity
  8
0
  6
BYBLOCK
 62
0
100
AcDbBlockEnd
  0
ENDSEC
  0
SECTION
  2
ENTITIES
  0
LINE
  5
217
100
AcDbEntity
  8
0
100
AcDbLine
 62
7
  6
CONTINUOUS
 10
10.4181588524
 20
79.7978358355
 11
10.6063717636
 21
80.7758245112
  0
LINE
  5
218
100
AcDbEntity
  8
0
100
AcDbLine
 62
7
  6
CONTINUOUS
 10
10.6613471382
 20
80.6563794456
 11
10.4774986097
 21
79.7010688995
  0
LINE
  5
219
100
AcDbEntity
  8
0
100
AcDbLine
 62
7
  6
CONTINUOUS
 10
31.0078301423
 20
97.8350599824
 11
42.1093603865
 21
104.2444931982
  0
LINE
  5
21A
100
AcDbEntity
  8
0
100
AcDbLine
 62
7
  6
CONTINUOUS
 10
42.9544466082
 20
103.7565934783
 11
31.8529163639
 21
97.3471602626
  0
LINE
  5
21B
100
AcDbEntity
  8
0
100
AcDbLine
 62
7
  6
CONTINUOUS
 10
31.007830684
 20
96.7074487932
 11
24.6705041012
 21
93.0486134251
  0
LINE
  5
21C
100
AcDbEntity
  8
0
100
AcDbLine
 62
7
  6
CONTINUOUS
 10
24.920502982
 20
93.0238512855
 11
31.0078307029
 21
96.5383506051
  0
LINE
  5
21D
100
AcDbEntity
  8
0
100
AcDbLine
 62
7
  6
CONTINUOUS
 10
31.937769531
 20
96.8082699217
 11
43.0392997752
 21
103.2177031375
  0
LINE
  5
21E
100
AcDbEntity
  8
0
100
AcDbLine
 62
7
  6
CONTINUOUS
 10
31.9878392602
 20
96.4677632864
 11
43.0893695044
 21
102.8771965022
  0
LINE
  5
21F
100
AcDbEntity
  8
0
100
AcDbLine
 62
7
  6
CONTINUOUS
 10
32.0726924272
 20
95.9288729455
 11
43.1742226715
 21
102.3383061613
  0
LINE
  5
220
100
AcDbEntity
  8
0
100
AcDbLine
 62
7
  6
CONTINUOUS
 10
32.1227621566
 20
95.58836631
 11
43.2242924008
 21
101.9977995258
  0
LINE
  5
221
100
AcDbEntity
  8
0
100
AcDbLine
 62
7
  6
CONTINUOUS
 10
32.2076153235
 20
95.0494759692
 11
43.3091455678
 21
101.458909185
  0
LINE
  5
222
100
AcDbEntity
  8
0
100
AcDbLine
 62
7
  6
CONTINUOUS
 10
32.2576850528
 20
94.7089693337
 11
43.3592152971
 21
101.1184025495
  0
LINE
  5
223
100
AcDbEntity
  8
0
100
AcDbLine
 62
7
  6
CONTINUOUS
 10
32.3425382198
 20
94.170078993
 11
43.4440684641
 21
100.5795122088
  0
LINE
  5
224
100
AcDbEntity
  8
0
100
AcDbLine
 62
7
  6
CONTINUOUS
 10
32.392607949
 20
93.8295723576
 11
43.4941381933
 21
100.2390055734
  0
LINE
  5
225
100
AcDbEntity
  8
0
100
AcDbLine
 62
7
  6
CONTINUOUS
 10
10.7027683534
 20
80.9112336156
 11
21.3800362953
 21
87.0757203391
  0
LINE
  5
226
100
AcDbEntity
  8
0
100
AcDbLine
 62
7
  6
CONTINUOUS
 10
10.8027679057
 20
80.9013287598
 11
21.4800358476
 21
87.0658154833
  0
LINE
  5
227
100
AcDbEntity
  8
0
100
AcDbLine
 62
7
  6
CONTINUOUS
 10
32.4774611161
 20
93.2906820168
 11
43.5789913603
 21
99.7001152325
  0
LINE
  5
228
100
AcDbEntity
  8
0
100
AcDbLine
 62
7
  6
CONTINUOUS
 10
32.5275308453
 20
92.9501753814
 11
43.6290610895
 21
99.3596085972
  0
LINE
  5
229
100
AcDbEntity
  8
0
100
AcDbLine
 62
7
  6
CONTINUOUS
 10
15.881642016
 20
54.1990621912
 11
15.881642016
 21
76.5233992971
  0
LINE
  5
22A
100
AcDbEntity
  8
0
100
AcDbLine
 62
7
  6
CONTINUOUS
 10
15.9402212485
 20
54.1174133604
 11
15.9402212485
 21
76.3262791064
  0
LINE
  5
22B
100
AcDbEntity
  8
0
100
AcDbLine
 62
7
  6
CONTINUOUS
 10
16.6972634846
 20
77.1716203541
 11
16.6972634846
 21
76.1101672118
  0
LINE
  5
22C
100
AcDbEntity
  8
0
100
AcDbLine
 62
7
  6
CONTINUOUS
 10
16.7301736861
 20
76.0335103917
 11
16.7301736861
 21
77.2244428991
  0
LINE
  5
22D
100
AcDbEntity
  8
0
100
AcDbLine
 62
7
  6
CONTINUOUS
 10
16.7887529187
 20
75.8363902009
 11
16.7887529187
 21
77.1427940683
  0
LINE
  5
22E
100
AcDbEntity
  8
0
100
AcDbLine
 62
7
  6
CONTINUOUS
 10
32.6123840124
 20
92.4112850405
 11
43.7139142566
 21
98.8207182563
  0
LINE
  5
22F
100
AcDbEntity
  8
0
100
AcDbLine
 62
7
  6
CONTINUOUS
 10
32.6624537416
 20
92.0707784051
 11
43.7639839859
 21
98.4802116208
  0
LINE
  5
230
100
AcDbEntity
  8
0
100
AcDbLine
 62
7
  6
CONTINUOUS
 10
32.7322004658
 20
91.9564586996
 11
43.8337307101
 21
98.3658919154
  0
LINE
  5
231
100
AcDbEntity
  8
0
100
AcDbLine
 62
7
  6
CONTINUOUS
 10
31.0078313961
 20
90.3330398662
 11
30.2945368931
 21
89.9212215512
  0
LINE
  5
232
100
AcDbEntity
  8
0
100
AcDbLine
 62
7
  6
CONTINUOUS
 10
30.6480917557
 20
89.3088499654
 11
31.0078314873
 21
89.5165445565
  0
LINE
  5
233
100
AcDbEntity
  8
0
100
AcDbLine
 62
7
  6
CONTINUOUS
 10
15.9402212485
 20
54.1174133604
 11
15.8816463545
 21
54.1990621912
  0
LINE
  5
234
100
AcDbEntity
  8
0
100
AcDbLine
 62
7
  6
CONTINUOUS
 10
36.4104144759
 20
87.5082645668
 11
37.4001992467
 21
88.0803160322
  0
LINE
  5
235
100
AcDbEntity
  8
0
100
AcDbLine
 62
7
  6
CONTINUOUS
 10
46.521999952
 20
93.3461540507
 11
47.5117841189
 21
93.9182074325
  0
LINE
  5
236
100
AcDbEntity
  8
0
100
AcDbLine
 62
7
  6
CONTINUOUS
 10
31.9537342702
 20
86.9657780941
 11
32.0982001606
 21
87.0491850169
  0
LINE
  5
237
100
AcDbEntity
  8
0
100
AcDbLine
 62
7
  6
CONTINUOUS
 10
45.7895814247
 20
94.2630791059
 11
36.6679419246
 21
88.996729521
  0
LINE
  5
238
100
AcDbEntity
  8
0
100
AcDbLine
 62
7
  6
CONTINUOUS
 10
16.838684252
 20
77.4165696683
 11
24.420502982
 21
81.7939086238
  0
LINE
  5
239
100
AcDbEntity
  8
0
100
AcDbLine
 62
7
  6
CONTINUOUS
 10
24.420502982
 20
81.7799004836
 11
16.8301741338
 21
77.3976482383
  0
LINE
  5
23A
100
AcDbEntity
  8
0
100
AcDbLine
 62
7
  6
CONTINUOUS
 10
45.9173961475
 20
94.1784408635
 11
46.9073415196
 21
94.7499826789
  0
LINE
  5
23B
100
AcDbEntity
  8
0
100
AcDbLine
 62
7
  6
CONTINUOUS
 10
35.8059277896
 20
88.3404743508
 11
36.7958731617
 21
88.9120161662
  0
LINE
  5
23C
100
AcDbEntity
  8
0
100
AcDbLine
 62
7
  6
CONTINUOUS
 10
16.9301736861
 20
77.3877433825
 11
24.420502982
 21
81.7122612039
  0
LINE
  5
23D
100
AcDbEntity
  8
0
100
AcDbLine
 62
7
  6
CONTINUOUS
 10
37.3034637388
 20
88.248120051
 11
39.4343419131
 21
89.4783758109
  0
LINE
  5
23E
100
AcDbEntity
  8
0
100
AcDbLine
 62
7
  6
CONTINUOUS
 10
43.7973477046
 20
91.9973433429
 11
46.1766645734
 21
93.371034361
  0
LINE
  5
23F
100
AcDbEntity
  8
0
100
AcDbLine
 62
7
  6
CONTINUOUS
 10
16.6972634846
 20
76.1101672118
 11
16.7301736861
 21
76.1291678121
  0
LINE
  5
240
100
AcDbEntity
  8
0
100
AcDbLine
 62
7
  6
CONTINUOUS
 10
43.252471579
 20
91.248976819
 11
40.0798547468
 21
89.4172765706
  0
LINE
  5
241
100
AcDbEntity
  8
0
100
AcDbLine
 62
7
  6
CONTINUOUS
 10
15.8816234475
 20
76.5233957815
 11
15.9402212485
 21
76.3262791064
  0
LINE
  5
242
100
AcDbEntity
  8
0
100
AcDbLine
 62
7
  6
CONTINUOUS
 10
21.1021222421
 20
54.5665660044
 11
21.1021222421
 21
52.6069602033
  0
LINE
  5
243
100
AcDbEntity
  8
0
100
AcDbLine
 62
7
  6
CONTINUOUS
 10
21.4203201464
 20
53.3622252662
 11
21.4203201464
 21
52.6273730908
  0
LINE
  5
244
100
AcDbEntity
  8
0
100
AcDbLine
 62
7
  6
CONTINUOUS
 10
23.9305611427
 20
50.9739971852
 11
23.9305611427
 21
52.9336029863
  0
LINE
  5
245
100
AcDbEntity
  8
0
100
AcDbLine
 62
7
  6
CONTINUOUS
 10
24.420502982
 20
92.615600077
 11
24.420502982
 21
74.2442956916
  0
LINE
  5
246
100
AcDbEntity
  8
0
100
AcDbLine
 62
7
  6
CONTINUOUS
 10
24.5669510634
 20
74.0401736146
 11
24.5669510634
 21
92.411478
  0
LINE
  5
247
100
AcDbEntity
  8
0
100
AcDbLine
 62
7
  6
CONTINUOUS
 10
26.6175680887
 20
74.7342274842
 11
26.874700468
 21
75.402281993
  0
LINE
  5
248
100
AcDbEntity
  8
0
100
AcDbLine
 62
7
  6
CONTINUOUS
 10
38.7380586176
 20
87.3685596807
 11
38.5831404662
 21
87.2791181782
  0
LINE
  5
249
100
AcDbEntity
  8
0
100
AcDbLine
 62
7
  6
CONTINUOUS
 10
39.5125857066
 20
86.7425148581
 11
40.8207278055
 21
87.4977665427
  0
LINE
  5
24A
100
AcDbEntity
  8
0
100
AcDbLine
 62
7
  6
CONTINUOUS
 10
15.9402212485
 20
54.1174133604
 11
29.9409938064
 21
46.0342464209
  0
LINE
  5
24B
100
AcDbEntity
  8
0
100
AcDbLine
 62
7
  6
CONTINUOUS
 10
55.3969439117
 20
31.3375792582
 11
69.6805603597
 21
23.0911160169
  0
LINE
  5
24C
100
AcDbEntity
  8
0
100
AcDbLine
 62
7
  6
CONTINUOUS
 10
21.1021222421
 20
52.6069602033
 11
23.9305611427
 21
50.9739971852
  0
LINE
  5
24D
100
AcDbEntity
  8
0
100
AcDbLine
 62
7
  6
CONTINUOUS
 10
61.6902204655
 20
29.1739408938
 11
64.5186593661
 21
27.5409778757
  0
LINE
  5
24E
100
AcDbEntity
  8
0
100
AcDbLine
 62
7
  6
CONTINUOUS
 10
21.4203201464
 20
52.6273730908
 11
23.9305611427
 21
51.1781175625
  0
LINE
  5
24F
100
AcDbEntity
  8
0
100
AcDbLine
 62
7
  6
CONTINUOUS
 10
62.0084183699
 20
29.1943537814
 11
64.5186593661
 21
27.745098253
  0
LINE
  5
250
100
AcDbEntity
  8
0
100
AcDbLine
 62
7
  6
CONTINUOUS
 10
31.496621343
 20
46.9323819913
 11
31.7023263068
 21
46.8136208618
  0
LINE
  5
251
100
AcDbEntity
  8
0
100
AcDbLine
 62
7
  6
CONTINUOUS
 10
16.7301736865
 20
76.0335175971
 11
16.7887529187
 21
75.8363902009
  0
LINE
  5
252
100
AcDbEntity
  8
0
100
AcDbLine
 62
7
  6
CONTINUOUS
 10
26.3700808625
 20
74.2239133163
 11
26.3700808625
 21
75.6936176671
  0
LINE
  5
253
100
AcDbEntity
  8
0
100
AcDbLine
 62
7
  6
CONTINUOUS
 10
26.6175680887
 20
74.7342274842
 11
26.6175680887
 21
74.2443260339
  0
LINE
  5
254
100
AcDbEntity
  8
0
100
AcDbLine
 62
7
  6
CONTINUOUS
 10
28.1378551754
 20
74.6730157808
 11
28.1378551754
 21
73.20331143
  0
LINE
  5
255
100
AcDbEntity
  8
0
100
AcDbLine
 62
7
  6
CONTINUOUS
 10
21.4203201464
 20
53.3622252662
 11
21.7517799505
 21
54.1914944368
  0
LINE
  5
256
100
AcDbEntity
  8
0
100
AcDbLine
 62
7
  6
CONTINUOUS
 10
26.3700808625
 20
74.2239133163
 11
26.6175680887
 21
74.3667992801
  0
LINE
  5
257
100
AcDbEntity
  8
0
100
AcDbLine
 62
7
  6
CONTINUOUS
 10
79.8214260859
 20
49.47392848
 11
79.7214277826
 21
49.464022903
  0
LINE
  5
258
100
AcDbEntity
  8
0
100
AcDbLine
 62
7
  6
CONTINUOUS
 10
23.9305611427
 20
51.9129697379
 11
21.4203201464
 21
53.3622252662
  0
LINE
  5
259
100
AcDbEntity
  8
0
100
AcDbLine
 62
7
  6
CONTINUOUS
 10
29.9409938064
 20
48.8920048809
 11
55.3969439117
 21
34.1953377182
  0
LINE
  5
25A
100
AcDbEntity
  8
0
100
AcDbLine
 62
7
  6
CONTINUOUS
 10
64.5186593661
 20
28.9698518787
 11
62.0084183699
 21
30.4191074071
  0
LINE
  5
25B
100
AcDbEntity
  8
0
100
AcDbLine
 62
7
  6
CONTINUOUS
 10
64.5186593661
 20
29.5005836768
 11
61.6902204655
 21
31.1335466949
  0
LINE
  5
25C
100
AcDbEntity
  8
0
100
AcDbLine
 62
7
  6
CONTINUOUS
 10
23.9305611427
 20
52.9336029863
 11
21.1021222421
 21
54.5665660044
  0
LINE
  5
25D
100
AcDbEntity
  8
0
100
AcDbLine
 62
7
  6
CONTINUOUS
 10
29.8117036013
 20
69.7874603004
 11
29.8117036013
 21
73.7545010261
  0
LINE
  5
25E
100
AcDbEntity
  8
0
100
AcDbLine
 62
7
  6
CONTINUOUS
 10
29.8702828339
 20
69.5903401097
 11
29.8702828339
 21
73.6728521954
  0
LINE
  5
25F
100
AcDbEntity
  8
0
100
AcDbLine
 62
7
  6
CONTINUOUS
 10
29.9409849745
 20
89.3088482657
 11
29.9409849745
 21
73.9446116147
  0
LINE
  5
260
100
AcDbEntity
  8
0
100
AcDbLine
 62
7
  6
CONTINUOUS
 10
29.9409938064
 20
48.8920048809
 11
29.9409938064
 21
46.0342464209
  0
LINE
  5
261
100
AcDbEntity
  8
0
100
AcDbLine
 62
7
  6
CONTINUOUS
 10
30.2087221934
 20
94.8919581426
 11
30.2087221934
 21
93.8403525108
  0
LINE
  5
262
100
AcDbEntity
  8
0
100
AcDbLine
 62
7
  6
CONTINUOUS
 10
30.5066815865
 20
71.8235517573
 11
30.5066815865
 21
67.6715688381
  0
LINE
  5
263
100
AcDbEntity
  8
0
100
AcDbLine
 62
7
  6
CONTINUOUS
 10
30.6480917557
 20
74.3528574682
 11
30.6480917557
 21
89.3088499654
  0
LINE
  5
264
100
AcDbEntity
  8
0
100
AcDbLine
 62
7
  6
CONTINUOUS
 10
30.789524299
 20
67.8348700014
 11
30.789524299
 21
71.8357318453
  0
LINE
  5
265
100
AcDbEntity
  8
0
100
AcDbLine
 62
7
  6
CONTINUOUS
 10
31.007830558
 20
97.8350597424
 11
31.0078315435
 21
89.0131663384
  0
LINE
  5
266
100
AcDbEntity
  8
0
100
AcDbLine
 62
7
  6
CONTINUOUS
 10
31.0078352116
 20
71.2129904416
 11
31.0078353218
 21
70.1991677857
  0
LINE
  5
267
100
AcDbEntity
  8
0
100
AcDbLine
 62
7
  6
CONTINUOUS
 10
31.445547118
 20
73.9324983446
 11
31.4455459535
 21
74.2330650819
  0
LINE
  5
268
100
AcDbEntity
  8
0
100
AcDbLine
 62
7
  6
CONTINUOUS
 10
31.4966222483
 20
46.9323835594
 11
31.4966222483
 21
47.9938826994
  0
LINE
  5
269
100
AcDbEntity
  8
0
100
AcDbLine
 62
7
  6
CONTINUOUS
 10
31.703733151
 20
86.532764746
 11
31.703733151
 21
74.1219280057
  0
LINE
  5
26A
100
AcDbEntity
  8
0
100
AcDbLine
 62
7
  6
CONTINUOUS
 10
34.0257109843
 20
85.0386003478
 11
31.8322134046
 21
74.9896639286
  0
LINE
  5
26B
100
AcDbEntity
  8
0
100
AcDbLine
 62
7
  6
CONTINUOUS
 10
32.0295573974
 20
73.6509762731
 11
31.0078352116
 21
71.2129904416
  0
LINE
  5
26C
100
AcDbEntity
  8
0
100
AcDbLine
 62
7
  6
CONTINUOUS
 10
31.703733151
 20
74.9623286739
 11
29.911704049
 21
73.9277063654
  0
LINE
  5
26D
100
AcDbEntity
  8
0
100
AcDbLine
 62
7
  6
CONTINUOUS
 10
30.0117036013
 20
73.9178015096
 11
31.703733151
 21
74.8946893943
  0
LINE
  5
26E
100
AcDbEntity
  8
0
100
AcDbLine
 62
7
  6
CONTINUOUS
 10
31.4455459535
 20
74.2330650819
 11
30.4556005814
 21
73.6615232664
  0
LINE
  5
26F
100
AcDbEntity
  8
0
100
AcDbLine
 62
7
  6
CONTINUOUS
 10
30.5954578839
 20
73.4417020261
 11
31.445547118
 21
73.9324983446
  0
LINE
  5
270
100
AcDbEntity
  8
0
100
AcDbLine
 62
7
  6
CONTINUOUS
 10
31.4218001648
 20
72.2007743077
 11
30.789524299
 21
71.8357318453
  0
LINE
  5
271
100
AcDbEntity
  8
0
100
AcDbLine
 62
7
  6
CONTINUOUS
 10
62.3679509367
 20
89.6455916029
 11
51.619972611
 21
83.4402804641
  0
LINE
  5
272
100
AcDbEntity
  8
0
100
AcDbLine
 62
7
  6
CONTINUOUS
 10
51.7199721634
 20
83.4303756083
 11
62.467950489
 21
89.6356867471
  0
LINE
  5
273
100
AcDbEntity
  8
0
100
AcDbLine
 62
7
  6
CONTINUOUS
 10
67.8909595402
 20
45.0358379046
 11
68.0333581212
 21
45.0149889284
  0
LINE
  5
274
100
AcDbEntity
  8
0
100
AcDbLine
 62
7
  6
CONTINUOUS
 10
71.271545171
 20
42.1360225251
 11
70.0694615822
 21
42.4217893536
  0
LINE
  5
275
100
AcDbEntity
  8
0
100
AcDbLine
 62
7
  6
CONTINUOUS
 10
72.9281426038
 20
30.2733489096
 11
72.0668275724
 21
30.7706181251
  0
LINE
  5
276
100
AcDbEntity
  8
0
100
AcDbLine
 62
7
  6
CONTINUOUS
 10
71.7311458846
 20
31.092772848
 11
71.4483019945
 21
31.2560691498
  0
LINE
  5
277
100
AcDbEntity
  8
0
100
AcDbLine
 62
7
  6
CONTINUOUS
 10
71.483656892
 20
31.3173056029
 11
71.3775904332
 21
31.3785417161
  0
LINE
  5
278
100
AcDbEntity
  8
0
100
AcDbLine
 62
7
  6
CONTINUOUS
 10
71.3068794607
 20
31.4193657915
 11
71.271545171
 21
31.4397655917
  0
LINE
  5
279
100
AcDbEntity
  8
0
100
AcDbLine
 62
7
  6
CONTINUOUS
 10
71.271545171
 20
31.5214137426
 11
71.589722762
 21
31.3377179806
  0
LINE
  5
27A
100
AcDbEntity
  8
0
100
AcDbLine
 62
7
  6
CONTINUOUS
 10
74.0999605199
 20
29.9701082911
 11
73.2514288497
 21
30.4599971965
  0
LINE
  5
27B
100
AcDbEntity
  8
0
100
AcDbLine
 62
7
  6
CONTINUOUS
 10
73.2514288497
 20
30.5008066364
 11
72.1536240083
 21
31.1346102185
  0
LINE
  5
27C
100
AcDbEntity
  8
0
100
AcDbLine
 62
7
  6
CONTINUOUS
 10
71.6604331457
 20
31.4601926377
 11
71.271545171
 21
31.6847121352
  0
LINE
  5
27D
100
AcDbEntity
  8
0
100
AcDbLine
 62
7
  6
CONTINUOUS
 10
72.7564520421
 20
31.8888691087
 11
73.2514288497
 21
31.6031005805
  0
LINE
  5
27E
100
AcDbEntity
  8
0
100
AcDbLine
 62
7
  6
CONTINUOUS
 10
16.7301736861
 20
77.2244428991
 11
16.7887529187
 21
77.1427940683
  0
LINE
  5
27F
100
AcDbEntity
  8
0
100
AcDbLine
 62
7
  6
CONTINUOUS
 10
30.5066815865
 20
71.8235517573
 11
30.3141798139
 21
73.4165739522
  0
LINE
  5
280
100
AcDbEntity
  8
0
100
AcDbLine
 62
7
  6
CONTINUOUS
 10
30.2087221934
 20
94.8919581426
 11
30.2167610884
 21
94.8024197461
  0
LINE
  5
281
100
AcDbEntity
  8
0
100
AcDbLine
 62
7
  6
CONTINUOUS
 10
30.2167610884
 20
93.7508141143
 11
30.2091206515
 21
93.840352621
  0
LINE
  5
282
100
AcDbEntity
  8
0
100
AcDbLine
 62
7
  6
CONTINUOUS
 10
31.8501812324
 20
73.9178059287
 11
31.8501812324
 21
74.8677787425
  0
LINE
  5
283
100
AcDbEntity
  8
0
100
AcDbLine
 62
7
  6
CONTINUOUS
 10
31.8501812324
 20
75.0719788402
 11
31.8501812324
 21
86.3286426691
  0
LINE
  5
284
100
AcDbEntity
  8
0
100
AcDbLine
 62
7
  6
CONTINUOUS
 10
31.9915984671
 20
47.7081145112
 11
31.9915984671
 21
46.8816303656
  0
LINE
  5
285
100
AcDbEntity
  8
0
100
AcDbLine
 62
7
  6
CONTINUOUS
 10
31.5398841476
 20
68.268087876
 11
30.5066815865
 21
67.6715688381
  0
LINE
  5
286
100
AcDbEntity
  8
0
100
AcDbLine
 62
7
  6
CONTINUOUS
 10
31.7023263068
 20
46.8136208618
 11
31.9915984671
 21
46.8816303656
  0
LINE
  5
287
100
AcDbEntity
  8
0
100
AcDbLine
 62
7
  6
CONTINUOUS
 10
73.2068906039
 20
48.1028906332
 11
73.3480342559
 21
48.0813772743
  0
LINE
  5
288
100
AcDbEntity
  8
0
100
AcDbLine
 62
7
  6
CONTINUOUS
 10
76.5748239501
 20
45.1978536792
 11
75.3727403613
 21
45.4836205076
  0
LINE
  5
289
100
AcDbEntity
  8
0
100
AcDbLine
 62
7
  6
CONTINUOUS
 10
24.5669510634
 20
74.0401736146
 11
24.4205138285
 21
74.2442956916
  0
LINE
  5
28A
100
AcDbEntity
  8
0
100
AcDbLine
 62
7
  6
CONTINUOUS
 10
29.8117036017
 20
69.7874675059
 11
29.8702828339
 21
69.5903401097
  0
LINE
  5
28B
100
AcDbEntity
  8
0
100
AcDbLine
 62
7
  6
CONTINUOUS
 10
31.8322134046
 20
74.9896639286
 11
32.0295573974
 21
73.6509762731
  0
LINE
  5
28C
100
AcDbEntity
  8
0
100
AcDbLine
 62
7
  6
CONTINUOUS
 10
30.789524299
 20
71.8357318453
 11
30.5954578839
 21
73.4417020261
  0
LINE
  5
28D
100
AcDbEntity
  8
0
100
AcDbLine
 62
7
  6
CONTINUOUS
 10
31.4471292779
 20
73.9055541845
 11
31.6013606792
 21
72.6292332333
  0
LINE
  5
28E
100
AcDbEntity
  8
0
100
AcDbLine
 62
7
  6
CONTINUOUS
 10
31.7087586986
 20
74.0811025705
 11
31.7038500296
 21
74.121928112
  0
LINE
  5
28F
100
AcDbEntity
  8
0
100
AcDbLine
 62
7
  6
CONTINUOUS
 10
44.1372958565
 20
90.8764917481
 11
43.8917760862
 21
89.7517070282
  0
LINE
  5
290
100
AcDbEntity
  8
0
100
AcDbLine
 62
7
  6
CONTINUOUS
 10
33.5808519549
 20
68.536731215
 11
33.4815627973
 21
68.4794069354
  0
LINE
  5
291
100
AcDbEntity
  8
0
100
AcDbLine
 62
7
  6
CONTINUOUS
 10
67.8419844001
 20
86.5330570128
 11
57.0940060745
 21
80.3277458739
  0
LINE
  5
292
100
AcDbEntity
  8
0
100
AcDbLine
 62
7
  6
CONTINUOUS
 10
57.2354280195
 20
80.0827972396
 11
67.9834063452
 21
86.2881083785
  0
LINE
  5
293
100
AcDbEntity
  8
0
100
AcDbLine
 62
7
  6
CONTINUOUS
 10
61.7255373858
 20
81.5320442327
 11
63.4932969788
 21
82.5526546174
  0
LINE
  5
294
100
AcDbEntity
  8
0
100
AcDbLine
 62
7
  6
CONTINUOUS
 10
67.0288161649
 20
84.5938753867
 11
68.0419843998
 21
85.178845457
  0
LINE
  5
295
100
AcDbEntity
  8
0
100
AcDbLine
 62
7
  6
CONTINUOUS
 10
58.1900181997
 20
79.4908234633
 11
56.952585307
 21
78.7763926923
  0
LINE
  5
296
100
AcDbEntity
  8
0
100
AcDbLine
 62
7
  6
CONTINUOUS
 10
78.1001543037
 20
33.2593934325
 11
77.4949879346
 21
33.6087784945
  0
LINE
  5
297
100
AcDbEntity
  8
0
100
AcDbLine
 62
7
  6
CONTINUOUS
 10
77.0344246637
 20
34.154604002
 11
76.7515807736
 21
34.3179003038
  0
LINE
  5
298
100
AcDbEntity
  8
0
100
AcDbLine
 62
7
  6
CONTINUOUS
 10
76.7869356711
 20
34.3791367569
 11
76.6808692123
 21
34.4403728701
  0
LINE
  5
299
100
AcDbEntity
  8
0
100
AcDbLine
 62
7
  6
CONTINUOUS
 10
76.6101582398
 20
34.4811969456
 11
76.5748239501
 21
34.5015967457
  0
LINE
  5
29A
100
AcDbEntity
  8
0
100
AcDbLine
 62
7
  6
CONTINUOUS
 10
76.5748239501
 20
34.5832448967
 11
76.8930015411
 21
34.3995491346
  0
LINE
  5
29B
100
AcDbEntity
  8
0
100
AcDbLine
 62
7
  6
CONTINUOUS
 10
79.403239299
 20
33.0319394452
 11
78.5547076288
 21
33.5218283506
  0
LINE
  5
29C
100
AcDbEntity
  8
0
100
AcDbLine
 62
7
  6
CONTINUOUS
 10
76.9637119248
 20
34.5220237917
 11
76.5748239501
 21
34.7465432893
  0
LINE
  5
29D
100
AcDbEntity
  8
0
100
AcDbLine
 62
7
  6
CONTINUOUS
 10
77.4879697397
 20
34.3009774914
 11
78.5547076288
 21
33.6851100168
  0
LINE
  5
29E
100
AcDbEntity
  8
0
100
AcDbLine
 62
7
  6
CONTINUOUS
 10
73.2514288497
 20
36.9920165336
 11
74.0999605199
 21
36.5021276282
  0
LINE
  5
29F
100
AcDbEntity
  8
0
100
AcDbLine
 62
7
  6
CONTINUOUS
 10
78.5547076288
 20
34.6649317346
 11
78.0597308212
 21
34.9507002627
  0
LINE
  5
2A0
100
AcDbEntity
  8
0
100
AcDbLine
 62
7
  6
CONTINUOUS
 10
68.8320286895
 20
41.7073585826
 11
69.6805603597
 21
41.2174696772
  0
LINE
  5
2A1
100
AcDbEntity
  8
0
100
AcDbLine
 62
7
  6
CONTINUOUS
 10
69.9634030722
 20
41.3807708405
 11
69.114871402
 21
41.8706597459
  0
LINE
  5
2A2
100
AcDbEntity
  8
0
100
AcDbLine
 62
7
  6
CONTINUOUS
 10
29.8117036013
 20
73.7545010261
 11
29.8702828339
 21
73.6728521954
  0
LINE
  5
2A3
100
AcDbEntity
  8
0
100
AcDbLine
 62
7
  6
CONTINUOUS
 10
62.2205171374
 20
80.8380332503
 11
64.6953805676
 21
82.2668877889
  0
LINE
  5
2A4
100
AcDbEntity
  8
0
100
AcDbLine
 62
7
  6
CONTINUOUS
 10
59.3921017885
 20
79.2050566349
 11
57.8011169772
 21
78.2865037869
  0
LINE
  5
2A5
100
AcDbEntity
  8
0
100
AcDbLine
 62
7
  6
CONTINUOUS
 10
67.5237959165
 20
83.8998644044
 11
68.8905346335
 21
84.6889243988
  0
LINE
  5
2A6
100
AcDbEntity
  8
0
100
AcDbLine
 62
7
  6
CONTINUOUS
 10
47.8308663199
 20
58.4861622642
 11
47.9808623944
 21
58.4713106165
  0
LINE
  5
2A7
100
AcDbEntity
  8
0
100
AcDbLine
 62
7
  6
CONTINUOUS
 10
68.0333581212
 20
45.0149889284
 11
68.3789778852
 21
44.8179489531
  0
LINE
  5
2A8
100
AcDbEntity
  8
0
100
AcDbLine
 62
7
  6
CONTINUOUS
 10
63.7408386684
 20
45.9530958825
 11
68.8320286895
 21
43.01376245
  0
LINE
  5
2A9
100
AcDbEntity
  8
0
100
AcDbLine
 62
7
  6
CONTINUOUS
 10
68.9734494569
 20
43.2587117642
 11
64.0236813809
 21
46.1163970458
  0
LINE
  5
2AA
100
AcDbEntity
  8
0
100
AcDbLine
 62
7
  6
CONTINUOUS
 10
30.5066815865
 20
67.6715688381
 11
51.5785513959
 21
55.5059943534
  0
LINE
  5
2AB
100
AcDbEntity
  8
0
100
AcDbLine
 62
7
  6
CONTINUOUS
 10
78.5547076288
 20
40.0538476876
 11
79.403239299
 21
39.5639587822
  0
LINE
  5
2AC
100
AcDbEntity
  8
0
100
AcDbLine
 62
7
  6
CONTINUOUS
 10
15.9402212485
 20
76.3262791064
 11
16.7887529187
 21
75.8363902009
  0
LINE
  5
2AD
100
AcDbEntity
  8
0
100
AcDbLine
 62
7
  6
CONTINUOUS
 10
30.789524299
 20
67.8348700014
 11
51.5199721634
 21
55.8664111092
  0
LINE
  5
2AE
100
AcDbEntity
  8
0
100
AcDbLine
 62
7
  6
CONTINUOUS
 10
10.4774986097
 20
79.7010688995
 11
16.6972634846
 21
76.1101672118
  0
LINE
  5
2AF
100
AcDbEntity
  8
0
100
AcDbLine
 62
7
  6
CONTINUOUS
 10
44.2481770458
 20
60.5545820871
 11
47.8308663199
 21
58.4861622642
  0
LINE
  5
2B0
100
AcDbEntity
  8
0
100
AcDbLine
 62
7
  6
CONTINUOUS
 10
43.0225237216
 20
66.5254854747
 11
43.0225237216
 21
60.7723084499
  0
LINE
  5
2B1
100
AcDbEntity
  8
0
100
AcDbLine
 62
7
  6
CONTINUOUS
 10
43.6824904433
 20
65.4920191098
 11
43.6824904433
 21
60.7178777091
  0
LINE
  5
2B2
100
AcDbEntity
  8
0
100
AcDbLine
 62
7
  6
CONTINUOUS
 10
44.2481770458
 20
60.5545820871
 11
44.2481770458
 21
64.227308411
  0
LINE
  5
2B3
100
AcDbEntity
  8
0
100
AcDbLine
 62
7
  6
CONTINUOUS
 10
45.7448923363
 20
62.1808039869
 11
45.7448923363
 21
61.9358532617
  0
LINE
  5
2B4
100
AcDbEntity
  8
0
100
AcDbLine
 62
7
  6
CONTINUOUS
 10
57.5841915424
 20
81.8091826665
 11
57.7187492495
 21
81.9777049419
  0
LINE
  5
2B5
100
AcDbEntity
  8
0
100
AcDbLine
 62
7
  6
CONTINUOUS
 10
21.4203201464
 20
52.7906707524
 11
21.1021222421
 21
52.6069602033
  0
LINE
  5
2B6
100
AcDbEntity
  8
0
100
AcDbLine
 62
7
  6
CONTINUOUS
 10
67.0288161649
 20
77.3270038743
 11
66.6752642463
 21
77.1228817974
  0
LINE
  5
2B7
100
AcDbEntity
  8
0
100
AcDbLine
 62
7
  6
CONTINUOUS
 10
61.7255373858
 20
74.2651727203
 11
61.3719854672
 21
74.0610506433
  0
LINE
  5
2B8
100
AcDbEntity
  8
0
100
AcDbLine
 62
7
  6
CONTINUOUS
 10
65.1860401864
 20
71.8751821722
 11
65.9328002125
 21
72.1626221383
  0
LINE
  5
2B9
100
AcDbEntity
  8
0
100
AcDbLine
 62
7
  6
CONTINUOUS
 10
59.8827614073
 20
68.8133510181
 11
60.6295214334
 21
69.1007909842
  0
LINE
  5
2BA
100
AcDbEntity
  8
0
100
AcDbLine
 62
7
  6
CONTINUOUS
 10
62.654669053
 20
63.3705075972
 11
63.4400432169
 21
63.458421873
  0
LINE
  5
2BB
100
AcDbEntity
  8
0
100
AcDbLine
 62
7
  6
CONTINUOUS
 10
45.545093629
 20
62.0779472069
 11
45.4266897216
 21
62.0787268506
  0
LINE
  5
2BC
100
AcDbEntity
  8
0
100
AcDbLine
 62
7
  6
CONTINUOUS
 10
43.6824904433
 20
60.7178777091
 11
43.0225237216
 21
60.7723084499
  0
LINE
  5
2BD
100
AcDbEntity
  8
0
100
AcDbLine
 62
7
  6
CONTINUOUS
 10
48.3171127544
 20
58.6953188291
 11
51.5199721634
 21
56.8461889201
  0
LINE
  5
2BE
100
AcDbEntity
  8
0
100
AcDbLine
 62
7
  6
CONTINUOUS
 10
10.6613471382
 20
80.6563794456
 11
16.6972634846
 21
77.1716203541
  0
LINE
  5
2BF
100
AcDbEntity
  8
0
100
AcDbLine
 62
7
  6
CONTINUOUS
 10
16.7887529187
 20
77.1427940683
 11
29.8702828339
 21
69.5903401097
  0
LINE
  5
2C0
100
AcDbEntity
  8
0
100
AcDbLine
 62
7
  6
CONTINUOUS
 10
16.838684252
 20
77.4165696683
 11
10.8027679057
 21
80.9013287598
  0
LINE
  5
2C1
100
AcDbEntity
  8
0
100
AcDbLine
 62
7
  6
CONTINUOUS
 10
29.8117036013
 20
69.9507568655
 11
16.9301736861
 21
77.3877433825
  0
LINE
  5
2C2
100
AcDbEntity
  8
0
100
AcDbLine
 62
7
  6
CONTINUOUS
 10
65.7914241933
 20
49.6272899029
 11
65.5085803033
 21
49.7905862047
  0
LINE
  5
2C3
100
AcDbEntity
  8
0
100
AcDbLine
 62
7
  6
CONTINUOUS
 10
65.5439352007
 20
49.8518226578
 11
65.437868742
 21
49.9130587709
  0
LINE
  5
2C4
100
AcDbEntity
  8
0
100
AcDbLine
 62
7
  6
CONTINUOUS
 10
65.3671577695
 20
49.9538828464
 11
65.3318234798
 21
49.9742826466
  0
LINE
  5
2C5
100
AcDbEntity
  8
0
100
AcDbLine
 62
7
  6
CONTINUOUS
 10
65.3318234798
 20
50.0559307975
 11
65.6500010707
 21
49.8722350354
  0
LINE
  5
2C6
100
AcDbEntity
  8
0
100
AcDbLine
 62
7
  6
CONTINUOUS
 10
45.0024274193
 20
61.8337803583
 11
47.8308663199
 21
60.2008173402
  0
LINE
  5
2C7
100
AcDbEntity
  8
0
100
AcDbLine
 62
7
  6
CONTINUOUS
 10
68.1602388286
 20
48.504625346
 11
67.3117071584
 21
48.9945142514
  0
LINE
  5
2C8
100
AcDbEntity
  8
0
100
AcDbLine
 62
7
  6
CONTINUOUS
 10
65.7207114544
 20
49.9947096925
 11
65.3318234798
 21
50.2192291901
  0
LINE
  5
2C9
100
AcDbEntity
  8
0
100
AcDbLine
 62
7
  6
CONTINUOUS
 10
66.2656818968
 20
49.8433585996
 11
66.8167303508
 21
49.5252178237
  0
LINE
  5
2CA
100
AcDbEntity
  8
0
100
AcDbLine
 62
7
  6
CONTINUOUS
 10
47.9904889042
 20
60.4364593095
 11
45.8691597287
 21
61.6611815731
  0
LINE
  5
2CB
100
AcDbEntity
  8
0
100
AcDbLine
 62
7
  6
CONTINUOUS
 10
29.8117036013
 20
71.0121828273
 11
24.5669510634
 21
74.0401736146
  0
LINE
  5
2CC
100
AcDbEntity
  8
0
100
AcDbLine
 62
7
  6
CONTINUOUS
 10
45.4266897216
 20
62.0787268506
 11
45.727209761
 21
61.9052254501
  0
LINE
  5
2CD
100
AcDbEntity
  8
0
100
AcDbLine
 62
7
  6
CONTINUOUS
 10
48.2380899779
 20
60.4556008759
 11
48.2551286222
 21
60.4457638325
  0
LINE
  5
2CE
100
AcDbEntity
  8
0
100
AcDbLine
 62
7
  6
CONTINUOUS
 10
47.8662215117
 20
60.7111309982
 11
45.7448923363
 21
61.9358532617
  0
LINE
  5
2CF
100
AcDbEntity
  8
0
100
AcDbLine
 62
7
  6
CONTINUOUS
 10
48.3551269255
 20
60.4556694094
 11
48.3137059614
 21
60.4795832732
  0
LINE
  5
2D0
100
AcDbEntity
  8
0
100
AcDbLine
 62
7
  6
CONTINUOUS
 10
45.7448923363
 20
61.9626549596
 11
45.5451114514
 21
62.0779958979
  0
LINE
  5
2D1
100
AcDbEntity
  8
0
100
AcDbLine
 62
7
  6
CONTINUOUS
 10
20.8098258369
 20
76.3725406079
 11
21.1852937174
 21
76.1557690301
  0
LINE
  5
2D2
100
AcDbEntity
  8
0
100
AcDbLine
 62
7
  6
CONTINUOUS
 10
33.5391851429
 20
69.0584938472
 11
32.2825241612
 21
69.7840109899
  0
LINE
  5
2D3
100
AcDbEntity
  8
0
100
AcDbLine
 62
7
  6
CONTINUOUS
 10
47.8662215117
 20
60.9560817233
 11
45.7448923363
 21
62.1808039869
  0
LINE
  5
2D4
100
AcDbEntity
  8
0
100
AcDbLine
 62
7
  6
CONTINUOUS
 10
28.1378551754
 20
73.20331143
 11
26.3700808625
 21
74.2239133163
  0
LINE
  5
2D5
100
AcDbEntity
  8
0
100
AcDbLine
 62
7
  6
CONTINUOUS
 10
26.6175680887
 20
74.2443260339
 11
28.1378551754
 21
73.3666077318
  0
LINE
  5
2D6
100
AcDbEntity
  8
0
100
AcDbLine
 62
7
  6
CONTINUOUS
 10
48.3965493896
 20
62.0787672559
 11
46.2752202142
 21
63.3034895194
  0
LINE
  5
2D7
100
AcDbEntity
  8
0
100
AcDbLine
 62
7
  6
CONTINUOUS
 10
26.6175680887
 20
74.7342274842
 11
28.1378551754
 21
73.8565091821
  0
LINE
  5
2D8
100
AcDbEntity
  8
0
100
AcDbLine
 62
7
  6
CONTINUOUS
 10
73.3480342559
 20
48.0813772743
 11
73.7174008642
 21
47.8681281879
  0
LINE
  5
2D9
100
AcDbEntity
  8
0
100
AcDbLine
 62
7
  6
CONTINUOUS
 10
48.3459028541
 20
58.7451665482
 11
48.3155875808
 21
58.766018777
  0
LINE
  5
2DA
100
AcDbEntity
  8
0
100
AcDbLine
 62
7
  6
CONTINUOUS
 10
24.420502982
 20
92.615600077
 11
24.5669510634
 21
92.411478
  0
LINE
  5
2DB
100
AcDbEntity
  8
0
100
AcDbLine
 62
7
  6
CONTINUOUS
 10
43.0225237216
 20
66.5254854747
 11
43.6824904433
 21
65.4920191098
  0
LINE
  5
2DC
100
AcDbEntity
  8
0
100
AcDbLine
 62
7
  6
CONTINUOUS
 10
43.0225237216
 20
66.5254854746
 11
36.4104408015
 21
87.5081810255
  0
LINE
  5
2DD
100
AcDbEntity
  8
0
100
AcDbLine
 62
7
  6
CONTINUOUS
 10
45.0024274193
 20
61.8337803583
 11
44.2481770458
 21
64.227308411
  0
LINE
  5
2DE
100
AcDbEntity
  8
0
100
AcDbLine
 62
7
  6
CONTINUOUS
 10
37.4000242252
 20
88.0808713865
 11
45.6049580093
 21
62.0434442533
  0
LINE
  5
2DF
100
AcDbEntity
  8
0
100
AcDbLine
 62
7
  6
CONTINUOUS
 10
47.8662215117
 20
60.7111309982
 11
47.8662215117
 21
60.9560817233
  0
LINE
  5
2E0
100
AcDbEntity
  8
0
100
AcDbLine
 62
7
  6
CONTINUOUS
 10
48.0429992374
 20
59.8333943887
 11
48.0429992374
 21
58.6086407629
  0
LINE
  5
2E1
100
AcDbEntity
  8
0
100
AcDbLine
 62
7
  6
CONTINUOUS
 10
48.3965493896
 20
60.5274126633
 11
48.3965493896
 21
62.0787672559
  0
LINE
  5
2E2
100
AcDbEntity
  8
0
100
AcDbLine
 62
7
  6
CONTINUOUS
 10
48.4672615397
 20
60.078340881
 11
48.4672615398
 21
59.2618384639
  0
LINE
  5
2E3
100
AcDbEntity
  8
0
100
AcDbLine
 62
7
  6
CONTINUOUS
 10
48.5258395947
 20
59.3434866148
 11
48.5258395947
 21
60.1599890319
  0
LINE
  5
2E4
100
AcDbEntity
  8
0
100
AcDbLine
 62
7
  6
CONTINUOUS
 10
45.7448923363
 20
62.1808039869
 11
46.2752202142
 21
63.3034895194
  0
LINE
  5
2E5
100
AcDbEntity
  8
0
100
AcDbLine
 62
7
  6
CONTINUOUS
 10
48.3965493896
 20
62.0787672559
 11
47.8662215117
 21
60.9560817233
  0
LINE
  5
2E6
100
AcDbEntity
  8
0
100
AcDbLine
 62
7
  6
CONTINUOUS
 10
66.6752642463
 20
75.1632759962
 11
64.6953805676
 21
74.0201964447
  0
LINE
  5
2E7
100
AcDbEntity
  8
0
100
AcDbLine
 62
7
  6
CONTINUOUS
 10
61.3719854672
 20
72.1014448422
 11
59.3921017885
 21
70.9583652906
  0
LINE
  5
2E8
100
AcDbEntity
  8
0
100
AcDbLine
 62
7
  6
CONTINUOUS
 10
45.0024274193
 20
61.8337803583
 11
45.4266897216
 21
62.0787268506
  0
LINE
  5
2E9
100
AcDbEntity
  8
0
100
AcDbLine
 62
7
  6
CONTINUOUS
 10
64.7307148573
 20
71.5502310553
 11
64.6953805676
 21
71.5298309154
  0
LINE
  5
2EA
100
AcDbEntity
  8
0
100
AcDbLine
 62
7
  6
CONTINUOUS
 10
59.4274360782
 20
68.4883999013
 11
59.3921017885
 21
68.4679997614
  0
LINE
  5
2EB
100
AcDbEntity
  8
0
100
AcDbLine
 62
7
  6
CONTINUOUS
 10
59.7809897632
 20
68.6212057623
 11
60.346672833
 21
68.9478010854
  0
LINE
  5
2EC
100
AcDbEntity
  8
0
100
AcDbLine
 62
7
  6
CONTINUOUS
 10
65.0842685423
 20
71.6830369164
 11
65.6499516121
 21
72.0096322395
  0
LINE
  5
2ED
100
AcDbEntity
  8
0
100
AcDbLine
 62
7
  6
CONTINUOUS
 10
60.6295214334
 20
69.1007909843
 11
60.8770086596
 21
69.243676948
  0
LINE
  5
2EE
100
AcDbEntity
  8
0
100
AcDbLine
 62
7
  6
CONTINUOUS
 10
65.9328002125
 20
72.1626221383
 11
66.1802874387
 21
72.3055081021
  0
LINE
  5
2EF
100
AcDbEntity
  8
0
100
AcDbLine
 62
7
  6
CONTINUOUS
 10
64.8014258298
 20
71.5094069799
 11
64.6953805676
 21
71.4481820846
  0
LINE
  5
2F0
100
AcDbEntity
  8
0
100
AcDbLine
 62
7
  6
CONTINUOUS
 10
59.4981470507
 20
68.4475758258
 11
59.3921017885
 21
68.3863509306
  0
LINE
  5
2F1
100
AcDbEntity
  8
0
100
AcDbLine
 62
7
  6
CONTINUOUS
 10
64.9074922886
 20
71.4481708667
 11
64.6953805676
 21
71.3257088385
  0
LINE
  5
2F2
100
AcDbEntity
  8
0
100
AcDbLine
 62
7
  6
CONTINUOUS
 10
59.6042135095
 20
68.3863397126
 11
59.3921017885
 21
68.2638776844
  0
LINE
  5
2F3
100
AcDbEntity
  8
0
100
AcDbLine
 62
7
  6
CONTINUOUS
 10
65.0135581586
 20
71.4685832443
 11
64.8721373912
 21
71.3869344136
  0
LINE
  5
2F4
100
AcDbEntity
  8
0
100
AcDbLine
 62
7
  6
CONTINUOUS
 10
59.7102793795
 20
68.4067520903
 11
59.568858612
 21
68.3251032595
  0
LINE
  5
2F5
100
AcDbEntity
  8
0
100
AcDbLine
 62
7
  6
CONTINUOUS
 10
65.1549812812
 20
71.2236381118
 11
64.6953805676
 21
70.9582891
  0
LINE
  5
2F6
100
AcDbEntity
  8
0
100
AcDbLine
 62
7
  6
CONTINUOUS
 10
59.8517025021
 20
68.1618069577
 11
59.3921017885
 21
67.8964579459
  0
LINE
  5
2F7
100
AcDbEntity
  8
0
100
AcDbLine
 62
7
  6
CONTINUOUS
 10
65.1671577081
 20
71.8660744085
 11
65.1860401864
 21
71.8751821722
  0
LINE
  5
2F8
100
AcDbEntity
  8
0
100
AcDbLine
 62
7
  6
CONTINUOUS
 10
59.863878929
 20
68.8042432545
 11
59.8827614073
 21
68.8133510181
  0
LINE
  5
2F9
100
AcDbEntity
  8
0
100
AcDbLine
 62
7
  6
CONTINUOUS
 10
73.8817043947
 20
68.0084455348
 11
73.7817060914
 21
67.9985399579
  0
LINE
  5
2FA
100
AcDbEntity
  8
0
100
AcDbLine
 62
7
  6
CONTINUOUS
 10
65.3318234798
 20
60.67053958
 11
64.129739891
 21
60.9563064085
  0
LINE
  5
2FB
100
AcDbEntity
  8
0
100
AcDbLine
 62
7
  6
CONTINUOUS
 10
26.3700808625
 20
75.6936176671
 11
28.1378551754
 21
74.6730157808
  0
LINE
  5
2FC
100
AcDbEntity
  8
0
100
AcDbLine
 62
7
  6
CONTINUOUS
 10
29.8702828339
 20
73.6728521954
 11
30.3141798139
 21
73.4165739522
  0
LINE
  5
2FD
100
AcDbEntity
  8
0
100
AcDbLine
 62
7
  6
CONTINUOUS
 10
30.4556005814
 20
73.6615232664
 11
30.0117036013
 21
73.9178015096
  0
LINE
  5
2FE
100
AcDbEntity
  8
0
100
AcDbLine
 62
7
  6
CONTINUOUS
 10
31.4471292779
 20
73.9055541845
 11
31.9941895308
 21
73.5897159454
  0
LINE
  5
2FF
100
AcDbEntity
  8
0
100
AcDbLine
 62
7
  6
CONTINUOUS
 10
44.1842344343
 20
66.5519494546
 11
51.5199721634
 21
62.3167551149
  0
LINE
  5
300
100
AcDbEntity
  8
0
100
AcDbLine
 62
7
  6
CONTINUOUS
 10
31.8501812324
 20
73.9178059287
 11
32.0032499184
 21
73.8294336809
  0
LINE
  5
301
100
AcDbEntity
  8
0
100
AcDbLine
 62
7
  6
CONTINUOUS
 10
44.0898800538
 20
66.8513723835
 11
51.5199721634
 21
62.5617037492
  0
LINE
  5
302
100
AcDbEntity
  8
0
100
AcDbLine
 62
7
  6
CONTINUOUS
 10
31.7087586986
 20
74.0811025705
 11
31.4455459535
 21
74.2330650819
  0
LINE
  5
303
100
AcDbEntity
  8
0
100
AcDbLine
 62
7
  6
CONTINUOUS
 10
71.0947029724
 20
52.6891210569
 11
70.8118590824
 21
52.8524173587
  0
LINE
  5
304
100
AcDbEntity
  8
0
100
AcDbLine
 62
7
  6
CONTINUOUS
 10
70.8472139799
 20
52.9136538118
 11
70.7411475211
 21
52.974889925
  0
LINE
  5
305
100
AcDbEntity
  8
0
100
AcDbLine
 62
7
  6
CONTINUOUS
 10
70.6704365486
 20
53.0157140004
 11
70.6351022589
 21
53.0361138006
  0
LINE
  5
306
100
AcDbEntity
  8
0
100
AcDbLine
 62
7
  6
CONTINUOUS
 10
70.6351022589
 20
53.1177619515
 11
70.9532798498
 21
52.9340661895
  0
LINE
  5
307
100
AcDbEntity
  8
0
100
AcDbLine
 62
7
  6
CONTINUOUS
 10
73.4635176077
 20
51.5664565
 11
72.6149859375
 21
52.0563454054
  0
LINE
  5
308
100
AcDbEntity
  8
0
100
AcDbLine
 62
7
  6
CONTINUOUS
 10
71.0239902336
 20
53.0565408466
 11
70.6351022589
 21
53.2810603441
  0
LINE
  5
309
100
AcDbEntity
  8
0
100
AcDbLine
 62
7
  6
CONTINUOUS
 10
79.8628497276
 20
48.0759708847
 11
80.7113813978
 21
47.5860819793
  0
LINE
  5
30A
100
AcDbEntity
  8
0
100
AcDbLine
 62
7
  6
CONTINUOUS
 10
80.7699594528
 20
47.6199010068
 11
79.9214277826
 21
48.1097899122
  0
LINE
  5
30B
100
AcDbEntity
  8
0
100
AcDbLine
 62
7
  6
CONTINUOUS
 10
67.3117071584
 20
55.5265335884
 11
68.1602388286
 21
55.036644683
  0
LINE
  5
30C
100
AcDbEntity
  8
0
100
AcDbLine
 62
7
  6
CONTINUOUS
 10
31.703733151
 20
86.532764746
 11
31.8501812324
 21
86.3286426691
  0
LINE
  5
30D
100
AcDbEntity
  8
0
100
AcDbLine
 62
7
  6
CONTINUOUS
 10
51.5199721637
 20
55.7031217496
 11
51.5785513959
 21
55.5059943534
  0
LINE
  5
30E
100
AcDbEntity
  8
0
100
AcDbLine
 62
7
  6
CONTINUOUS
 10
51.5199721634
 20
55.7031145441
 11
51.5199721634
 21
83.2670751249
  0
LINE
  5
30F
100
AcDbEntity
  8
0
100
AcDbLine
 62
7
  6
CONTINUOUS
 10
51.5785513959
 20
55.5059943534
 11
51.5785513959
 21
83.1854262941
  0
LINE
  5
310
100
AcDbEntity
  8
0
100
AcDbLine
 62
7
  6
CONTINUOUS
 10
47.9808623944
 20
58.4713106165
 11
48.0429992374
 21
58.608640763
  0
LINE
  5
311
100
AcDbEntity
  8
0
100
AcDbLine
 62
7
  6
CONTINUOUS
 10
48.1919758712
 20
58.5931899596
 11
48.3155875808
 21
58.7660187768
  0
LINE
  5
312
100
AcDbEntity
  8
0
100
AcDbLine
 62
7
  6
CONTINUOUS
 10
48.4672615398
 20
60.078340881
 11
48.5258395947
 21
60.1599890319
  0
LINE
  5
313
100
AcDbEntity
  8
0
100
AcDbLine
 62
7
  6
CONTINUOUS
 10
48.5258395947
 20
59.3434866148
 11
48.4672615398
 21
59.2618384639
  0
LINE
  5
314
100
AcDbEntity
  8
0
100
AcDbLine
 62
7
  6
CONTINUOUS
 10
67.9834063452
 20
86.2881083785
 11
68.0419844001
 21
86.3697565294
  0
LWPOLYLINE
  5
315
100
AcDbEntity
  8
0
100
AcDbPolyline
 62
7
  6
CONTINUOUS
 90
3
 70
0
 10
48.1919766295
 20
58.5931568186
 10
48.3051930391
 20
58.6879870124
 10
48.3458767268
 20
58.7451406178
  0
LINE
  5
316
100
AcDbEntity
  8
0
100
AcDbLine
 62
7
  6
CONTINUOUS
 10
48.2551286222
 20
60.4457638325
 11
47.8308663199
 21
60.2008173402
  0
LINE
  5
317
100
AcDbEntity
  8
0
100
AcDbLine
 62
7
  6
CONTINUOUS
 10
48.2904838141
 20
60.4661760402
 11
48.3965493896
 21
60.5274126633
  0
LINE
  5
318
100
AcDbEntity
  8
0
100
AcDbLine
 62
7
  6
CONTINUOUS
 10
59.3921017885
 20
66.590065366
 11
60.4173902822
 21
67.1820124204
  0
LINE
  5
319
100
AcDbEntity
  8
0
100
AcDbLine
 62
7
  6
CONTINUOUS
 10
64.6953805676
 20
69.6518965201
 11
65.7206690613
 21
70.2438435744
  0
LINE
  5
31A
100
AcDbEntity
  8
0
100
AcDbLine
 62
7
  6
CONTINUOUS
 10
66.6752642463
 20
70.5908624603
 11
64.6953805676
 21
69.4477829087
  0
LINE
  5
31B
100
AcDbEntity
  8
0
100
AcDbLine
 62
7
  6
CONTINUOUS
 10
61.3719854672
 20
67.5290313063
 11
59.3921017885
 21
66.3859517547
  0
LINE
  5
31C
100
AcDbEntity
  8
0
100
AcDbLine
 62
7
  6
CONTINUOUS
 10
48.0429992374
 20
59.8333943887
 11
48.4672615397
 21
60.078340881
  0
LINE
  5
31D
100
AcDbEntity
  8
0
100
AcDbLine
 62
7
  6
CONTINUOUS
 10
62.2205171374
 20
67.0391424009
 11
64.6953805676
 21
68.4679969394
  0
LINE
  5
31E
100
AcDbEntity
  8
0
100
AcDbLine
 62
7
  6
CONTINUOUS
 10
67.5237959165
 20
70.1009735549
 11
68.89051607
 21
70.890065702
  0
LINE
  5
31F
100
AcDbEntity
  8
0
100
AcDbLine
 62
7
  6
CONTINUOUS
 10
59.3921017885
 20
65.4061657854
 11
57.8011169772
 21
64.4876129374
  0
LINE
  5
320
100
AcDbEntity
  8
0
100
AcDbLine
 62
7
  6
CONTINUOUS
 10
48.3155875806
 20
58.7660187767
 11
48.0429992374
 21
58.6086407629
  0
LINE
  5
321
100
AcDbEntity
  8
0
100
AcDbLine
 62
7
  6
CONTINUOUS
 10
48.1919758712
 20
58.5931899596
 11
47.9808656483
 21
58.4713049805
  0
LINE
  5
322
100
AcDbEntity
  8
0
100
AcDbLine
 62
7
  6
CONTINUOUS
 10
31.4966222483
 20
46.9323835594
 11
29.9409938064
 21
46.0342464209
  0
LINE
  5
323
100
AcDbEntity
  8
0
100
AcDbLine
 62
7
  6
CONTINUOUS
 10
67.2671689127
 20
66.6374076881
 11
67.4083125646
 21
66.6158943292
  0
LINE
  5
324
100
AcDbEntity
  8
0
100
AcDbLine
 62
7
  6
CONTINUOUS
 10
70.6351022589
 20
63.732370734
 11
69.4330186701
 21
64.0181375625
  0
LINE
  5
325
100
AcDbEntity
  8
0
100
AcDbLine
 62
7
  6
CONTINUOUS
 10
74.7716597066
 20
52.3217081847
 11
79.7214277826
 21
49.464022903
  0
LINE
  5
326
100
AcDbEntity
  8
0
100
AcDbLine
 62
7
  6
CONTINUOUS
 10
79.8214260859
 20
49.47392848
 11
74.8302377615
 21
52.3555272121
  0
LINE
  5
327
100
AcDbEntity
  8
0
100
AcDbLine
 62
7
  6
CONTINUOUS
 10
62.8923069983
 20
60.2418756375
 11
63.7408386684
 21
59.751986732
  0
LINE
  5
328
100
AcDbEntity
  8
0
100
AcDbLine
 62
7
  6
CONTINUOUS
 10
64.0236813809
 20
59.9152878953
 11
63.1751497107
 21
60.4051768008
  0
LINE
  5
329
100
AcDbEntity
  8
0
100
AcDbLine
 62
7
  6
CONTINUOUS
 10
57.8011169772
 20
64.4876129374
 11
62.8923069983
 21
61.5482795049
  0
LINE
  5
32A
100
AcDbEntity
  8
0
100
AcDbLine
 62
7
  6
CONTINUOUS
 10
63.0337277657
 20
61.7932288191
 11
58.0839596897
 21
64.6509141007
  0
LINE
  5
32B
100
AcDbEntity
  8
0
100
AcDbLine
 62
7
  6
CONTINUOUS
 10
31.671727576
 20
87.4940381559
 11
34.0257109843
 21
85.0386003478
  0
LINE
  5
32C
100
AcDbEntity
  8
0
100
AcDbLine
 62
7
  6
CONTINUOUS
 10
74.0999605199
 20
36.5021276282
 11
73.6049807683
 21
37.1961386105
  0
LINE
  5
32D
100
AcDbEntity
  8
0
100
AcDbLine
 62
7
  6
CONTINUOUS
 10
55.3969439117
 20
34.1953377182
 11
55.3969439117
 21
31.3375792582
  0
LINE
  5
32E
100
AcDbEntity
  8
0
100
AcDbLine
 62
7
  6
CONTINUOUS
 10
57.7001370333
 20
81.8091926072
 11
57.7187492495
 21
81.9777049419
  0
LINE
  5
32F
100
AcDbEntity
  8
0
100
AcDbLine
 62
7
  6
CONTINUOUS
 10
31.9915984671
 20
46.8816303656
 11
32.7073649655
 21
47.2948758794
  0
LINE
  5
330
100
AcDbEntity
  8
0
100
AcDbLine
 62
7
  6
CONTINUOUS
 10
73.7817060914
 20
67.9985399579
 11
63.0337277657
 21
61.7932288191
  0
LINE
  5
331
100
AcDbEntity
  8
0
100
AcDbLine
 62
7
  6
CONTINUOUS
 10
63.1751497107
 20
61.5482801847
 11
73.9231280364
 21
67.7535913236
  0
LINE
  5
332
100
AcDbEntity
  8
0
100
AcDbLine
 62
7
  6
CONTINUOUS
 10
30.0117036013
 20
73.9178015096
 11
29.911704049
 21
73.9277063654
  0
LINE
  5
333
100
AcDbEntity
  8
0
100
AcDbLine
 62
7
  6
CONTINUOUS
 10
16.9301736861
 20
77.3877433825
 11
16.8301741338
 21
77.3976482383
  0
LINE
  5
334
100
AcDbEntity
  8
0
100
AcDbLine
 62
7
  6
CONTINUOUS
 10
20.668682185
 20
76.3940539667
 11
20.8098258369
 21
76.3725406079
  0
LINE
  5
335
100
AcDbEntity
  8
0
100
AcDbLine
 62
7
  6
CONTINUOUS
 10
21.4800358476
 20
87.0658154833
 11
24.420502982
 21
85.3681743975
  0
LINE
  5
336
100
AcDbEntity
  8
0
100
AcDbLine
 62
7
  6
CONTINUOUS
 10
21.5800341509
 20
87.0757210602
 11
24.420502982
 21
85.4358127156
  0
LINE
  5
337
100
AcDbEntity
  8
0
100
AcDbLine
 62
7
  6
CONTINUOUS
 10
72.6149859375
 20
58.5883647425
 11
73.4635176077
 21
58.0984758371
  0
LINE
  5
338
100
AcDbEntity
  8
0
100
AcDbLine
 62
7
  6
CONTINUOUS
 10
59.8517025021
 20
68.1618069577
 11
59.568858612
 21
68.3251032595
  0
LINE
  5
339
100
AcDbEntity
  8
0
100
AcDbLine
 62
7
  6
CONTINUOUS
 10
59.6042135095
 20
68.3863397126
 11
59.4981470507
 21
68.4475758258
  0
LINE
  5
33A
100
AcDbEntity
  8
0
100
AcDbLine
 62
7
  6
CONTINUOUS
 10
59.4274360782
 20
68.4883999013
 11
59.3921017885
 21
68.5087997014
  0
LINE
  5
33B
100
AcDbEntity
  8
0
100
AcDbLine
 62
7
  6
CONTINUOUS
 10
59.3921017885
 20
68.5904478523
 11
59.7102793795
 21
68.4067520903
  0
LINE
  5
33C
100
AcDbEntity
  8
0
100
AcDbLine
 62
7
  6
CONTINUOUS
 10
48.4915206699
 20
87.0961033324
 11
46.522027486
 21
93.3460666747
  0
LINE
  5
33D
100
AcDbEntity
  8
0
100
AcDbLine
 62
7
  6
CONTINUOUS
 10
47.5116090973
 20
93.9187627868
 11
49.921778952
 21
86.2703620089
  0
LINE
  5
33E
100
AcDbEntity
  8
0
100
AcDbLine
 62
7
  6
CONTINUOUS
 10
56.952585307
 20
80.0827965597
 11
56.952585307
 21
78.7763926923
  0
LINE
  5
33F
100
AcDbEntity
  8
0
100
AcDbLine
 62
7
  6
CONTINUOUS
 10
57.2354280195
 20
78.9396938556
 11
57.2354280195
 21
80.0827972396
  0
LINE
  5
340
100
AcDbEntity
  8
0
100
AcDbLine
 62
7
  6
CONTINUOUS
 10
57.8011169772
 20
78.2865037869
 11
57.8011169772
 21
64.4876129374
  0
LINE
  5
341
100
AcDbEntity
  8
0
100
AcDbLine
 62
7
  6
CONTINUOUS
 10
58.0839596897
 20
64.6509141007
 11
58.0839596897
 21
78.4498049502
  0
LINE
  5
342
100
AcDbEntity
  8
0
100
AcDbLine
 62
7
  6
CONTINUOUS
 10
59.3921017885
 20
65.4061657854
 11
59.3921017885
 21
79.2050566349
  0
LINE
  5
343
100
AcDbEntity
  8
0
100
AcDbLine
 62
7
  6
CONTINUOUS
 10
59.7809897632
 20
68.6212057623
 11
59.7809897632
 21
68.5292267474
  0
LINE
  5
344
100
AcDbEntity
  8
0
100
AcDbLine
 62
7
  6
CONTINUOUS
 10
60.346672833
 20
68.4475708619
 11
60.346672833
 21
68.9478010854
  0
LINE
  5
345
100
AcDbEntity
  8
0
100
AcDbLine
 62
7
  6
CONTINUOUS
 10
67.665259077
 20
62.9975271778
 11
69.4330186701
 21
64.0181375625
  0
LINE
  5
346
100
AcDbEntity
  8
0
100
AcDbLine
 62
7
  6
CONTINUOUS
 10
72.9685378562
 20
66.0593583319
 11
73.9817060911
 21
66.6443284021
  0
LINE
  5
347
100
AcDbEntity
  8
0
100
AcDbLine
 62
7
  6
CONTINUOUS
 10
64.129739891
 20
60.9563064085
 11
62.8923069983
 21
60.2418756375
  0
LINE
  5
348
100
AcDbEntity
  8
0
100
AcDbLine
 62
7
  6
CONTINUOUS
 10
68.1602388286
 20
62.3035161955
 11
70.6351022589
 21
63.732370734
  0
LINE
  5
349
100
AcDbEntity
  8
0
100
AcDbLine
 62
7
  6
CONTINUOUS
 10
65.3318234798
 20
60.67053958
 11
63.7408386684
 21
59.751986732
  0
LINE
  5
34A
100
AcDbEntity
  8
0
100
AcDbLine
 62
7
  6
CONTINUOUS
 10
73.4635176077
 20
65.3653473495
 11
74.8302563247
 21
66.1544073439
  0
LINE
  5
34B
100
AcDbEntity
  8
0
100
AcDbLine
 62
7
  6
CONTINUOUS
 10
62.2205171374
 20
67.0391424009
 11
61.3719854672
 21
67.5290313063
  0
LINE
  5
34C
100
AcDbEntity
  8
0
100
AcDbLine
 62
7
  6
CONTINUOUS
 10
59.7809897632
 20
68.5292267474
 11
59.3921017885
 21
68.753746245
  0
LINE
  5
34D
100
AcDbEntity
  8
0
100
AcDbLine
 62
7
  6
CONTINUOUS
 10
60.3259602056
 20
68.3778756545
 11
60.8770086596
 21
68.0597348785
  0
LINE
  5
34E
100
AcDbEntity
  8
0
100
AcDbLine
 62
7
  6
CONTINUOUS
 10
31.8501812324
 20
86.3286426691
 11
33.9526520801
 21
85.1148080198
  0
LINE
  5
34F
100
AcDbEntity
  8
0
100
AcDbLine
 62
7
  6
CONTINUOUS
 10
39.3092173036
 20
82.0222636088
 11
51.5199721634
 21
74.9725404896
  0
LINE
  5
350
100
AcDbEntity
  8
0
100
AcDbLine
 62
7
  6
CONTINUOUS
 10
67.4083125646
 20
66.6158943292
 11
67.7837804451
 21
66.3991227514
  0
LINE
  5
351
100
AcDbEntity
  8
0
100
AcDbLine
 62
7
  6
CONTINUOUS
 10
51.5199721634
 20
75.7890324527
 11
38.9947040443
 21
83.020335779
  0
LINE
  5
352
100
AcDbEntity
  8
0
100
AcDbLine
 62
7
  6
CONTINUOUS
 10
24.5669510634
 20
92.411478
 11
29.9409849745
 21
89.3088482657
  0
LINE
  5
353
100
AcDbEntity
  8
0
100
AcDbLine
 62
7
  6
CONTINUOUS
 10
73.6049807683
 20
44.463010123
 11
74.0999605199
 21
43.7689991406
  0
LINE
  5
354
100
AcDbEntity
  8
0
100
AcDbLine
 62
7
  6
CONTINUOUS
 10
68.1602388286
 20
55.036644683
 11
67.665259077
 21
55.7306556654
  0
LINE
  5
355
100
AcDbEntity
  8
0
100
AcDbLine
 62
7
  6
CONTINUOUS
 10
79.403239299
 20
39.5639587822
 11
78.9082595474
 21
40.2579697646
  0
LINE
  5
356
100
AcDbEntity
  8
0
100
AcDbLine
 62
7
  6
CONTINUOUS
 10
71.3775904332
 20
31.3785417161
 11
71.4129455122
 21
31.2764806124
  0
LINE
  5
357
100
AcDbEntity
  8
0
100
AcDbLine
 62
7
  6
CONTINUOUS
 10
65.437868742
 20
49.9130587709
 11
65.4732238209
 21
49.8109976673
  0
LINE
  5
358
100
AcDbEntity
  8
0
100
AcDbLine
 62
7
  6
CONTINUOUS
 10
59.4981470507
 20
68.4475758258
 11
59.5335021297
 21
68.3455147222
  0
LINE
  5
359
100
AcDbEntity
  8
0
100
AcDbLine
 62
7
  6
CONTINUOUS
 10
63.4400432169
 20
63.458421873
 11
63.4491691604
 21
63.2746592033
  0
LINE
  5
35A
100
AcDbEntity
  8
0
100
AcDbLine
 62
7
  6
CONTINUOUS
 10
60.4173902822
 20
66.9778868161
 11
60.4173902822
 21
67.1820124204
  0
LINE
  5
35B
100
AcDbEntity
  8
0
100
AcDbLine
 62
7
  6
CONTINUOUS
 10
60.6295214334
 20
69.1007909842
 11
60.6295214334
 21
71.6727855912
  0
LINE
  5
35C
100
AcDbEntity
  8
0
100
AcDbLine
 62
7
  6
CONTINUOUS
 10
60.8770086596
 20
71.8156715549
 11
60.8770086596
 21
67.243258019
  0
LINE
  5
35D
100
AcDbEntity
  8
0
100
AcDbLine
 62
7
  6
CONTINUOUS
 10
61.3719854672
 20
72.1014448422
 11
61.3719854672
 21
74.0610506433
  0
LINE
  5
35E
100
AcDbEntity
  8
0
100
AcDbLine
 62
7
  6
CONTINUOUS
 10
61.6902204655
 20
31.1335466949
 11
61.6902204655
 21
29.1739408938
  0
LINE
  5
35F
100
AcDbEntity
  8
0
100
AcDbLine
 62
7
  6
CONTINUOUS
 10
61.7255373858
 20
74.2651727203
 11
61.7255373858
 21
81.5320442327
  0
LINE
  5
360
100
AcDbEntity
  8
0
100
AcDbLine
 62
7
  6
CONTINUOUS
 10
62.0084183699
 20
30.4191074071
 11
62.0084183699
 21
29.1943537814
  0
LINE
  5
361
100
AcDbEntity
  8
0
100
AcDbLine
 62
7
  6
CONTINUOUS
 10
62.2205171374
 20
80.8380332503
 11
62.2205171374
 21
67.0391424009
  0
LINE
  5
362
100
AcDbEntity
  8
0
100
AcDbLine
 62
7
  6
CONTINUOUS
 10
62.8923069983
 20
61.5482795049
 11
62.8923069983
 21
60.2418756375
  0
LINE
  5
363
100
AcDbEntity
  8
0
100
AcDbLine
 62
7
  6
CONTINUOUS
 10
63.1751497107
 20
60.4051768008
 11
63.1751497107
 21
61.5482801847
  0
LINE
  5
364
100
AcDbEntity
  8
0
100
AcDbLine
 62
7
  6
CONTINUOUS
 10
63.7408386684
 20
59.751986732
 11
63.7408386684
 21
45.9530958825
  0
LINE
  5
365
100
AcDbEntity
  8
0
100
AcDbLine
 62
7
  6
CONTINUOUS
 10
72.9685378562
 20
58.7924868194
 11
72.6149859375
 21
58.5883647425
  0
LINE
  5
366
100
AcDbEntity
  8
0
100
AcDbLine
 62
7
  6
CONTINUOUS
 10
67.665259077
 20
55.7306556654
 11
67.3117071584
 21
55.5265335884
  0
LINE
  5
367
100
AcDbEntity
  8
0
100
AcDbLine
 62
7
  6
CONTINUOUS
 10
59.3921017885
 20
79.2050566349
 11
58.1900181997
 21
79.4908234633
  0
LINE
  5
368
100
AcDbEntity
  8
0
100
AcDbLine
 62
7
  6
CONTINUOUS
 10
30.2945368931
 20
89.9212215512
 11
24.920502982
 21
93.0238512855
  0
LINE
  5
369
100
AcDbEntity
  8
0
100
AcDbLine
 62
7
  6
CONTINUOUS
 10
65.1549812812
 20
71.2236381118
 11
64.8721373912
 21
71.3869344136
  0
LINE
  5
36A
100
AcDbEntity
  8
0
100
AcDbLine
 62
7
  6
CONTINUOUS
 10
64.7307148573
 20
71.5502310553
 11
64.6953805676
 21
71.5706308555
  0
LINE
  5
36B
100
AcDbEntity
  8
0
100
AcDbLine
 62
7
  6
CONTINUOUS
 10
64.9074922886
 20
71.4481708667
 11
64.8014258298
 21
71.5094069799
  0
LINE
  5
36C
100
AcDbEntity
  8
0
100
AcDbLine
 62
7
  6
CONTINUOUS
 10
64.6953805676
 20
71.6522790064
 11
65.0135581586
 21
71.4685832443
  0
LINE
  5
36D
100
AcDbEntity
  8
0
100
AcDbLine
 62
7
  6
CONTINUOUS
 10
67.5237959165
 20
70.1009735549
 11
66.6752642463
 21
70.5908624603
  0
LINE
  5
36E
100
AcDbEntity
  8
0
100
AcDbLine
 62
7
  6
CONTINUOUS
 10
65.0842685423
 20
71.5910579014
 11
64.6953805676
 21
71.815577399
  0
LINE
  5
36F
100
AcDbEntity
  8
0
100
AcDbLine
 62
7
  6
CONTINUOUS
 10
73.9231280364
 20
66.6104879396
 11
74.7716597066
 21
66.1205990342
  0
LINE
  5
370
100
AcDbEntity
  8
0
100
AcDbLine
 62
7
  6
CONTINUOUS
 10
74.8302377615
 20
66.1544180616
 11
73.9817060914
 21
66.644306967
  0
LINE
  5
371
100
AcDbEntity
  8
0
100
AcDbLine
 62
7
  6
CONTINUOUS
 10
61.3719854672
 20
74.0610506433
 11
62.2205171374
 21
73.5711617379
  0
LINE
  5
372
100
AcDbEntity
  8
0
100
AcDbLine
 62
7
  6
CONTINUOUS
 10
38.5831404662
 20
87.2791181782
 11
39.5125857066
 21
86.7425148581
  0
LINE
  5
373
100
AcDbEntity
  8
0
100
AcDbLine
 62
7
  6
CONTINUOUS
 10
39.1760915785
 20
87.8196968958
 11
40.0016148621
 21
87.3430916952
  0
LINE
  5
374
100
AcDbEntity
  8
0
100
AcDbLine
 62
7
  6
CONTINUOUS
 10
68.8319380153
 20
70.8562252396
 11
73.7817060914
 21
67.9985399579
  0
LINE
  5
375
100
AcDbEntity
  8
0
100
AcDbLine
 62
7
  6
CONTINUOUS
 10
73.8817043947
 20
68.0084455348
 11
68.8905160703
 21
70.890044267
  0
LINE
  5
376
100
AcDbEntity
  8
0
100
AcDbLine
 62
7
  6
CONTINUOUS
 10
39.9771592016
 20
89.5035438039
 11
40.0798547589
 21
89.4172765795
  0
LINE
  5
377
100
AcDbEntity
  8
0
100
AcDbLine
 62
7
  6
CONTINUOUS
 10
43.4358575694
 20
91.6081613445
 11
44.1372958565
 21
90.8764917481
  0
LINE
  5
378
100
AcDbEntity
  8
0
100
AcDbLine
 62
7
  6
CONTINUOUS
 10
51.5199721634
 20
83.2670751249
 11
51.5785513959
 21
83.1854262941
  0
LINE
  5
379
100
AcDbEntity
  8
0
100
AcDbLine
 62
7
  6
CONTINUOUS
 10
67.665259077
 20
62.9975271778
 11
68.1602388286
 21
62.3035161955
  0
LINE
  5
37A
100
AcDbEntity
  8
0
100
AcDbLine
 62
7
  6
CONTINUOUS
 10
78.9082595474
 20
47.524841277
 11
79.403239299
 21
46.8308302946
  0
LINE
  5
37B
100
AcDbEntity
  8
0
100
AcDbLine
 62
7
  6
CONTINUOUS
 10
62.6868795432
 20
63.2745938476
 11
62.654669053
 21
63.3705075972
  0
LINE
  5
37C
100
AcDbEntity
  8
0
100
AcDbLine
 62
7
  6
CONTINUOUS
 10
63.4400432169
 20
63.458421873
 11
63.5017542903
 21
63.2746637118
  0
LINE
  5
37D
100
AcDbEntity
  8
0
100
AcDbLine
 62
7
  6
CONTINUOUS
 10
64.0236813809
 20
46.1163970458
 11
64.0236813809
 21
59.9152878953
  0
LINE
  5
37E
100
AcDbEntity
  8
0
100
AcDbLine
 62
7
  6
CONTINUOUS
 10
64.5186593661
 20
27.5409778757
 11
64.5186593661
 21
29.5005836768
  0
LINE
  5
37F
100
AcDbEntity
  8
0
100
AcDbLine
 62
7
  6
CONTINUOUS
 10
64.6953805676
 20
68.4679969394
 11
64.6953805676
 21
82.2668877889
  0
LINE
  5
380
100
AcDbEntity
  8
0
100
AcDbLine
 62
7
  6
CONTINUOUS
 10
65.0842685423
 20
71.6830369164
 11
65.0842685423
 21
71.5910579014
  0
LINE
  5
381
100
AcDbEntity
  8
0
100
AcDbLine
 62
7
  6
CONTINUOUS
 10
65.3318234798
 20
46.8716487305
 11
65.3318234798
 21
60.67053958
  0
LINE
  5
382
100
AcDbEntity
  8
0
100
AcDbLine
 62
7
  6
CONTINUOUS
 10
65.6499516121
 20
71.509402016
 11
65.6499516121
 21
72.0096322395
  0
LINE
  5
383
100
AcDbEntity
  8
0
100
AcDbLine
 62
7
  6
CONTINUOUS
 10
65.7206690613
 20
70.0397179702
 11
65.7206690613
 21
70.2438435744
  0
LINE
  5
384
100
AcDbEntity
  8
0
100
AcDbLine
 62
7
  6
CONTINUOUS
 10
65.7207114544
 20
50.0866887075
 11
65.7207114544
 21
49.9947096925
  0
LINE
  5
385
100
AcDbEntity
  8
0
100
AcDbLine
 62
7
  6
CONTINUOUS
 10
65.9328002125
 20
72.1626221383
 11
65.9328002125
 21
74.7346167452
  0
LINE
  5
386
100
AcDbEntity
  8
0
100
AcDbLine
 62
7
  6
CONTINUOUS
 10
66.1802874387
 20
74.877502709
 11
66.1802874387
 21
70.305089173
  0
LINE
  5
387
100
AcDbEntity
  8
0
100
AcDbLine
 62
7
  6
CONTINUOUS
 10
66.2863945242
 20
49.9130538071
 11
66.2863945242
 21
50.4132840306
  0
LINE
  5
388
100
AcDbEntity
  8
0
100
AcDbLine
 62
7
  6
CONTINUOUS
 10
66.3571119735
 20
48.4433697613
 11
66.3571119735
 21
48.6474953655
  0
LINE
  5
389
100
AcDbEntity
  8
0
100
AcDbLine
 62
7
  6
CONTINUOUS
 10
66.5692431246
 20
50.5662739294
 11
66.5692431246
 21
53.1382685363
  0
LINE
  5
38A
100
AcDbEntity
  8
0
100
AcDbLine
 62
7
  6
CONTINUOUS
 10
66.6752642463
 20
75.1632759962
 11
66.6752642463
 21
77.1228817974
  0
LINE
  5
38B
100
AcDbEntity
  8
0
100
AcDbLine
 62
7
  6
CONTINUOUS
 10
66.8167303508
 20
53.2811545001
 11
66.8167303508
 21
48.7087409641
  0
LINE
  5
38C
100
AcDbEntity
  8
0
100
AcDbLine
 62
7
  6
CONTINUOUS
 10
67.0288161649
 20
77.3270038743
 11
67.0288161649
 21
84.5938753867
  0
LINE
  5
38D
100
AcDbEntity
  8
0
100
AcDbLine
 62
7
  6
CONTINUOUS
 10
67.3117071584
 20
53.5669277873
 11
67.3117071584
 21
55.5265335884
  0
LINE
  5
38E
100
AcDbEntity
  8
0
100
AcDbLine
 62
7
  6
CONTINUOUS
 10
67.5237959165
 20
83.8998644044
 11
67.5237959165
 21
70.1009735549
  0
LINE
  5
38F
100
AcDbEntity
  8
0
100
AcDbLine
 62
7
  6
CONTINUOUS
 10
73.9231280364
 20
67.7535913236
 11
73.9817060914
 21
67.8352394745
  0
LINE
  5
390
100
AcDbEntity
  8
0
100
AcDbLine
 62
7
  6
CONTINUOUS
 10
72.6149859375
 20
56.6287589414
 11
70.6351022589
 21
55.4856793898
  0
LINE
  5
391
100
AcDbEntity
  8
0
100
AcDbLine
 62
7
  6
CONTINUOUS
 10
67.3117071584
 20
53.5669277873
 11
65.3318234798
 21
52.4238482358
  0
LINE
  5
392
100
AcDbEntity
  8
0
100
AcDbLine
 62
7
  6
CONTINUOUS
 10
70.6704365486
 20
53.0157140004
 11
70.6351022589
 21
52.9953138605
  0
LINE
  5
393
100
AcDbEntity
  8
0
100
AcDbLine
 62
7
  6
CONTINUOUS
 10
65.3671577695
 20
49.9538828464
 11
65.3318234798
 21
49.9334827065
  0
LINE
  5
394
100
AcDbEntity
  8
0
100
AcDbLine
 62
7
  6
CONTINUOUS
 10
65.7207114544
 20
50.0866887075
 11
66.2863945242
 21
50.4132840306
  0
LINE
  5
395
100
AcDbEntity
  8
0
100
AcDbLine
 62
7
  6
CONTINUOUS
 10
71.0239902336
 20
53.1485198615
 11
71.5896733033
 21
53.4751151846
  0
LINE
  5
396
100
AcDbEntity
  8
0
100
AcDbLine
 62
7
  6
CONTINUOUS
 10
66.5692431246
 20
50.5662739294
 11
66.8167303508
 21
50.7091598931
  0
LINE
  5
397
100
AcDbEntity
  8
0
100
AcDbLine
 62
7
  6
CONTINUOUS
 10
71.8725219037
 20
53.6281050834
 11
72.1200091299
 21
53.7709910472
  0
LINE
  5
398
100
AcDbEntity
  8
0
100
AcDbLine
 62
7
  6
CONTINUOUS
 10
70.7411475211
 20
52.974889925
 11
70.6351022589
 21
52.9136650298
  0
LINE
  5
399
100
AcDbEntity
  8
0
100
AcDbLine
 62
7
  6
CONTINUOUS
 10
65.437868742
 20
49.913058771
 11
65.3318234798
 21
49.8518338757
  0
LINE
  5
39A
100
AcDbEntity
  8
0
100
AcDbLine
 62
7
  6
CONTINUOUS
 10
70.8472139799
 20
52.9136538118
 11
70.6351022589
 21
52.7911917836
  0
LINE
  5
39B
100
AcDbEntity
  8
0
100
AcDbLine
 62
7
  6
CONTINUOUS
 10
65.5439352007
 20
49.8518226578
 11
65.3318234798
 21
49.7293606296
  0
LINE
  5
39C
100
AcDbEntity
  8
0
100
AcDbLine
 62
7
  6
CONTINUOUS
 10
70.9532798498
 20
52.9340661895
 11
70.8118590824
 21
52.8524173587
  0
LINE
  5
39D
100
AcDbEntity
  8
0
100
AcDbLine
 62
7
  6
CONTINUOUS
 10
65.6500010707
 20
49.8722350354
 11
65.5085803033
 21
49.7905862047
  0
LINE
  5
39E
100
AcDbEntity
  8
0
100
AcDbLine
 62
7
  6
CONTINUOUS
 10
71.1068793994
 20
53.3315573536
 11
71.1257618776
 21
53.3406651173
  0
LINE
  5
39F
100
AcDbEntity
  8
0
100
AcDbLine
 62
7
  6
CONTINUOUS
 10
65.8036006202
 20
50.2697261996
 11
65.8224830985
 21
50.2788339633
  0
LINE
  5
3A0
100
AcDbEntity
  8
0
100
AcDbLine
 62
7
  6
CONTINUOUS
 10
71.1257618776
 20
53.3406651173
 11
71.8725219037
 21
53.6281050834
  0
LINE
  5
3A1
100
AcDbEntity
  8
0
100
AcDbLine
 62
7
  6
CONTINUOUS
 10
65.8224830985
 20
50.2788339633
 11
66.5692431246
 21
50.5662739294
  0
LINE
  5
3A2
100
AcDbEntity
  8
0
100
AcDbLine
 62
7
  6
CONTINUOUS
 10
67.9419827034
 20
86.5429625897
 11
67.8419844001
 21
86.5330570128
  0
LINE
  5
3A3
100
AcDbEntity
  8
0
100
AcDbLine
 62
7
  6
CONTINUOUS
 10
51.7199721634
 20
83.4303756083
 11
51.619972611
 21
83.4402804641
  0
LINE
  5
3A4
100
AcDbEntity
  8
0
100
AcDbLine
 62
7
  6
CONTINUOUS
 10
32.203733151
 20
86.9410159546
 11
31.9537342702
 21
86.9657780941
  0
LINE
  5
3A5
100
AcDbEntity
  8
0
100
AcDbLine
 62
7
  6
CONTINUOUS
 10
57.7187492495
 20
81.9777049419
 11
58.2091394882
 21
81.8471902482
  0
LINE
  5
3A6
100
AcDbEntity
  8
0
100
AcDbLine
 62
7
  6
CONTINUOUS
 10
56.952585307
 20
78.7763926923
 11
57.8011169772
 21
78.2865037869
  0
LINE
  5
3A7
100
AcDbEntity
  8
0
100
AcDbLine
 62
7
  6
CONTINUOUS
 10
58.0839596897
 20
78.4498049502
 11
57.2354280195
 21
78.9396938556
  0
LINE
  5
3A8
100
AcDbEntity
  8
0
100
AcDbLine
 62
7
  6
CONTINUOUS
 10
40.0798547253
 20
89.4172766089
 11
39.8685113804
 21
89.5392929324
  0
LINE
  5
3A9
100
AcDbEntity
  8
0
100
AcDbLine
 62
7
  6
CONTINUOUS
 10
51.5785513959
 20
83.1854262941
 11
56.952585307
 21
80.0827965597
  0
LINE
  5
3AA
100
AcDbEntity
  8
0
100
AcDbLine
 62
7
  6
CONTINUOUS
 10
57.0940060745
 20
80.3277458739
 11
51.7199721634
 21
83.4303756083
  0
LINE
  5
3AB
100
AcDbEntity
  8
0
100
AcDbLine
 62
7
  6
CONTINUOUS
 10
42.6884312681
 20
90.2773469705
 11
53.0753970549
 21
84.2805651427
  0
LINE
  5
3AC
100
AcDbEntity
  8
0
100
AcDbLine
 62
7
  6
CONTINUOUS
 10
42.761952393
 20
90.4039962849
 11
53.2218404029
 21
84.3651137444
  0
LINE
  5
3AD
100
AcDbEntity
  8
0
100
AcDbLine
 62
7
  6
CONTINUOUS
 10
62.2205171374
 20
73.5711617379
 11
61.7255373858
 21
74.2651727203
  0
LINE
  5
3AE
100
AcDbEntity
  8
0
100
AcDbLine
 62
7
  6
CONTINUOUS
 10
73.4635176077
 20
58.0984758371
 11
72.9685378562
 21
58.7924868194
  0
LINE
  5
3AF
100
AcDbEntity
  8
0
100
AcDbLine
 62
7
  6
CONTINUOUS
 10
76.6808692123
 20
34.4403728701
 11
76.7162242913
 21
34.3383117665
  0
LINE
  5
3B0
100
AcDbEntity
  8
0
100
AcDbLine
 62
7
  6
CONTINUOUS
 10
70.7411475211
 20
52.974889925
 11
70.7765026
 21
52.8728288213
  0
LINE
  5
3B1
100
AcDbEntity
  8
0
100
AcDbLine
 62
7
  6
CONTINUOUS
 10
64.8014258298
 20
71.5094069799
 11
64.8367809088
 21
71.4073458762
  0
LINE
  5
3B2
100
AcDbEntity
  8
0
100
AcDbLine
 62
7
  6
CONTINUOUS
 10
67.665259077
 20
55.7306556654
 11
67.665259077
 21
62.9975271778
  0
LINE
  5
3B3
100
AcDbEntity
  8
0
100
AcDbLine
 62
7
  6
CONTINUOUS
 10
67.9834063452
 20
86.2881083785
 11
67.9834063452
 21
85.1450049945
  0
LINE
  5
3B4
100
AcDbEntity
  8
0
100
AcDbLine
 62
7
  6
CONTINUOUS
 10
68.0419844001
 20
85.1788240219
 11
68.0419844001
 21
86.3697565294
  0
LINE
  5
3B5
100
AcDbEntity
  8
0
100
AcDbLine
 62
7
  6
CONTINUOUS
 10
68.1602388286
 20
62.3035161955
 11
68.1602388286
 21
48.504625346
  0
LINE
  5
3B6
100
AcDbEntity
  8
0
100
AcDbLine
 62
7
  6
CONTINUOUS
 10
68.8319380153
 20
84.655116089
 11
68.8319380153
 21
70.8562252396
  0
LINE
  5
3B7
100
AcDbEntity
  8
0
100
AcDbLine
 62
7
  6
CONTINUOUS
 10
68.8320286895
 20
43.01376245
 11
68.8320286895
 21
41.7073585826
  0
LINE
  5
3B8
100
AcDbEntity
  8
0
100
AcDbLine
 62
7
  6
CONTINUOUS
 10
68.8905160703
 20
70.890044267
 11
68.8905160703
 21
84.6889351165
  0
LINE
  5
3B9
100
AcDbEntity
  8
0
100
AcDbLine
 62
7
  6
CONTINUOUS
 10
69.114871402
 20
41.8706597459
 11
69.114871402
 21
43.0137631299
  0
LINE
  5
3BA
100
AcDbEntity
  8
0
100
AcDbLine
 62
7
  6
CONTINUOUS
 10
69.6805603597
 20
41.2174696772
 11
69.6805603597
 21
23.0911160169
  0
LINE
  5
3BB
100
AcDbEntity
  8
0
100
AcDbLine
 62
7
  6
CONTINUOUS
 10
69.9634030722
 20
23.0911166968
 11
69.9634030722
 21
41.3807708405
  0
LINE
  5
3BC
100
AcDbEntity
  8
0
100
AcDbLine
 62
7
  6
CONTINUOUS
 10
70.6351022589
 20
49.9334798845
 11
70.6351022589
 21
63.732370734
  0
LINE
  5
3BD
100
AcDbEntity
  8
0
100
AcDbLine
 62
7
  6
CONTINUOUS
 10
71.0239902336
 20
53.1485198615
 11
71.0239902336
 21
53.0565408466
  0
LINE
  5
3BE
100
AcDbEntity
  8
0
100
AcDbLine
 62
7
  6
CONTINUOUS
 10
71.0947029724
 20
52.6891210569
 11
70.6351022589
 21
52.4237720451
  0
LINE
  5
3BF
100
AcDbEntity
  8
0
100
AcDbLine
 62
7
  6
CONTINUOUS
 10
65.7914241933
 20
49.6272899029
 11
65.3318234798
 21
49.3619408911
  0
LINE
  5
3C0
100
AcDbEntity
  8
0
100
AcDbLine
 62
7
  6
CONTINUOUS
 10
65.3318234798
 20
48.0555483111
 11
66.3571119735
 21
48.6474953655
  0
LINE
  5
3C1
100
AcDbEntity
  8
0
100
AcDbLine
 62
7
  6
CONTINUOUS
 10
70.6351022589
 20
51.1173794652
 11
71.6603907526
 21
51.7093265196
  0
LINE
  5
3C2
100
AcDbEntity
  8
0
100
AcDbLine
 62
7
  6
CONTINUOUS
 10
72.6149859375
 20
52.0563454054
 11
70.6351022589
 21
50.9132658539
  0
LINE
  5
3C3
100
AcDbEntity
  8
0
100
AcDbLine
 62
7
  6
CONTINUOUS
 10
67.3117071584
 20
48.9945142514
 11
65.3318234798
 21
47.8514346998
  0
LINE
  5
3C4
100
AcDbEntity
  8
0
100
AcDbLine
 62
7
  6
CONTINUOUS
 10
68.1602388286
 20
48.504625346
 11
70.6351022589
 21
49.9334798845
  0
LINE
  5
3C5
100
AcDbEntity
  8
0
100
AcDbLine
 62
7
  6
CONTINUOUS
 10
73.4635176077
 20
51.5664565
 11
74.8302377613
 21
52.3555486472
  0
LINE
  5
3C6
100
AcDbEntity
  8
0
100
AcDbLine
 62
7
  6
CONTINUOUS
 10
65.3318234798
 20
46.8716487305
 11
63.7408386684
 21
45.9530958825
  0
LINE
  5
3C7
100
AcDbEntity
  8
0
100
AcDbLine
 62
7
  6
CONTINUOUS
 10
62.467950489
 20
89.6356867471
 11
62.5679487923
 21
89.645592324
  0
LINE
  5
3C8
100
AcDbEntity
  8
0
100
AcDbLine
 62
7
  6
CONTINUOUS
 10
61.3274478968
 20
85.1719234246
 11
61.4685908734
 21
85.1504113841
  0
LINE
  5
3C9
100
AcDbEntity
  8
0
100
AcDbLine
 62
7
  6
CONTINUOUS
 10
64.6953805676
 20
82.2668877889
 11
63.4932969788
 21
82.5526546174
  0
LINE
  5
3CA
100
AcDbEntity
  8
0
100
AcDbLine
 62
7
  6
CONTINUOUS
 10
66.6752642463
 20
77.1228817974
 11
67.5237959165
 21
76.6329928919
  0
LINE
  5
3CB
100
AcDbEntity
  8
0
100
AcDbLine
 62
7
  6
CONTINUOUS
 10
31.8529163639
 20
97.3471602626
 11
31.007830558
 21
97.8350597424
  0
LINE
  5
3CC
100
AcDbEntity
  8
0
100
AcDbLine
 62
7
  6
CONTINUOUS
 10
61.7255373858
 20
81.5320442327
 11
62.2205171374
 21
80.8380332503
  0
LINE
  5
3CD
100
AcDbEntity
  8
0
100
AcDbLine
 62
7
  6
CONTINUOUS
 10
72.9685378562
 20
66.0593583319
 11
73.4635176077
 21
65.3653473495
  0
LINE
  5
3CE
100
AcDbEntity
  8
0
100
AcDbLine
 62
7
  6
CONTINUOUS
 10
67.5237959165
 20
76.6329928919
 11
67.0288161649
 21
77.3270038743
  0
LINE
  5
3CF
100
AcDbEntity
  8
0
100
AcDbLine
 62
7
  6
CONTINUOUS
 10
71.271545171
 20
28.3371316756
 11
71.271545171
 21
42.1360225251
  0
LINE
  5
3D0
100
AcDbEntity
  8
0
100
AcDbLine
 62
7
  6
CONTINUOUS
 10
71.5896733033
 20
52.9748849611
 11
71.5896733033
 21
53.4751151846
  0
LINE
  5
3D1
100
AcDbEntity
  8
0
100
AcDbLine
 62
7
  6
CONTINUOUS
 10
71.6603907526
 20
51.5052009153
 11
71.6603907526
 21
51.7093265196
  0
LINE
  5
3D2
100
AcDbEntity
  8
0
100
AcDbLine
 62
7
  6
CONTINUOUS
 10
71.6604331457
 20
31.5521716526
 11
71.6604331457
 21
31.4601926377
  0
LINE
  5
3D3
100
AcDbEntity
  8
0
100
AcDbLine
 62
7
  6
CONTINUOUS
 10
71.8725219037
 20
53.6281050834
 11
71.8725219037
 21
56.2000996903
  0
LINE
  5
3D4
100
AcDbEntity
  8
0
100
AcDbLine
 62
7
  6
CONTINUOUS
 10
72.1200091299
 20
56.3429856541
 11
72.1200091299
 21
51.7705721182
  0
LINE
  5
3D5
100
AcDbEntity
  8
0
100
AcDbLine
 62
7
  6
CONTINUOUS
 10
72.2261162155
 20
31.3785367522
 11
72.2261162155
 21
31.8787669757
  0
LINE
  5
3D6
100
AcDbEntity
  8
0
100
AcDbLine
 62
7
  6
CONTINUOUS
 10
72.2968336647
 20
29.9088527064
 11
72.2968336647
 21
30.1129783107
  0
LINE
  5
3D7
100
AcDbEntity
  8
0
100
AcDbLine
 62
7
  6
CONTINUOUS
 10
72.5089648159
 20
32.0317568745
 11
72.5089648159
 21
34.6037514814
  0
LINE
  5
3D8
100
AcDbEntity
  8
0
100
AcDbLine
 62
7
  6
CONTINUOUS
 10
72.6149859375
 20
56.6287589414
 11
72.6149859375
 21
58.5883647425
  0
LINE
  5
3D9
100
AcDbEntity
  8
0
100
AcDbLine
 62
7
  6
CONTINUOUS
 10
72.7564520421
 20
34.7466374452
 11
72.7564520421
 21
31.8888691087
  0
LINE
  5
3DA
100
AcDbEntity
  8
0
100
AcDbLine
 62
7
  6
CONTINUOUS
 10
72.9685378562
 20
58.7924868194
 11
72.9685378562
 21
66.0593583319
  0
LINE
  5
3DB
100
AcDbEntity
  8
0
100
AcDbLine
 62
7
  6
CONTINUOUS
 10
73.2514288497
 20
30.4599971965
 11
73.2514288497
 21
31.6031005805
  0
LINE
  5
3DC
100
AcDbEntity
  8
0
100
AcDbLine
 62
7
  6
CONTINUOUS
 10
73.2514288497
 20
35.0324107325
 11
73.2514288497
 21
36.9920165336
  0
LINE
  5
3DD
100
AcDbEntity
  8
0
100
AcDbLine
 62
7
  6
CONTINUOUS
 10
73.4635176077
 20
65.3653473495
 11
73.4635176077
 21
51.5664565
  0
LINE
  5
3DE
100
AcDbEntity
  8
0
100
AcDbLine
 62
7
  6
CONTINUOUS
 10
73.6049807683
 20
37.1961386105
 11
73.6049807683
 21
44.463010123
  0
LINE
  5
3DF
100
AcDbEntity
  8
0
100
AcDbLine
 62
7
  6
CONTINUOUS
 10
73.9231280364
 20
67.7535913236
 11
73.9231280364
 21
66.6104879396
  0
LINE
  5
3E0
100
AcDbEntity
  8
0
100
AcDbLine
 62
7
  6
CONTINUOUS
 10
73.9817060914
 20
66.644306967
 11
73.9817060914
 21
67.8352394745
  0
LINE
  5
3E1
100
AcDbEntity
  8
0
100
AcDbLine
 62
7
  6
CONTINUOUS
 10
74.0999605199
 20
43.7689991406
 11
74.0999605199
 21
29.9701082911
  0
LINE
  5
3E2
100
AcDbEntity
  8
0
100
AcDbLine
 62
7
  6
CONTINUOUS
 10
70.1312195873
 20
44.7926465375
 11
70.1185557108
 21
44.7852423532
  0
LINE
  5
3E3
100
AcDbEntity
  8
0
100
AcDbLine
 62
7
  6
CONTINUOUS
 10
21.4800358476
 20
87.0658154833
 11
21.5800341509
 21
87.0757210602
  0
LINE
  5
3E4
100
AcDbEntity
  8
0
100
AcDbLine
 62
7
  6
CONTINUOUS
 10
24.920502982
 20
93.0238512855
 11
24.6705041012
 21
93.0486134251
  0
LINE
  5
3E5
100
AcDbEntity
  8
0
100
AcDbLine
 62
7
  6
CONTINUOUS
 10
62.3679509367
 20
89.6455916029
 11
62.467950489
 21
89.6356867471
  0
LINE
  5
3E6
100
AcDbEntity
  8
0
100
AcDbLine
 62
7
  6
CONTINUOUS
 10
61.4685908734
 20
85.1504113841
 11
61.8440587539
 21
84.9336398062
  0
LINE
  5
3E7
100
AcDbEntity
  8
0
100
AcDbLine
 62
7
  6
CONTINUOUS
 10
74.7716597066
 20
66.1205990342
 11
74.7716597066
 21
52.3217081847
  0
LINE
  5
3E8
100
AcDbEntity
  8
0
100
AcDbLine
 62
7
  6
CONTINUOUS
 10
74.8302377615
 20
52.3555272121
 11
74.8302377615
 21
66.1544180616
  0
LINE
  5
3E9
100
AcDbEntity
  8
0
100
AcDbLine
 62
7
  6
CONTINUOUS
 10
76.5748239501
 20
31.3989628297
 11
76.5748239501
 21
45.1978536792
  0
LINE
  5
3EA
100
AcDbEntity
  8
0
100
AcDbLine
 62
7
  6
CONTINUOUS
 10
76.9637119248
 20
34.6140028066
 11
76.9637119248
 21
34.5220237917
  0
LINE
  5
3EB
100
AcDbEntity
  8
0
100
AcDbLine
 62
7
  6
CONTINUOUS
 10
77.5293949946
 20
34.4403679062
 11
77.5293949946
 21
34.9405981297
  0
LINE
  5
3EC
100
AcDbEntity
  8
0
100
AcDbLine
 62
7
  6
CONTINUOUS
 10
77.6001124438
 20
32.9706838604
 11
77.6001124438
 21
33.1748094647
  0
LINE
  5
3ED
100
AcDbEntity
  8
0
100
AcDbLine
 62
7
  6
CONTINUOUS
 10
77.812243595
 20
35.0935880286
 11
77.812243595
 21
37.6655826355
  0
LINE
  5
3EE
100
AcDbEntity
  8
0
100
AcDbLine
 62
7
  6
CONTINUOUS
 10
78.0597308212
 20
37.8084685992
 11
78.0597308212
 21
34.9507002627
  0
LINE
  5
3EF
100
AcDbEntity
  8
0
100
AcDbLine
 62
7
  6
CONTINUOUS
 10
62.0084183699
 20
30.4191074071
 11
62.2382323227
 21
30.8171590593
  0
LINE
  5
3F0
100
AcDbEntity
  8
0
100
AcDbLine
 62
7
  6
CONTINUOUS
 10
79.7214277826
 20
49.464022903
 11
68.9734494569
 21
43.2587117642
  0
LINE
  5
3F1
100
AcDbEntity
  8
0
100
AcDbLine
 62
7
  6
CONTINUOUS
 10
69.114871402
 20
43.0137631299
 11
79.8628497276
 21
49.2190742687
  0
LINE
  5
3F2
100
AcDbEntity
  8
0
100
AcDbLine
 62
7
  6
CONTINUOUS
 10
73.6049807683
 20
44.463010123
 11
75.3727403613
 21
45.4836205076
  0
LINE
  5
3F3
100
AcDbEntity
  8
0
100
AcDbLine
 62
7
  6
CONTINUOUS
 10
78.9082595474
 20
47.524841277
 11
79.9214277823
 21
48.1098113472
  0
LINE
  5
3F4
100
AcDbEntity
  8
0
100
AcDbLine
 62
7
  6
CONTINUOUS
 10
68.8320286895
 20
41.7073585826
 11
70.0694615822
 21
42.4217893536
  0
LINE
  5
3F5
100
AcDbEntity
  8
0
100
AcDbLine
 62
7
  6
CONTINUOUS
 10
74.0999605199
 20
43.7689991406
 11
76.5748239501
 21
45.1978536792
  0
LINE
  5
3F6
100
AcDbEntity
  8
0
100
AcDbLine
 62
7
  6
CONTINUOUS
 10
69.6805603597
 20
41.2174696772
 11
71.271545171
 21
42.1360225251
  0
LINE
  5
3F7
100
AcDbEntity
  8
0
100
AcDbLine
 62
7
  6
CONTINUOUS
 10
79.403239299
 20
46.8308302946
 11
80.769978016
 21
47.6198902891
  0
LINE
  5
3F8
100
AcDbEntity
  8
0
100
AcDbLine
 62
7
  6
CONTINUOUS
 10
67.9834063452
 20
85.1450049945
 11
68.8319380153
 21
84.655116089
  0
LINE
  5
3F9
100
AcDbEntity
  8
0
100
AcDbLine
 62
7
  6
CONTINUOUS
 10
68.8905160703
 20
84.6889351165
 11
68.0419844001
 21
85.1788240219
  0
LINE
  5
3FA
100
AcDbEntity
  8
0
100
AcDbLine
 62
7
  6
CONTINUOUS
 10
62.467950489
 20
89.6356867471
 11
67.8419844001
 21
86.5330570128
  0
LINE
  5
3FB
100
AcDbEntity
  8
0
100
AcDbLine
 62
7
  6
CONTINUOUS
 10
67.9419827034
 20
86.5429625897
 11
62.5679487923
 21
89.645592324
  0
LINE
  5
3FC
100
AcDbEntity
  8
0
100
AcDbLine
 62
7
  6
CONTINUOUS
 10
67.0288161649
 20
84.5938753867
 11
67.5237959165
 21
83.8998644044
  0
LINE
  5
3FD
100
AcDbEntity
  8
0
100
AcDbLine
 62
7
  6
CONTINUOUS
 10
78.5547076288
 20
33.5218283506
 11
78.5547076288
 21
34.6649317346
  0
LINE
  5
3FE
100
AcDbEntity
  8
0
100
AcDbLine
 62
7
  6
CONTINUOUS
 10
78.5547076288
 20
38.0942418865
 11
78.5547076288
 21
40.0538476876
  0
LINE
  5
3FF
100
AcDbEntity
  8
0
100
AcDbLine
 62
7
  6
CONTINUOUS
 10
78.9082595474
 20
40.2579697646
 11
78.9082595474
 21
47.524841277
  0
LINE
  5
400
100
AcDbEntity
  8
0
100
AcDbLine
 62
7
  6
CONTINUOUS
 10
79.403239299
 20
46.8308302946
 11
79.403239299
 21
33.0319394452
  0
LINE
  5
401
100
AcDbEntity
  8
0
100
AcDbLine
 62
7
  6
CONTINUOUS
 10
79.8628497276
 20
49.2190742687
 11
79.8628497276
 21
48.0759708847
  0
LINE
  5
402
100
AcDbEntity
  8
0
100
AcDbLine
 62
7
  6
CONTINUOUS
 10
79.9214277826
 20
48.1097899122
 11
79.9214277826
 21
49.3007224196
  0
LINE
  5
403
100
AcDbEntity
  8
0
100
AcDbLine
 62
7
  6
CONTINUOUS
 10
80.7113813978
 20
47.5860819793
 11
80.7113813978
 21
29.2964278356
  0
LINE
  5
404
100
AcDbEntity
  8
0
100
AcDbLine
 62
7
  6
CONTINUOUS
 10
80.7699594528
 20
29.3780759865
 11
80.7699594528
 21
47.6199010067
  0
LINE
  5
405
100
AcDbEntity
  8
0
100
AcDbLine
 62
7
  6
CONTINUOUS
 10
79.8628497276
 20
49.2190742687
 11
79.9214277826
 21
49.3007224196
  0
LINE
  5
406
100
AcDbEntity
  8
0
100
AcDbLine
 62
7
  6
CONTINUOUS
 10
42.9544466082
 20
103.7565934783
 11
42.1093608023
 21
104.2444929581
  0
LINE
  5
407
100
AcDbEntity
  8
0
100
AcDbLine
 62
7
  6
CONTINUOUS
 10
78.9082595474
 20
40.2579697646
 11
78.5547076288
 21
40.0538476876
  0
LINE
  5
408
100
AcDbEntity
  8
0
100
AcDbLine
 62
7
  6
CONTINUOUS
 10
73.6049807683
 20
37.1961386105
 11
73.2514288497
 21
36.9920165336
  0
LINE
  5
409
100
AcDbEntity
  8
0
100
AcDbLine
 62
7
  6
CONTINUOUS
 10
62.0084183699
 20
29.3576514429
 11
61.6902204655
 21
29.1739408938
  0
LINE
  5
40A
100
AcDbEntity
  8
0
100
AcDbLine
 62
7
  6
CONTINUOUS
 10
78.5547076288
 20
38.0942418865
 11
76.5748239501
 21
36.9511623349
  0
LINE
  5
40B
100
AcDbEntity
  8
0
100
AcDbLine
 62
7
  6
CONTINUOUS
 10
73.2514288497
 20
35.0324107325
 11
71.271545171
 21
33.8893311809
  0
LINE
  5
40C
100
AcDbEntity
  8
0
100
AcDbLine
 62
7
  6
CONTINUOUS
 10
77.0466010906
 20
34.7970402988
 11
77.0654835689
 21
34.8061480624
  0
LINE
  5
40D
100
AcDbEntity
  8
0
100
AcDbLine
 62
7
  6
CONTINUOUS
 10
77.0654835689
 20
34.8061480624
 11
77.812243595
 21
35.0935880286
  0
LINE
  5
40E
100
AcDbEntity
  8
0
100
AcDbLine
 62
7
  6
CONTINUOUS
 10
71.7622047898
 20
31.7443169084
 11
72.5089648159
 21
32.0317568745
  0
LINE
  5
40F
100
AcDbEntity
  8
0
100
AcDbLine
 62
7
  6
CONTINUOUS
 10
76.6101582398
 20
34.4811969456
 11
76.5748239501
 21
34.4607968057
  0
LINE
  5
410
100
AcDbEntity
  8
0
100
AcDbLine
 62
7
  6
CONTINUOUS
 10
71.3068794607
 20
31.4193657915
 11
71.271545171
 21
31.3989656516
  0
LINE
  5
411
100
AcDbEntity
  8
0
100
AcDbLine
 62
7
  6
CONTINUOUS
 10
71.6604331457
 20
31.5521716526
 11
72.2261162155
 21
31.8787669757
  0
LINE
  5
412
100
AcDbEntity
  8
0
100
AcDbLine
 62
7
  6
CONTINUOUS
 10
76.9637119248
 20
34.6140028066
 11
77.5293949946
 21
34.9405981297
  0
LINE
  5
413
100
AcDbEntity
  8
0
100
AcDbLine
 62
7
  6
CONTINUOUS
 10
72.5089648159
 20
32.0317568745
 11
72.7564520421
 21
32.1746428383
  0
LINE
  5
414
100
AcDbEntity
  8
0
100
AcDbLine
 62
7
  6
CONTINUOUS
 10
77.812243595
 20
35.0935880286
 11
78.0597308212
 21
35.2364739923
  0
LINE
  5
415
100
AcDbEntity
  8
0
100
AcDbLine
 62
7
  6
CONTINUOUS
 10
76.6808692123
 20
34.4403728701
 11
76.5748239501
 21
34.3791479749
  0
LINE
  5
416
100
AcDbEntity
  8
0
100
AcDbLine
 62
7
  6
CONTINUOUS
 10
71.3775904332
 20
31.3785417161
 11
71.271545171
 21
31.3173168209
  0
LINE
  5
417
100
AcDbEntity
  8
0
100
AcDbLine
 62
7
  6
CONTINUOUS
 10
76.7869356711
 20
34.3791367569
 11
76.5748239501
 21
34.2566747287
  0
LINE
  5
418
100
AcDbEntity
  8
0
100
AcDbLine
 62
7
  6
CONTINUOUS
 10
71.483656892
 20
31.3173056029
 11
71.271545171
 21
31.1948435747
  0
LINE
  5
419
100
AcDbEntity
  8
0
100
AcDbLine
 62
7
  6
CONTINUOUS
 10
76.8930015411
 20
34.3995491346
 11
76.7515807736
 21
34.3179003038
  0
LINE
  5
41A
100
AcDbEntity
  8
0
100
AcDbLine
 62
7
  6
CONTINUOUS
 10
71.589722762
 20
31.3377179806
 11
71.4483019945
 21
31.2560691498
  0
LINE
  5
41B
100
AcDbEntity
  8
0
100
AcDbLine
 62
7
  6
CONTINUOUS
 10
77.0344246637
 20
34.154604002
 11
76.5748239501
 21
33.8892549902
  0
LINE
  5
41C
100
AcDbEntity
  8
0
100
AcDbLine
 62
7
  6
CONTINUOUS
 10
71.7311458846
 20
31.092772848
 11
71.271545171
 21
30.8274238362
  0
LINE
  5
41D
100
AcDbEntity
  8
0
100
AcDbLine
 62
7
  6
CONTINUOUS
 10
71.271545171
 20
29.5210312563
 11
72.2968336647
 21
30.1129783107
  0
LINE
  5
41E
100
AcDbEntity
  8
0
100
AcDbLine
 62
7
  6
CONTINUOUS
 10
76.5748239501
 20
32.5828624103
 11
77.6001124438
 21
33.1748094647
  0
LINE
  5
41F
100
AcDbEntity
  8
0
100
AcDbLine
 62
7
  6
CONTINUOUS
 10
71.271545171
 20
29.316917645
 11
73.2514288497
 21
30.4599971965
  0
LINE
  5
420
100
AcDbEntity
  8
0
100
AcDbLine
 62
7
  6
CONTINUOUS
 10
76.5748239501
 20
32.378748799
 11
78.5547076288
 21
33.5218283506
  0
LINE
  5
421
100
AcDbEntity
  8
0
100
AcDbLine
 62
7
  6
CONTINUOUS
 10
71.271545171
 20
28.3371316756
 11
74.0999605199
 21
29.9701082911
  0
LINE
  5
422
100
AcDbEntity
  8
0
100
AcDbLine
 62
7
  6
CONTINUOUS
 10
76.5748239501
 20
31.3989628297
 11
79.403239299
 21
33.0319394452
  0
LINE
  5
423
100
AcDbEntity
  8
0
100
AcDbLine
 62
7
  6
CONTINUOUS
 10
71.7433223115
 20
31.7352091447
 11
71.7622047898
 21
31.7443169084
  0
LINE
  5
424
100
AcDbEntity
  8
0
100
AcDbLine
 62
7
  6
CONTINUOUS
 10
80.7699551142
 20
29.3780759865
 11
80.7113813978
 21
29.2964278356
  0
LINE
  5
425
100
AcDbEntity
  8
0
100
AcDbLine
 62
7
  6
CONTINUOUS
 10
69.9634030722
 20
23.0911166968
 11
80.7113813978
 21
29.2964278356
  0
ARC
  5
426
100
AcDbEntity
  8
0
100
AcDbCircle
 62
7
  6
CONTINUOUS
 10
40.2151513484
 20
94.2146454759
 40
6.3094644471
100
AcDbArc
 50
235.7916075722
 51
237.1810471278
  0
ARC
  5
427
100
AcDbEntity
  8
0
100
AcDbCircle
 62
7
  6
CONTINUOUS
 10
49.3174986014
 20
99.4518692842
 40
6.2745313068
100
AcDbArc
 50
235.7877724491
 51
237.1946269827
  0
ARC
  5
428
100
AcDbEntity
  8
0
100
AcDbCircle
 62
7
  6
CONTINUOUS
 10
31.7087221934
 20
94.8919581426
 40
1.5
100
AcDbArc
 50
116.6814894672
 51
180.0
  0
ARC
  5
429
100
AcDbEntity
  8
0
100
AcDbCircle
 62
7
  6
CONTINUOUS
 10
33.7185706143
 20
69.7828617561
 40
1.457633648
100
AcDbArc
 50
200.9305025071
 51
202.4304457118
  0
ARC
  5
42A
100
AcDbEntity
  8
0
100
AcDbCircle
 62
7
  6
CONTINUOUS
 10
33.5929218344
 20
69.6417159649
 40
1.2739897953
100
AcDbArc
 50
224.7744293953
 51
225.6187219208
  0
ARC
  5
42B
100
AcDbEntity
  8
0
100
AcDbCircle
 62
7
  6
CONTINUOUS
 10
47.297919915
 20
59.3734090377
 40
1.1851457324
100
AcDbArc
 50
329.169329542
 51
338.1265882769
  0
ARC
  5
42C
100
AcDbEntity
  8
0
100
AcDbCircle
 62
7
  6
CONTINUOUS
 10
43.1666721111
 20
98.0373540516
 40
0.7435753508
100
AcDbArc
 50
26.2210414441
 51
36.5538904424
  0
ARC
  5
42D
100
AcDbEntity
  8
0
100
AcDbCircle
 62
7
  6
CONTINUOUS
 10
32.0651418668
 20
91.6279208358
 40
0.7435753508
100
AcDbArc
 50
26.2210414448
 51
36.5538904431
  0
ARC
  5
42E
100
AcDbEntity
  8
0
100
AcDbCircle
 62
7
  6
CONTINUOUS
 10
47.9604467934
 20
60.0305771874
 40
0.5135280196
100
AcDbArc
 50
22.8333768156
 51
30.5344248859
  0
ARC
  5
42F
100
AcDbEntity
  8
0
100
AcDbCircle
 62
7
  6
CONTINUOUS
 10
32.203733151
 20
86.532764746
 40
0.5
100
AcDbArc
 50
119.9998519061
 51
180.0
  0
ARC
  5
430
100
AcDbEntity
  8
0
100
AcDbCircle
 62
7
  6
CONTINUOUS
 10
24.920502982
 20
92.615600077
 40
0.5
100
AcDbArc
 50
119.9998519061
 51
180.0
  0
ARC
  5
431
100
AcDbEntity
  8
0
100
AcDbCircle
 62
7
  6
CONTINUOUS
 10
48.1594200443
 20
60.1455546943
 40
0.3682869465
100
AcDbArc
 50
20.499941414
 51
39.2378076452
  0
ARC
  5
432
100
AcDbEntity
  8
0
100
AcDbCircle
 62
7
  6
CONTINUOUS
 10
48.0688905672
 20
60.1351076641
 40
0.3624230908
100
AcDbArc
 50
50.2377523836
 51
53.7601571824
  0
ARC
  5
433
100
AcDbEntity
  8
0
100
AcDbCircle
 62
7
  6
CONTINUOUS
 10
48.1704625547
 20
60.1500586936
 40
0.3563665741
100
AcDbArc
 50
16.3268542012
 51
20.4434096672
  0
ARC
  5
434
100
AcDbEntity
  8
0
100
AcDbCircle
 62
7
  6
CONTINUOUS
 10
33.179151781
 20
68.8175555118
 40
0.3455716559
100
AcDbArc
 50
319.701190585
 51
324.0104864271
  0
ARC
  5
435
100
AcDbEntity
  8
0
100
AcDbCircle
 62
7
  6
CONTINUOUS
 10
38.5143113478
 20
87.6114141885
 40
0.3394905998
100
AcDbArc
 50
300.0648981186
 51
312.3037531396
  0
ARC
  5
436
100
AcDbEntity
  8
0
100
AcDbCircle
 62
7
  6
CONTINUOUS
 10
17.0319620113
 20
77.1420080524
 40
0.3384820272
100
AcDbArc
 50
140.6711033605
 51
150.0478166678
  0
ARC
  5
437
100
AcDbEntity
  8
0
100
AcDbCircle
 62
7
  6
CONTINUOUS
 10
17.0102003271
 20
77.1595020463
 40
0.3105618362
100
AcDbArc
 50
137.6795831722
 51
140.6231431428
  0
ARC
  5
438
100
AcDbEntity
  8
0
100
AcDbCircle
 62
7
  6
CONTINUOUS
 10
21.4800358476
 20
86.9025149999
 40
0.2
100
AcDbArc
 50
60.0005612632
 51
119.9998519061
  0
ARC
  5
439
100
AcDbEntity
  8
0
100
AcDbCircle
 62
7
  6
CONTINUOUS
 10
10.8027679057
 20
80.7380282764
 40
0.2
100
AcDbArc
 50
119.9998519061
 51
169.1066673361
  0
ARC
  5
43A
100
AcDbEntity
  8
0
100
AcDbCircle
 62
7
  6
CONTINUOUS
 10
51.7199721634
 20
83.2670751249
 40
0.2
100
AcDbArc
 50
119.9998519061
 51
180.0
  0
ARC
  5
43B
100
AcDbEntity
  8
0
100
AcDbCircle
 62
7
  6
CONTINUOUS
 10
67.8419844001
 20
86.3697565294
 40
0.2
100
AcDbArc
 50
0.0
 51
60.0005612632
  0
ARC
  5
43C
100
AcDbEntity
  8
0
100
AcDbCircle
 62
7
  6
CONTINUOUS
 10
62.467950489
 20
89.4723862637
 40
0.2
100
AcDbArc
 50
60.0005612632
 51
119.9998519061
  0
ARC
  5
43D
100
AcDbEntity
  8
0
100
AcDbCircle
 62
7
  6
CONTINUOUS
 10
79.7214277826
 20
49.3007224196
 40
0.2
100
AcDbArc
 50
0.0
 51
60.0005612632
  0
ARC
  5
43E
100
AcDbEntity
  8
0
100
AcDbCircle
 62
7
  6
CONTINUOUS
 10
73.7817060914
 20
67.8352394745
 40
0.2
100
AcDbArc
 50
0.0
 51
60.0005612632
  0
ARC
  5
43F
100
AcDbEntity
  8
0
100
AcDbCircle
 62
7
  6
CONTINUOUS
 10
16.9301736861
 20
77.2244428991
 40
0.2
100
AcDbArc
 50
119.9998519061
 51
180.0
  0
ARC
  5
440
100
AcDbEntity
  8
0
100
AcDbCircle
 62
7
  6
CONTINUOUS
 10
30.0117036013
 20
73.7545010261
 40
0.2
100
AcDbArc
 50
119.9998519061
 51
180.0
  0
SPLINE
  5
441
100
AcDbEntity
  8
0
100
AcDbSpline
 62
7
  6
CONTINUOUS
 70
0
 71
3
 72
11
 73
7
 74
0
 42
0.0000001
 43
0.0000001
 44
0.0000000001
 40
0.0
 40
0.0
 40
0.0
 40
0.0
 40
0.2177442246
 40
0.4508817658
 40
0.7104588047
 40
1.0
 40
1.0
 40
1.0
 40
1.0
 10
45.8691765146
 20
61.6612106471
 30
0.0
 10
45.8493883993
 20
61.6726350729
 30
0.0
 10
45.8123273328
 20
61.7037204742
 30
0.0
 10
45.7729034269
 20
61.7682091747
 30
0.0
 10
45.749531525
 20
61.8476558451
 30
0.0
 10
45.7448923363
 20
61.9054699464
 30
0.0
 10
45.7448923363
 20
61.9358532617
 30
0.0
  0
SPLINE
  5
442
100
AcDbEntity
  8
0
100
AcDbSpline
 62
7
  6
CONTINUOUS
 70
0
 71
3
 72
11
 73
7
 74
0
 42
0.0000001
 43
0.0000001
 44
0.0000000001
 40
0.0
 40
0.0
 40
0.0
 40
0.0
 40
0.2177456295
 40
0.4508837762
 40
0.7104602913
 40
1.0
 40
1.0
 40
1.0
 40
1.0
 10
47.9905056896
 20
60.4364883838
 30
0.0
 10
48.0102931547
 20
60.4250643474
 30
0.0
 10
48.0557430021
 20
60.4085124487
 30
0.0
 10
48.1313009321
 20
60.4066150806
 30
0.0
 10
48.2117863716
 20
60.4260969314
 30
0.0
 10
48.2641722293
 20
60.4509851303
 30
0.0
 10
48.2904838141
 20
60.4661760402
 30
0.0
  0
SPLINE
  5
443
100
AcDbEntity
  8
0
100
AcDbSpline
 62
7
  6
CONTINUOUS
 70
0
 71
3
 72
11
 73
7
 74
0
 42
0.0000001
 43
0.0000001
 44
0.0000000001
 40
0.0
 40
0.0
 40
0.0
 40
0.0
 40
0.2372523758
 40
0.4999990758
 40
0.7627462798
 40
1.0
 40
1.0
 40
1.0
 40
1.0
 10
71.7311458846
 20
31.092772848
 30
0.0
 10
71.8114616085
 20
31.0464035922
 30
0.0
 10
71.9634520254
 20
30.9185029525
 30
0.0
 10
72.140777812
 20
30.6760781914
 30
0.0
 10
72.2620623091
 20
30.4012972101
 30
0.0
 10
72.2968336647
 20
30.2057189213
 30
0.0
 10
72.2968336647
 20
30.1129783107
 30
0.0
  0
SPLINE
  5
444
100
AcDbEntity
  8
0
100
AcDbSpline
 62
7
  6
CONTINUOUS
 70
0
 71
3
 72
11
 73
7
 74
0
 42
0.0000001
 43
0.0000001
 44
0.0000000001
 40
0.0
 40
0.0
 40
0.0
 40
0.0
 40
0.2372423294
 40
0.4999983821
 40
0.7627553152
 40
1.0
 40
1.0
 40
1.0
 40
1.0
 10
71.9432746806
 20
30.8886381238
 30
0.0
 10
71.9834306302
 20
30.9118220338
 30
0.0
 10
72.0594168069
 20
30.9757802104
 30
0.0
 10
72.1481049982
 20
31.0969771663
 30
0.0
 10
72.2087200143
 20
31.2343826108
 30
0.0
 10
72.2261162155
 20
31.3321682644
 30
0.0
 10
72.2261162155
 20
31.3785367522
 30
0.0
  0
SPLINE
  5
445
100
AcDbEntity
  8
0
100
AcDbSpline
 62
7
  6
CONTINUOUS
 70
0
 71
3
 72
11
 73
7
 74
0
 42
0.0000001
 43
0.0000001
 44
0.0000000001
 40
0.0
 40
0.0
 40
0.0
 40
0.0
 40
0.2439972959
 40
0.5012257173
 40
0.7578287141
 40
1.0
 40
1.0
 40
1.0
 40
1.0
 10
20.6686498858
 20
76.3941170923
 30
0.0
 10
20.8866368428
 20
76.4835184322
 30
0.0
 10
21.3571215681
 20
76.6139003153
 30
0.0
 10
22.090232509
 20
76.6732898905
 30
0.0
 10
22.8205273754
 20
76.6021113023
 30
0.0
 10
23.2863986365
 20
76.4637392905
 30
0.0
 10
23.5008046722
 20
76.37039468
 30
0.0
  0
SPLINE
  5
446
100
AcDbEntity
  8
0
100
AcDbSpline
 62
7
  6
CONTINUOUS
 70
0
 71
3
 72
9
 73
5
 74
0
 42
0.0000001
 43
0.0000001
 44
0.0000000001
 40
0.0
 40
0.0
 40
0.0
 40
0.0
 40
0.2308412223
 40
1.0
 40
1.0
 40
1.0
 40
1.0
 10
24.4896036091
 20
76.964997024
 30
0.0
 10
24.4556528828
 20
76.9195928995
 30
0.0
 10
24.2959651496
 20
76.7323112319
 30
0.0
 10
24.0941320758
 20
76.5840777361
 30
0.0
 10
23.9305372965
 20
76.4896268101
 30
0.0
  0
SPLINE
  5
447
100
AcDbEntity
  8
0
100
AcDbSpline
 62
7
  6
CONTINUOUS
 70
0
 71
3
 72
9
 73
5
 74
0
 42
0.0000001
 43
0.0000001
 44
0.0000000001
 40
0.0
 40
0.0
 40
0.0
 40
0.0
 40
0.5445584945
 40
1.0
 40
1.0
 40
1.0
 40
1.0
 10
31.8501812324
 20
73.9178059287
 30
0.0
 10
31.8155387286
 20
73.9378063352
 30
0.0
 10
31.7555868296
 20
73.9824799301
 30
0.0
 10
31.7167947227
 20
74.0486267957
 30
0.0
 10
31.7087586986
 20
74.0811025705
 30
0.0
  0
SPLINE
  5
448
100
AcDbEntity
  8
0
100
AcDbSpline
 62
7
  6
CONTINUOUS
 70
0
 71
3
 72
11
 73
7
 74
0
 42
0.0000001
 43
0.0000001
 44
0.0000000001
 40
0.0
 40
0.0
 40
0.0
 40
0.0
 40
0.2319748677
 40
0.4838123273
 40
0.7440731543
 40
1.0
 40
1.0
 40
1.0
 40
1.0
 10
36.7955084887
 20
88.9122512694
 30
0.0
 10
36.8634597703
 20
88.8684260668
 30
0.0
 10
36.994749378
 20
88.7604796021
 30
0.0
 10
37.1637319247
 20
88.5623132783
 30
0.0
 10
37.3038539251
 20
88.3329980683
 30
0.0
 10
37.3731798926
 20
88.1659433777
 30
0.0
 10
37.4000242252
 20
88.0808713865
 30
0.0
  0
SPLINE
  5
449
100
AcDbEntity
  8
0
100
AcDbSpline
 62
7
  6
CONTINUOUS
 70
0
 71
3
 72
9
 73
5
 74
0
 42
0.0000001
 43
0.0000001
 44
0.0000000001
 40
0.0
 40
0.0
 40
0.0
 40
0.0
 40
0.2301935161
 40
1.0
 40
1.0
 40
1.0
 40
1.0
 10
48.3965493896
 20
60.3641121799
 30
0.0
 10
48.4029734742
 20
60.3601330331
 30
0.0
 10
48.4293161797
 20
60.3403979877
 30
0.0
 10
48.4487080009
 20
60.3117338474
 30
0.0
 10
48.4577104642
 20
60.2881211391
 30
0.0
  0
SPLINE
  5
44A
100
AcDbEntity
  8
0
100
AcDbSpline
 62
7
  6
CONTINUOUS
 70
0
 71
3
 72
9
 73
5
 74
0
 42
0.0000001
 43
0.0000001
 44
0.0000000001
 40
0.0
 40
0.0
 40
0.0
 40
0.0
 40
0.2652913951
 40
1.0
 40
1.0
 40
1.0
 40
1.0
 10
48.4577104642
 20
60.2881211391
 30
0.0
 10
48.4592092545
 20
60.2841899373
 30
0.0
 10
48.4642276937
 20
60.2691421632
 30
0.0
 10
48.4668976793
 20
60.2532838666
 30
0.0
 10
48.4672603622
 20
60.2416378627
 30
0.0
  0
SPLINE
  5
44B
100
AcDbEntity
  8
0
100
AcDbSpline
 62
7
  6
CONTINUOUS
 70
0
 71
3
 72
9
 73
5
 74
0
 42
0.0000001
 43
0.0000001
 44
0.0000000001
 40
0.0
 40
0.0
 40
0.0
 40
0.0
 40
0.2453604202
 40
1.0
 40
1.0
 40
1.0
 40
1.0
 10
15.8875650266
 20
76.5761030132
 30
0.0
 10
15.8865193147
 20
76.5718867664
 30
0.0
 10
15.8829057384
 20
76.5545423197
 30
0.0
 10
15.8816400709
 20
76.5367594028
 30
0.0
 10
15.881644677
 20
76.5233988668
 30
0.0
  0
SPLINE
  5
44C
100
AcDbEntity
  8
0
100
AcDbSpline
 62
7
  6
CONTINUOUS
 70
0
 71
3
 72
11
 73
7
 74
0
 42
0.0000001
 43
0.0000001
 44
0.0000000001
 40
0.0
 40
0.0
 40
0.0
 40
0.0
 40
0.242777717
 40
0.4999898907
 40
0.7572034857
 40
1.0
 40
1.0
 40
1.0
 40
1.0
 10
61.9093224193
 20
63.5526068879
 30
0.0
 10
62.1285162141
 20
63.6478787432
 30
0.0
 10
62.6052307818
 20
63.7878519898
 30
0.0
 10
63.3515341578
 20
63.8558844508
 30
0.0
 10
64.0978794869
 20
63.7879916796
 30
0.0
 10
64.5746148261
 20
63.6480533178
 30
0.0
 10
64.7938627676
 20
63.5528596619
 30
0.0
  0
SPLINE
  5
44D
100
AcDbEntity
  8
0
100
AcDbSpline
 62
7
  6
CONTINUOUS
 70
0
 71
3
 72
11
 73
7
 74
0
 42
0.0000001
 43
0.0000001
 44
0.0000000001
 40
0.0
 40
0.0
 40
0.0
 40
0.0
 40
0.2177827477
 40
0.4509152641
 40
0.7103063952
 40
1.0
 40
1.0
 40
1.0
 40
1.0
 10
66.0018922892
 20
64.7529874071
 30
0.0
 10
66.0018784981
 20
64.6520537867
 30
0.0
 10
65.9646005659
 20
64.4416737601
 30
0.0
 10
65.8051032204
 20
64.1485454384
 30
0.0
 10
65.5529756031
 20
63.8835793333
 30
0.0
 10
65.3420192336
 20
63.7382797952
 30
0.0
 10
65.2257452451
 20
63.6711493774
 30
0.0
  0
SPLINE
  5
44E
100
AcDbEntity
  8
0
100
AcDbSpline
 62
7
  6
CONTINUOUS
 70
0
 71
3
 72
11
 73
7
 74
0
 42
0.0000001
 43
0.0000001
 44
0.0000000001
 40
0.0
 40
0.0
 40
0.0
 40
0.0
 40
0.2439972959
 40
0.5012257173
 40
0.7578287141
 40
1.0
 40
1.0
 40
1.0
 40
1.0
 10
67.2671366135
 20
66.6374708136
 30
0.0
 10
67.4851235705
 20
66.7268721535
 30
0.0
 10
67.9556082958
 20
66.8572540366
 30
0.0
 10
68.6887192367
 20
66.9166436118
 30
0.0
 10
69.4190141031
 20
66.8454650236
 30
0.0
 10
69.8848853642
 20
66.7070930118
 30
0.0
 10
70.0992913999
 20
66.6137484013
 30
0.0
  0
SPLINE
  5
44F
100
AcDbEntity
  8
0
100
AcDbSpline
 62
7
  6
CONTINUOUS
 70
0
 71
3
 72
11
 73
7
 74
0
 42
0.0000001
 43
0.0000001
 44
0.0000000001
 40
0.0
 40
0.0
 40
0.0
 40
0.0
 40
0.2177827477
 40
0.4509152641
 40
0.7103063952
 40
1.0
 40
1.0
 40
1.0
 40
1.0
 10
71.3051710683
 20
67.8148185611
 30
0.0
 10
71.3051572772
 20
67.7138849407
 30
0.0
 10
71.267879345
 20
67.5035049141
 30
0.0
 10
71.1083819995
 20
67.2103765924
 30
0.0
 10
70.8562543823
 20
66.9454104873
 30
0.0
 10
70.6452980127
 20
66.8001109492
 30
0.0
 10
70.5290240242
 20
66.7329805314
 30
0.0
  0
SPLINE
  5
450
100
AcDbEntity
  8
0
100
AcDbSpline
 62
7
  6
CONTINUOUS
 70
0
 71
3
 72
18
 73
14
 74
0
 42
0.0000001
 43
0.0000001
 44
0.0000000001
 40
0.0
 40
0.0
 40
0.0
 40
0.0
 40
0.0428471062
 40
0.0874607367
 40
0.1352819149
 40
0.1872298257
 40
0.243719446
 40
0.3047237535
 40
0.4383540717
 40
0.5826581257
 40
0.7297840182
 40
0.871340059
 40
1.0
 40
1.0
 40
1.0
 40
1.0
 10
77.2448959108
 20
49.2803014709
 30
0.0
 10
77.2449016147
 20
49.204865407
 30
0.0
 10
77.2246804575
 20
49.0502351286
 30
0.0
 10
77.1360462808
 20
48.8269308288
 30
0.0
 10
76.9921033125
 20
48.6152747211
 30
0.0
 10
76.7970694763
 20
48.4193942275
 30
0.0
 10
76.5553787209
 20
48.2427517534
 30
0.0
 10
76.1660126941
 20
48.0311056575
 30
0.0
 10
75.5955050678
 20
47.8405308115
 30
0.0
 10
74.8510409459
 20
47.7359776486
 30
0.0
 10
74.0852841532
 20
47.7571300549
 30
0.0
 10
73.3614138107
 20
47.9019374081
 30
0.0
 10
72.9172503937
 20
48.0851978711
 30
0.0
 10
72.7210797752
 20
48.1984544682
 30
0.0
  0
SPLINE
  5
451
100
AcDbEntity
  8
0
100
AcDbSpline
 62
7
  6
CONTINUOUS
 70
0
 71
3
 72
11
 73
7
 74
0
 42
0.0000001
 43
0.0000001
 44
0.0000000001
 40
0.0
 40
0.0
 40
0.0
 40
0.0
 40
0.2440012448
 40
0.5012337545
 40
0.7578364728
 40
1.0
 40
1.0
 40
1.0
 40
1.0
 10
73.2068583047
 20
48.1029537587
 30
0.0
 10
73.424878229
 20
48.1923686192
 30
0.0
 10
73.8954373683
 20
48.3227623833
 30
0.0
 10
74.6286581808
 20
48.3821310111
 30
0.0
 10
75.359044332
 20
48.3108955289
 30
0.0
 10
75.824958811
 20
48.1724583579
 30
0.0
 10
76.0393739106
 20
48.0790742287
 30
0.0
  0
SPLINE
  5
452
100
AcDbEntity
  8
0
100
AcDbSpline
 62
7
  6
CONTINUOUS
 70
0
 71
3
 72
18
 73
14
 74
0
 42
0.0000001
 43
0.0000001
 44
0.0000000001
 40
0.0
 40
0.0
 40
0.0
 40
0.0
 40
0.0428471062
 40
0.0874607367
 40
0.1352819149
 40
0.1872298257
 40
0.243719446
 40
0.3047237535
 40
0.4383540717
 40
0.5826581257
 40
0.7297840182
 40
0.871340059
 40
1.0
 40
1.0
 40
1.0
 40
1.0
 10
71.9416171317
 20
46.2184703169
 30
0.0
 10
71.9416228355
 20
46.143034253
 30
0.0
 10
71.9214016784
 20
45.9884039746
 30
0.0
 10
71.8327675017
 20
45.7650996747
 30
0.0
 10
71.6888245334
 20
45.5534435671
 30
0.0
 10
71.4937906972
 20
45.3575630734
 30
0.0
 10
71.2520999418
 20
45.1809205994
 30
0.0
 10
70.862733915
 20
44.9692745034
 30
0.0
 10
70.2922262887
 20
44.7786996575
 30
0.0
 10
69.5477621668
 20
44.6741464946
 30
0.0
 10
68.7820053741
 20
44.6952989009
 30
0.0
 10
68.0581350316
 20
44.8401062541
 30
0.0
 10
67.6139716146
 20
45.023366717
 30
0.0
 10
67.4178009961
 20
45.1366233142
 30
0.0
  0
SPLINE
  5
453
100
AcDbEntity
  8
0
100
AcDbSpline
 62
7
  6
CONTINUOUS
 70
0
 71
3
 72
11
 73
7
 74
0
 42
0.0000001
 43
0.0000001
 44
0.0000000001
 40
0.0
 40
0.0
 40
0.0
 40
0.0
 40
0.2437323502
 40
0.5009533592
 40
0.7576972619
 40
1.0
 40
1.0
 40
1.0
 40
1.0
 10
67.8909282915
 20
45.0358983088
 30
0.0
 10
68.1092594731
 20
45.1266482966
 30
0.0
 10
68.5812706547
 20
45.2592395546
 30
0.0
 10
69.3175450848
 20
45.320561203
 30
0.0
 10
70.0516098744
 20
45.2500825172
 30
0.0
 10
70.5200205904
 20
45.111293195
 30
0.0
 10
70.7355426225
 20
45.0174825799
 30
0.0
  0
SPLINE
  5
454
100
AcDbEntity
  8
0
100
AcDbSpline
 62
7
  6
CONTINUOUS
 70
0
 71
3
 72
18
 73
14
 74
0
 42
0.0000001
 43
0.0000001
 44
0.0000000001
 40
0.0
 40
0.0
 40
0.0
 40
0.0
 40
0.1286585538
 40
0.2702079607
 40
0.4173278027
 40
0.5616316029
 40
0.6952660325
 40
0.7562716512
 40
0.8127630549
 40
0.864711743
 40
0.9125345558
 40
0.9571501792
 40
1.0
 40
1.0
 40
1.0
 40
1.0
 10
23.9305372965
 20
76.4896268101
 30
0.0
 10
23.7343689834
 20
76.3763696578
 30
0.0
 10
23.2902187128
 20
76.1931104099
 30
0.0
 10
22.5663721159
 20
76.0483013816
 30
0.0
 10
21.8006360301
 20
76.0271360842
 30
0.0
 10
21.0561727925
 20
76.1316773676
 30
0.0
 10
20.4856469342
 20
76.3222375753
 30
0.0
 10
20.0962701305
 20
76.5338915649
 30
0.0
 10
19.8545616079
 20
76.7105241431
 30
0.0
 10
19.6595272098
 20
76.9064147846
 30
0.0
 10
19.5155627543
 20
77.1180674721
 30
0.0
 10
19.4269319278
 20
77.3413855588
 30
0.0
 10
19.4066984013
 20
77.4960236957
 30
0.0
 10
19.4067087092
 20
77.5714647793
 30
0.0
  0
SPLINE
  5
455
100
AcDbEntity
  8
0
100
AcDbSpline
 62
7
  6
CONTINUOUS
 70
0
 71
3
 72
9
 73
5
 74
0
 42
0.0000001
 43
0.0000001
 44
0.0000000001
 40
0.0
 40
0.0
 40
0.0
 40
0.0
 40
0.2539558444
 40
1.0
 40
1.0
 40
1.0
 40
1.0
 10
32.2603445804
 20
69.8739177059
 30
0.0
 10
32.2621202665
 20
69.88270645
 30
0.0
 10
32.27154049
 20
69.9168099673
 30
0.0
 10
32.2885435391
 20
69.9485649592
 30
0.0
 10
32.3039312873
 20
69.9699432128
 30
0.0
  0
SPLINE
  5
456
100
AcDbEntity
  8
0
100
AcDbSpline
 62
7
  6
CONTINUOUS
 70
0
 71
3
 72
17
 73
13
 74
0
 42
0.0000001
 43
0.0000001
 44
0.0000000001
 40
0.0
 40
0.0
 40
0.0
 40
0.0
 40
0.1193157581
 40
0.2523721617
 40
0.3942771474
 40
0.5367635573
 40
0.6714483259
 40
0.7925623559
 40
0.8479388159
 40
0.9002586367
 40
0.9505064251
 40
1.0
 40
1.0
 40
1.0
 40
1.0
 10
32.2603706685
 20
69.8738931063
 30
0.0
 10
32.2435399507
 20
69.7895209224
 30
0.0
 10
32.239693729
 20
69.6044948092
 30
0.0
 10
32.3032610502
 20
69.3254614382
 30
0.0
 10
32.4265420934
 20
69.048876802
 30
0.0
 10
32.5988663758
 20
68.7984792629
 30
0.0
 10
32.8053271041
 20
68.5961918854
 30
0.0
 10
33.0004502939
 20
68.4788653216
 30
0.0
 10
33.1592007175
 20
68.4309977514
 30
0.0
 10
33.2733944688
 20
68.4196236268
 30
0.0
 10
33.3831337235
 20
68.4340146012
 30
0.0
 10
33.4506559267
 20
68.4615629518
 30
0.0
 10
33.4815627973
 20
68.4794069354
 30
0.0
  0
SPLINE
  5
457
100
AcDbEntity
  8
0
100
AcDbSpline
 62
7
  6
CONTINUOUS
 70
0
 71
3
 72
17
 73
13
 74
0
 42
0.0000001
 43
0.0000001
 44
0.0000000001
 40
0.0
 40
0.0
 40
0.0
 40
0.0
 40
0.0428570455
 40
0.087485165
 40
0.1353123244
 40
0.1872781392
 40
0.3045378316
 40
0.4381995438
 40
0.5825378192
 40
0.7296849502
 40
0.8713141218
 40
1.0
 40
1.0
 40
1.0
 40
1.0
 10
32.3608797076
 20
70.2571993949
 30
0.0
 10
32.3879963636
 20
70.2728557732
 30
0.0
 10
32.4477518133
 20
70.2977583508
 30
0.0
 10
32.5464336314
 20
70.3121516427
 30
0.0
 10
32.6523994871
 20
70.3044187333
 30
0.0
 10
32.8063543325
 20
70.2633968812
 30
0.0
 10
33.0031893229
 20
70.1558224567
 30
0.0
 10
33.2206536887
 20
69.9632352814
 30
0.0
 10
33.412864315
 20
69.7172032195
 30
0.0
 10
33.5641940217
 20
69.4375815569
 30
0.0
 10
33.6623501608
 20
69.1472812146
 30
0.0
 10
33.6886753497
 20
68.9495639241
 30
0.0
 10
33.6886753497
 20
68.8555443861
 30
0.0
  0
SPLINE
  5
458
100
AcDbEntity
  8
0
100
AcDbSpline
 62
7
  6
CONTINUOUS
 70
0
 71
3
 72
9
 73
5
 74
0
 42
0.0000001
 43
0.0000001
 44
0.0000000001
 40
0.0
 40
0.0
 40
0.0
 40
0.0
 40
0.2468519412
 40
1.0
 40
1.0
 40
1.0
 40
1.0
 10
48.3551269255
 20
60.4556694094
 30
0.0
 10
48.363576191
 20
60.4507913341
 30
0.0
 10
48.396789538
 20
60.4292944937
 30
0.0
 10
48.4258146005
 20
60.4015456389
 30
0.0
 10
48.4446683254
 20
60.3785111132
 30
0.0
  0
SPLINE
  5
459
100
AcDbEntity
  8
0
100
AcDbSpline
 62
7
  6
CONTINUOUS
 70
0
 71
3
 72
9
 73
5
 74
0
 42
0.0000001
 43
0.0000001
 44
0.0000000001
 40
0.0
 40
0.0
 40
0.0
 40
0.0
 40
0.2529496019
 40
1.0
 40
1.0
 40
1.0
 40
1.0
 10
48.5124581619
 20
60.2502392295
 30
0.0
 10
48.5146235149
 20
60.2428427172
 30
0.0
 10
48.5222211697
 20
60.2133350365
 30
0.0
 10
48.5258395947
 20
60.1827504175
 30
0.0
 10
48.5258395947
 20
60.1599890319
 30
0.0
  0
SPLINE
  5
45A
100
AcDbEntity
  8
0
100
AcDbSpline
 62
7
  6
CONTINUOUS
 70
0
 71
3
 72
9
 73
5
 74
0
 42
0.0000001
 43
0.0000001
 44
0.0000000001
 40
0.0
 40
0.0
 40
0.0
 40
0.0
 40
0.4828809567
 40
1.0
 40
1.0
 40
1.0
 40
1.0
 10
48.5258395947
 20
59.3434866148
 30
0.0
 10
48.5258395947
 20
59.242048517
 30
0.0
 10
48.4889697506
 20
59.0316934524
 30
0.0
 10
48.4015761622
 20
58.8384459984
 30
0.0
 10
48.3459028541
 20
58.7451665482
 30
0.0
  0
SPLINE
  5
45B
100
AcDbEntity
  8
0
100
AcDbSpline
 62
7
  6
CONTINUOUS
 70
0
 71
3
 72
11
 73
7
 74
0
 42
0.0000001
 43
0.0000001
 44
0.0000000001
 40
0.0
 40
0.0
 40
0.0
 40
0.0
 40
0.2429466504
 40
0.5004024826
 40
0.7576197223
 40
1.0
 40
1.0
 40
1.0
 40
1.0
 10
55.9693937697
 20
82.0870658403
 30
0.0
 10
56.1903084243
 20
82.1831075975
 30
0.0
 10
56.6710570859
 20
82.3237025484
 30
0.0
 10
57.4233230273
 20
82.3907634274
 30
0.0
 10
58.17467937
 20
82.3197446916
 30
0.0
 10
58.6538062703
 20
82.1763023547
 30
0.0
 10
58.8735090971
 20
82.0788973594
 30
0.0
  0
SPLINE
  5
45C
100
AcDbEntity
  8
0
100
AcDbSpline
 62
7
  6
CONTINUOUS
 70
0
 71
3
 72
11
 73
7
 74
0
 42
0.0000001
 43
0.0000001
 44
0.0000000001
 40
0.0
 40
0.0
 40
0.0
 40
0.0
 40
0.2177827477
 40
0.4509152641
 40
0.7103063952
 40
1.0
 40
1.0
 40
1.0
 40
1.0
 10
60.062170598
 20
83.287504462
 30
0.0
 10
60.0621568069
 20
83.1865708416
 30
0.0
 10
60.0248788747
 20
82.976190815
 30
0.0
 10
59.8653815291
 20
82.6830624932
 30
0.0
 10
59.6132539119
 20
82.4180963881
 30
0.0
 10
59.4022975424
 20
82.2727968501
 30
0.0
 10
59.2860235539
 20
82.2056664322
 30
0.0
  0
SPLINE
  5
45D
100
AcDbEntity
  8
0
100
AcDbSpline
 62
7
  6
CONTINUOUS
 70
0
 71
3
 72
11
 73
7
 74
0
 42
0.0000001
 43
0.0000001
 44
0.0000000001
 40
0.0
 40
0.0
 40
0.0
 40
0.0
 40
0.2439972959
 40
0.5012257173
 40
0.7578287141
 40
1.0
 40
1.0
 40
1.0
 40
1.0
 10
61.3274149223
 20
85.1719878685
 30
0.0
 10
61.5454018792
 20
85.2613892083
 30
0.0
 10
62.0158866046
 20
85.3917710915
 30
0.0
 10
62.7489975454
 20
85.4511606667
 30
0.0
 10
63.4792924119
 20
85.3799820785
 30
0.0
 10
63.945163673
 20
85.2416100667
 30
0.0
 10
64.1595697087
 20
85.1482654561
 30
0.0
  0
SPLINE
  5
45E
100
AcDbEntity
  8
0
100
AcDbSpline
 62
7
  6
CONTINUOUS
 70
0
 71
3
 72
11
 73
7
 74
0
 42
0.0000001
 43
0.0000001
 44
0.0000000001
 40
0.0
 40
0.0
 40
0.0
 40
0.0
 40
0.2177827477
 40
0.4509152641
 40
0.7103063952
 40
1.0
 40
1.0
 40
1.0
 40
1.0
 10
65.3654493771
 20
86.349335616
 30
0.0
 10
65.365435586
 20
86.2484019956
 30
0.0
 10
65.3281576538
 20
86.038021969
 30
0.0
 10
65.1686603082
 20
85.7448936473
 30
0.0
 10
64.916532691
 20
85.4799275422
 30
0.0
 10
64.7055763215
 20
85.3346280041
 30
0.0
 10
64.589302333
 20
85.2674975863
 30
0.0
  0
SPLINE
  5
45F
100
AcDbEntity
  8
0
100
AcDbSpline
 62
7
  6
CONTINUOUS
 70
0
 71
3
 72
9
 73
5
 74
0
 42
0.0000001
 43
0.0000001
 44
0.0000000001
 40
0.0
 40
0.0
 40
0.0
 40
0.0
 40
0.2426135025
 40
1.0
 40
1.0
 40
1.0
 40
1.0
 10
60.3501317976
 20
68.9966182744
 30
0.0
 10
60.3495516404
 20
68.9927011689
 30
0.0
 10
60.3474846143
 20
68.9765084651
 30
0.0
 10
60.346672833
 20
68.9601628295
 30
0.0
 10
60.346672833
 20
68.9478010854
 30
0.0
  0
SPLINE
  5
460
100
AcDbEntity
  8
0
100
AcDbSpline
 62
7
  6
CONTINUOUS
 70
0
 71
3
 72
9
 73
5
 74
0
 42
0.0000001
 43
0.0000001
 44
0.0000000001
 40
0.0
 40
0.0
 40
0.0
 40
0.0
 40
0.2426135025
 40
1.0
 40
1.0
 40
1.0
 40
1.0
 10
66.2898534889
 20
50.4621012196
 30
0.0
 10
66.2892733316
 20
50.4581841141
 30
0.0
 10
66.2872063056
 20
50.4419914102
 30
0.0
 10
66.2863945242
 20
50.4256457746
 30
0.0
 10
66.2863945242
 20
50.4132840306
 30
0.0
  0
SPLINE
  5
461
100
AcDbEntity
  8
0
100
AcDbSpline
 62
7
  6
CONTINUOUS
 70
0
 71
3
 72
9
 73
5
 74
0
 42
0.0000001
 43
0.0000001
 44
0.0000000001
 40
0.0
 40
0.0
 40
0.0
 40
0.0
 40
0.2426135025
 40
1.0
 40
1.0
 40
1.0
 40
1.0
 10
77.5328539592
 20
34.9894153187
 30
0.0
 10
77.5322738019
 20
34.9854982132
 30
0.0
 10
77.5302067759
 20
34.9693055094
 30
0.0
 10
77.5293949946
 20
34.9529598738
 30
0.0
 10
77.5293949946
 20
34.9405981297
 30
0.0
  0
SPLINE
  5
462
100
AcDbEntity
  8
0
100
AcDbSpline
 62
7
  6
CONTINUOUS
 70
0
 71
3
 72
9
 73
5
 74
0
 42
0.0000001
 43
0.0000001
 44
0.0000000001
 40
0.0
 40
0.0
 40
0.0
 40
0.0
 40
0.2426135025
 40
1.0
 40
1.0
 40
1.0
 40
1.0
 10
71.593132268
 20
53.5239323736
 30
0.0
 10
71.5925521107
 20
53.5200152681
 30
0.0
 10
71.5904850847
 20
53.5038225642
 30
0.0
 10
71.5896733033
 20
53.4874769286
 30
0.0
 10
71.5896733033
 20
53.4751151846
 30
0.0
  0
SPLINE
  5
463
100
AcDbEntity
  8
0
100
AcDbSpline
 62
7
  6
CONTINUOUS
 70
0
 71
3
 72
9
 73
5
 74
0
 42
0.0000001
 43
0.0000001
 44
0.0000000001
 40
0.0
 40
0.0
 40
0.0
 40
0.0
 40
0.2426135025
 40
1.0
 40
1.0
 40
1.0
 40
1.0
 10
65.6534105767
 20
72.0584494285
 30
0.0
 10
65.6528304195
 20
72.054532323
 30
0.0
 10
65.6507633934
 20
72.0383396191
 30
0.0
 10
65.6499516121
 20
72.0219939835
 30
0.0
 10
65.6499516121
 20
72.0096322395
 30
0.0
  0
SPLINE
  5
464
100
AcDbEntity
  8
0
100
AcDbSpline
 62
7
  6
CONTINUOUS
 70
0
 71
3
 72
11
 73
7
 74
0
 42
0.0000001
 43
0.0000001
 44
0.0000000001
 40
0.0
 40
0.0
 40
0.0
 40
0.0
 40
0.2372423294
 40
0.4999983821
 40
0.7627553152
 40
1.0
 40
1.0
 40
1.0
 40
1.0
 10
71.3068317684
 20
52.4849863327
 30
0.0
 10
71.3469877181
 20
52.5081702426
 30
0.0
 10
71.4229738947
 20
52.5721284193
 30
0.0
 10
71.5116620861
 20
52.6933253752
 30
0.0
 10
71.5722771021
 20
52.8307308197
 30
0.0
 10
71.5896733033
 20
52.9285164733
 30
0.0
 10
71.5896733033
 20
52.9748849611
 30
0.0
  0
SPLINE
  5
465
100
AcDbEntity
  8
0
100
AcDbSpline
 62
7
  6
CONTINUOUS
 70
0
 71
3
 72
11
 73
7
 74
0
 42
0.0000001
 43
0.0000001
 44
0.0000000001
 40
0.0
 40
0.0
 40
0.0
 40
0.0
 40
0.2372523758
 40
0.4999990758
 40
0.7627462798
 40
1.0
 40
1.0
 40
1.0
 40
1.0
 10
71.0947029724
 20
52.6891210569
 30
0.0
 10
71.1750186964
 20
52.6427518011
 30
0.0
 10
71.3270091132
 20
52.5148511614
 30
0.0
 10
71.5043348999
 20
52.2724264003
 30
0.0
 10
71.6256193969
 20
51.997645419
 30
0.0
 10
71.6603907526
 20
51.8020671302
 30
0.0
 10
71.6603907526
 20
51.7093265196
 30
0.0
  0
SPLINE
  5
466
100
AcDbEntity
  8
0
100
AcDbSpline
 62
7
  6
CONTINUOUS
 70
0
 71
3
 72
9
 73
5
 74
0
 42
0.0000001
 43
0.0000001
 44
0.0000000001
 40
0.0
 40
0.0
 40
0.0
 40
0.0
 40
0.2426135025
 40
1.0
 40
1.0
 40
1.0
 40
1.0
 10
72.2295751801
 20
31.9275841647
 30
0.0
 10
72.2289950228
 20
31.9236670592
 30
0.0
 10
72.2269279968
 20
31.9074743553
 30
0.0
 10
72.2261162155
 20
31.8911287197
 30
0.0
 10
72.2261162155
 20
31.8787669757
 30
0.0
  0
SPLINE
  5
467
100
AcDbEntity
  8
0
100
AcDbSpline
 62
7
  6
CONTINUOUS
 70
0
 71
3
 72
11
 73
7
 74
0
 42
0.0000001
 43
0.0000001
 44
0.0000000001
 40
0.0
 40
0.0
 40
0.0
 40
0.0
 40
0.2372428732
 40
0.4999994739
 40
0.7627563609
 40
1.0
 40
1.0
 40
1.0
 40
1.0
 10
69.9634030722
 20
23.0911166968
 30
0.0
 10
69.943325075
 20
23.0795247289
 30
0.0
 10
69.8966337755
 20
23.0626113834
 30
0.0
 10
69.8219819383
 20
23.0545072832
 30
0.0
 10
69.7473299884
 20
23.0626110427
 30
0.0
 10
69.7006385052
 20
23.0795241564
 30
0.0
 10
69.6805603597
 20
23.0911160169
 30
0.0
  0
SPLINE
  5
468
100
AcDbEntity
  8
0
100
AcDbSpline
 62
7
  6
CONTINUOUS
 70
0
 71
3
 72
18
 73
14
 74
0
 42
0.0000001
 43
0.0000001
 44
0.0000000001
 40
0.0
 40
0.0
 40
0.0
 40
0.0
 40
0.1286585538
 40
0.2702079607
 40
0.4173278027
 40
0.5616316029
 40
0.6952660325
 40
0.7562716512
 40
0.8127630549
 40
0.864711743
 40
0.9125345558
 40
0.9571501792
 40
1.0
 40
1.0
 40
1.0
 40
1.0
 10
70.5290240242
 20
66.7329805314
 30
0.0
 10
70.3328557111
 20
66.6197233791
 30
0.0
 10
69.8887054405
 20
66.4364641312
 30
0.0
 10
69.1648588436
 20
66.2916551029
 30
0.0
 10
68.3991227578
 20
66.2704898055
 30
0.0
 10
67.6546595202
 20
66.3750310889
 30
0.0
 10
67.0841336619
 20
66.5655912966
 30
0.0
 10
66.6947568582
 20
66.7772452862
 30
0.0
 10
66.4530483356
 20
66.9538778644
 30
0.0
 10
66.2580139374
 20
67.1497685059
 30
0.0
 10
66.114049482
 20
67.3614211934
 30
0.0
 10
66.0254186555
 20
67.5847392801
 30
0.0
 10
66.005185129
 20
67.739377417
 30
0.0
 10
66.0051954369
 20
67.8148185006
 30
0.0
  0
SPLINE
  5
469
100
AcDbEntity
  8
0
100
AcDbSpline
 62
7
  6
CONTINUOUS
 70
0
 71
3
 72
18
 73
14
 74
0
 42
0.0000001
 43
0.0000001
 44
0.0000000001
 40
0.0
 40
0.0
 40
0.0
 40
0.0
 40
0.1286585538
 40
0.2702079607
 40
0.4173278027
 40
0.5616316029
 40
0.6952660325
 40
0.7562716512
 40
0.8127630549
 40
0.864711743
 40
0.9125345558
 40
0.9571501792
 40
1.0
 40
1.0
 40
1.0
 40
1.0
 10
65.2257452451
 20
63.6711493774
 30
0.0
 10
65.029576932
 20
63.557892225
 30
0.0
 10
64.5854266614
 20
63.3746329772
 30
0.0
 10
63.8615800645
 20
63.2298239489
 30
0.0
 10
63.0958439787
 20
63.2086586515
 30
0.0
 10
62.3513807411
 20
63.3131999348
 30
0.0
 10
61.7808548828
 20
63.5037601425
 30
0.0
 10
61.3914780791
 20
63.7154141322
 30
0.0
 10
61.1497695565
 20
63.8920467104
 30
0.0
 10
60.9547351583
 20
64.0879373518
 30
0.0
 10
60.8107707029
 20
64.2995900394
 30
0.0
 10
60.7221398764
 20
64.5229081261
 30
0.0
 10
60.7019063499
 20
64.677546263
 30
0.0
 10
60.7019166578
 20
64.7529873466
 30
0.0
  0
SPLINE
  5
46A
100
AcDbEntity
  8
0
100
AcDbSpline
 62
7
  6
CONTINUOUS
 70
0
 71
3
 72
11
 73
7
 74
0
 42
0.0000001
 43
0.0000001
 44
0.0000000001
 40
0.0
 40
0.0
 40
0.0
 40
0.0
 40
0.2372523758
 40
0.4999990758
 40
0.7627462798
 40
1.0
 40
1.0
 40
1.0
 40
1.0
 10
77.0344246637
 20
34.154604002
 30
0.0
 10
77.1147403876
 20
34.1082347462
 30
0.0
 10
77.2667308045
 20
33.9803341065
 30
0.0
 10
77.4440565911
 20
33.7379093455
 30
0.0
 10
77.5653410882
 20
33.4631283642
 30
0.0
 10
77.6001124438
 20
33.2675500753
 30
0.0
 10
77.6001124438
 20
33.1748094647
 30
0.0
  0
SPLINE
  5
46B
100
AcDbEntity
  8
0
100
AcDbSpline
 62
7
  6
CONTINUOUS
 70
0
 71
3
 72
11
 73
7
 74
0
 42
0.0000001
 43
0.0000001
 44
0.0000000001
 40
0.0
 40
0.0
 40
0.0
 40
0.0
 40
0.2372423294
 40
0.4999983821
 40
0.7627553152
 40
1.0
 40
1.0
 40
1.0
 40
1.0
 10
77.2465534597
 20
33.9504692778
 30
0.0
 10
77.2867094093
 20
33.9736531878
 30
0.0
 10
77.362695586
 20
34.0376113645
 30
0.0
 10
77.4513837773
 20
34.1588083203
 30
0.0
 10
77.5119987934
 20
34.2962137649
 30
0.0
 10
77.5293949946
 20
34.3939994184
 30
0.0
 10
77.5293949946
 20
34.4403679062
 30
0.0
  0
SPLINE
  5
46C
100
AcDbEntity
  8
0
100
AcDbSpline
 62
7
  6
CONTINUOUS
 70
0
 71
3
 72
11
 73
7
 74
0
 42
0.0000001
 43
0.0000001
 44
0.0000000001
 40
0.0
 40
0.0
 40
0.0
 40
0.0
 40
0.2897036169
 40
0.5490920547
 40
0.7822205729
 40
1.0
 40
1.0
 40
1.0
 40
1.0
 10
67.4178009961
 20
45.1366233142
 30
0.0
 10
67.3015209076
 20
45.2037561358
 30
0.0
 10
67.0905582506
 20
45.3490582013
 30
0.0
 10
66.8384233497
 20
45.614028486
 30
0.0
 10
66.6789341944
 20
45.9071582615
 30
0.0
 10
66.6416428295
 20
46.1175368585
 30
0.0
 10
66.6416351978
 20
46.2184703271
 30
0.0
  0
SPLINE
  5
46D
100
AcDbEntity
  8
0
100
AcDbSpline
 62
7
  6
CONTINUOUS
 70
0
 71
3
 72
11
 73
7
 74
0
 42
0.0000001
 43
0.0000001
 44
0.0000000001
 40
0.0
 40
0.0
 40
0.0
 40
0.0
 40
0.2897036169
 40
0.5490920547
 40
0.7822205729
 40
1.0
 40
1.0
 40
1.0
 40
1.0
 10
72.7210797752
 20
48.1984544682
 30
0.0
 10
72.6047996867
 20
48.2655872899
 30
0.0
 10
72.3938370297
 20
48.4108893553
 30
0.0
 10
72.1417021288
 20
48.67585964
 30
0.0
 10
71.9822129735
 20
48.9689894156
 30
0.0
 10
71.9449216086
 20
49.1793680125
 30
0.0
 10
71.9449139769
 20
49.2803014811
 30
0.0
  0
SPLINE
  5
46E
100
AcDbEntity
  8
0
100
AcDbSpline
 62
7
  6
CONTINUOUS
 70
0
 71
3
 72
11
 73
7
 74
0
 42
0.0000001
 43
0.0000001
 44
0.0000000001
 40
0.0
 40
0.0
 40
0.0
 40
0.0
 40
0.2323124534
 40
0.4893612051
 40
0.751808328
 40
1.0
 40
1.0
 40
1.0
 40
1.0
 10
66.0035529893
 20
49.4231551786
 30
0.0
 10
66.0385952949
 20
49.4433867424
 30
0.0
 10
66.1058001526
 20
49.4976143895
 30
0.0
 10
66.188007505
 20
49.6005553251
 30
0.0
 10
66.2501819369
 20
49.7198340945
 30
0.0
 10
66.2748875579
 20
49.8062010915
 30
0.0
 10
66.2813439991
 20
49.8489453156
 30
0.0
  0
SPLINE
  5
46F
100
AcDbEntity
  8
0
100
AcDbSpline
 62
7
  6
CONTINUOUS
 70
0
 71
3
 72
9
 73
5
 74
0
 42
0.0000001
 43
0.0000001
 44
0.0000000001
 40
0.0
 40
0.0
 40
0.0
 40
0.0
 40
0.258559065
 40
1.0
 40
1.0
 40
1.0
 40
1.0
 10
66.2813439991
 20
49.8489453156
 30
0.0
 10
66.2821722006
 20
49.8544283409
 30
0.0
 10
66.2850159082
 20
49.8756853401
 30
0.0
 10
66.2863945242
 20
49.8971523944
 30
0.0
 10
66.2863945242
 20
49.9130538071
 30
0.0
  0
SPLINE
  5
470
100
AcDbEntity
  8
0
100
AcDbSpline
 62
7
  6
CONTINUOUS
 70
0
 71
3
 72
11
 73
7
 74
0
 42
0.0000001
 43
0.0000001
 44
0.0000000001
 40
0.0
 40
0.0
 40
0.0
 40
0.0
 40
0.2372523758
 40
0.4999990758
 40
0.7627462798
 40
1.0
 40
1.0
 40
1.0
 40
1.0
 10
65.7914241933
 20
49.6272899029
 30
0.0
 10
65.8717399172
 20
49.580920647
 30
0.0
 10
66.0237303341
 20
49.4530200074
 30
0.0
 10
66.2010561208
 20
49.2105952463
 30
0.0
 10
66.3223406178
 20
48.935814265
 30
0.0
 10
66.3571119735
 20
48.7402359762
 30
0.0
 10
66.3571119735
 20
48.6474953655
 30
0.0
  0
SPLINE
  5
471
100
AcDbEntity
  8
0
100
AcDbSpline
 62
7
  6
CONTINUOUS
 70
0
 71
3
 72
9
 73
5
 74
0
 42
0.0000001
 43
0.0000001
 44
0.0000000001
 40
0.0
 40
0.0
 40
0.0
 40
0.0
 40
0.2788440231
 40
1.0
 40
1.0
 40
1.0
 40
1.0
 10
20.594537958
 20
76.2518835857
 30
0.0
 10
20.594537958
 20
76.2620649828
 30
0.0
 10
20.5965253117
 20
76.2984027046
 30
0.0
 10
20.6075564287
 20
76.3353052235
 30
0.0
 10
20.622706823
 20
76.3568415255
 30
0.0
  0
SPLINE
  5
472
100
AcDbEntity
  8
0
100
AcDbSpline
 62
7
  6
CONTINUOUS
 70
0
 71
3
 72
9
 73
5
 74
0
 42
0.0000001
 43
0.0000001
 44
0.0000000001
 40
0.0
 40
0.0
 40
0.0
 40
0.0
 40
0.2586642903
 40
1.0
 40
1.0
 40
1.0
 40
1.0
 10
20.622706823
 20
76.3568415255
 30
0.0
 10
20.6256643933
 20
76.3610457149
 30
0.0
 10
20.6380933511
 20
76.3765720234
 30
0.0
 10
20.6550196073
 20
76.3885266987
 30
0.0
 10
20.6686511968
 20
76.3941137112
 30
0.0
  0
SPLINE
  5
473
100
AcDbEntity
  8
0
100
AcDbSpline
 62
7
  6
CONTINUOUS
 70
0
 71
3
 72
11
 73
7
 74
0
 42
0.0000001
 43
0.0000001
 44
0.0000000001
 40
0.0
 40
0.0
 40
0.0
 40
0.0
 40
0.2323124534
 40
0.4893612051
 40
0.751808328
 40
1.0
 40
1.0
 40
1.0
 40
1.0
 10
60.0638312981
 20
67.9576722335
 30
0.0
 10
60.0988736037
 20
67.9779037973
 30
0.0
 10
60.1660784613
 20
68.0321314444
 30
0.0
 10
60.2482858138
 20
68.1350723799
 30
0.0
 10
60.3104602456
 20
68.2543511494
 30
0.0
 10
60.3351658667
 20
68.3407181464
 30
0.0
 10
60.3416223078
 20
68.3834623705
 30
0.0
  0
SPLINE
  5
474
100
AcDbEntity
  8
0
100
AcDbSpline
 62
7
  6
CONTINUOUS
 70
0
 71
3
 72
9
 73
5
 74
0
 42
0.0000001
 43
0.0000001
 44
0.0000000001
 40
0.0
 40
0.0
 40
0.0
 40
0.0
 40
0.258559065
 40
1.0
 40
1.0
 40
1.0
 40
1.0
 10
60.3416223078
 20
68.3834623705
 30
0.0
 10
60.3424505093
 20
68.3889453958
 30
0.0
 10
60.3452942169
 20
68.4102023949
 30
0.0
 10
60.346672833
 20
68.4316694493
 30
0.0
 10
60.346672833
 20
68.4475708619
 30
0.0
  0
SPLINE
  5
475
100
AcDbEntity
  8
0
100
AcDbSpline
 62
7
  6
CONTINUOUS
 70
0
 71
3
 72
11
 73
7
 74
0
 42
0.0000001
 43
0.0000001
 44
0.0000000001
 40
0.0
 40
0.0
 40
0.0
 40
0.0
 40
0.2372523758
 40
0.4999990758
 40
0.7627462798
 40
1.0
 40
1.0
 40
1.0
 40
1.0
 10
59.8517025022
 20
68.1618069577
 30
0.0
 10
59.9320182261
 20
68.1154377019
 30
0.0
 10
60.0840086429
 20
67.9875370622
 30
0.0
 10
60.2613344296
 20
67.7451123012
 30
0.0
 10
60.3826189266
 20
67.4703313199
 30
0.0
 10
60.4173902822
 20
67.274753031
 30
0.0
 10
60.4173902822
 20
67.1820124204
 30
0.0
  0
SPLINE
  5
476
100
AcDbEntity
  8
0
100
AcDbSpline
 62
7
  6
CONTINUOUS
 70
0
 71
3
 72
18
 73
14
 74
0
 42
0.0000001
 43
0.0000001
 44
0.0000000001
 40
0.0
 40
0.0
 40
0.0
 40
0.0
 40
0.1286585538
 40
0.2702079607
 40
0.4173278027
 40
0.5616316029
 40
0.6952660325
 40
0.7562716512
 40
0.8127630549
 40
0.864711743
 40
0.9125345558
 40
0.9571501792
 40
1.0
 40
1.0
 40
1.0
 40
1.0
 10
64.589302333
 20
85.2674975863
 30
0.0
 10
64.3931340199
 20
85.1542404339
 30
0.0
 10
63.9489837493
 20
84.9709811861
 30
0.0
 10
63.2251371524
 20
84.8261721578
 30
0.0
 10
62.4594010665
 20
84.8050068604
 30
0.0
 10
61.714937829
 20
84.9095481437
 30
0.0
 10
61.1444119707
 20
85.1001083514
 30
0.0
 10
60.7550351669
 20
85.3117623411
 30
0.0
 10
60.5133266444
 20
85.4883949193
 30
0.0
 10
60.3182922462
 20
85.6842855607
 30
0.0
 10
60.1743277908
 20
85.8959382483
 30
0.0
 10
60.0856969642
 20
86.119256335
 30
0.0
 10
60.0654634377
 20
86.2738944719
 30
0.0
 10
60.0654737456
 20
86.3493355555
 30
0.0
  0
SPLINE
  5
477
100
AcDbEntity
  8
0
100
AcDbSpline
 62
7
  6
CONTINUOUS
 70
0
 71
3
 72
18
 73
14
 74
0
 42
0.0000001
 43
0.0000001
 44
0.0000000001
 40
0.0
 40
0.0
 40
0.0
 40
0.0
 40
0.1286585538
 40
0.2702079607
 40
0.4173278027
 40
0.5616316029
 40
0.6952660325
 40
0.7562716512
 40
0.8127630549
 40
0.864711743
 40
0.9125345558
 40
0.9571501792
 40
1.0
 40
1.0
 40
1.0
 40
1.0
 10
59.2860235539
 20
82.2056664322
 30
0.0
 10
59.0898552408
 20
82.0924092799
 30
0.0
 10
58.6457049702
 20
81.909150032
 30
0.0
 10
57.9218583733
 20
81.7643410038
 30
0.0
 10
57.1561222874
 20
81.7431757064
 30
0.0
 10
56.4116590499
 20
81.8477169897
 30
0.0
 10
55.8411331916
 20
82.0382771974
 30
0.0
 10
55.4517563878
 20
82.2499311871
 30
0.0
 10
55.2100478653
 20
82.4265637652
 30
0.0
 10
55.0150134671
 20
82.6224544067
 30
0.0
 10
54.8710490117
 20
82.8341070942
 30
0.0
 10
54.7824181851
 20
83.057425181
 30
0.0
 10
54.7621846586
 20
83.2120633178
 30
0.0
 10
54.7621949665
 20
83.2875044015
 30
0.0
  0
SPLINE
  5
478
100
AcDbEntity
  8
0
100
AcDbSpline
 62
7
  6
CONTINUOUS
 70
0
 71
3
 72
9
 73
5
 74
0
 42
0.0000001
 43
0.0000001
 44
0.0000000001
 40
0.0
 40
0.0
 40
0.0
 40
0.0
 40
0.2788448985
 40
1.0
 40
1.0
 40
1.0
 40
1.0
 10
61.2533029945
 20
85.0297543619
 30
0.0
 10
61.2533029945
 20
85.0399358281
 30
0.0
 10
61.2552902327
 20
85.0762736958
 30
0.0
 10
61.2663216721
 20
85.113176294
 30
0.0
 10
61.2814721815
 20
85.1347125936
 30
0.0
  0
SPLINE
  5
479
100
AcDbEntity
  8
0
100
AcDbSpline
 62
7
  6
CONTINUOUS
 70
0
 71
3
 72
9
 73
5
 74
0
 42
0.0000001
 43
0.0000001
 44
0.0000000001
 40
0.0
 40
0.0
 40
0.0
 40
0.0
 40
0.258663702
 40
1.0
 40
1.0
 40
1.0
 40
1.0
 10
61.2814721815
 20
85.1347125936
 30
0.0
 10
61.2844297382
 20
85.1389167312
 30
0.0
 10
61.2968586045
 20
85.1544429121
 30
0.0
 10
61.3137847017
 20
85.166397569
 30
0.0
 10
61.3274162169
 20
85.1719845028
 30
0.0
  0
SPLINE
  5
47A
100
AcDbEntity
  8
0
100
AcDbSpline
 62
7
  6
CONTINUOUS
 70
0
 71
3
 72
9
 73
5
 74
0
 42
0.0000001
 43
0.0000001
 44
0.0000000001
 40
0.0
 40
0.0
 40
0.0
 40
0.0
 40
0.2529499981
 40
1.0
 40
1.0
 40
1.0
 40
1.0
 10
39.1760915785
 20
87.8196968958
 30
0.0
 10
39.1425277632
 20
87.7783286224
 30
0.0
 10
39.0068727685
 20
87.6172196749
 30
0.0
 10
38.8592226112
 20
87.4661640568
 30
0.0
 10
38.7428092173
 20
87.3603313516
 30
0.0
  0
SPLINE
  5
47B
100
AcDbEntity
  8
0
100
AcDbSpline
 62
7
  6
CONTINUOUS
 70
0
 71
3
 72
9
 73
5
 74
0
 42
0.0000001
 43
0.0000001
 44
0.0000000001
 40
0.0
 40
0.0
 40
0.0
 40
0.0
 40
0.2539207001
 40
1.0
 40
1.0
 40
1.0
 40
1.0
 10
41.3097569599
 20
88.0983433805
 30
0.0
 10
41.2725276873
 20
88.0443384528
 30
0.0
 10
41.1218088761
 20
87.8345215775
 30
0.0
 10
40.954396027
 20
87.6366109071
 30
0.0
 10
40.8207278055
 20
87.4977665427
 30
0.0
  0
SPLINE
  5
47C
100
AcDbEntity
  8
0
100
AcDbSpline
 62
7
  6
CONTINUOUS
 70
0
 71
3
 72
11
 73
7
 74
0
 42
0.0000001
 43
0.0000001
 44
0.0000000001
 40
0.0
 40
0.0
 40
0.0
 40
0.0
 40
0.2820748866
 40
0.5461302102
 40
0.7865903892
 40
1.0
 40
1.0
 40
1.0
 40
1.0
 10
43.2524715519
 20
91.2489767618
 30
0.0
 10
43.0772595372
 20
90.9480828
 30
0.0
 10
42.7406659349
 20
90.3639953771
 30
0.0
 10
42.2502123653
 20
89.5259602158
 30
0.0
 10
41.7837891573
 20
88.7723026233
 30
0.0
 10
41.4670528097
 20
88.3096575666
 30
0.0
 10
41.309756979
 20
88.0983434197
 30
0.0
  0
SPLINE
  5
47D
100
AcDbEntity
  8
0
100
AcDbSpline
 62
7
  6
CONTINUOUS
 70
0
 71
3
 72
10
 73
6
 74
0
 42
0.0000001
 43
0.0000001
 44
0.0000000001
 40
0.0
 40
0.0
 40
0.0
 40
0.0
 40
0.2662468462
 40
0.5283426646
 40
1.0
 40
1.0
 40
1.0
 40
1.0
 10
43.2524715911
 20
91.2489768279
 30
0.0
 10
43.2839749434
 20
91.3260554658
 30
0.0
 10
43.3516815412
 20
91.4772911788
 30
0.0
 10
43.5069150844
 20
91.7479456861
 30
0.0
 10
43.6695999777
 20
91.923588506
 30
0.0
 10
43.7973472902
 20
91.9973432282
 30
0.0
  0
SPLINE
  5
47E
100
AcDbEntity
  8
0
100
AcDbSpline
 62
7
  6
CONTINUOUS
 70
0
 71
3
 72
11
 73
7
 74
0
 42
0.0000001
 43
0.0000001
 44
0.0000000001
 40
0.0
 40
0.0
 40
0.0
 40
0.0
 40
0.2733339871
 40
0.5301195243
 40
0.7716426382
 40
1.0
 40
1.0
 40
1.0
 40
1.0
 10
39.4343423325
 20
89.4783761774
 30
0.0
 10
39.4790839561
 20
89.5042075355
 30
0.0
 10
39.5718052195
 20
89.5449159193
 30
0.0
 10
39.7170237192
 20
89.5700656607
 30
0.0
 10
39.8553863293
 20
89.5573941997
 30
0.0
 10
39.9395825225
 20
89.5247956109
 30
0.0
 10
39.9769506282
 20
89.5031950883
 30
0.0
  0
SPLINE
  5
47F
100
AcDbEntity
  8
0
100
AcDbSpline
 62
7
  6
CONTINUOUS
 70
0
 71
3
 72
11
 73
7
 74
0
 42
0.0000001
 43
0.0000001
 44
0.0000000001
 40
0.0
 40
0.0
 40
0.0
 40
0.0
 40
0.2372523758
 40
0.4999990758
 40
0.7627462798
 40
1.0
 40
1.0
 40
1.0
 40
1.0
 10
65.1549812813
 20
71.2236381117
 30
0.0
 10
65.2352970052
 20
71.1772688559
 30
0.0
 10
65.387287422
 20
71.0493682162
 30
0.0
 10
65.5646132087
 20
70.8069434552
 30
0.0
 10
65.6858977057
 20
70.5321624739
 30
0.0
 10
65.7206690613
 20
70.3365841851
 30
0.0
 10
65.7206690613
 20
70.2438435744
 30
0.0
  0
SPLINE
  5
480
100
AcDbEntity
  8
0
100
AcDbSpline
 62
7
  6
CONTINUOUS
 70
0
 71
3
 72
11
 73
7
 74
0
 42
0.0000001
 43
0.0000001
 44
0.0000000001
 40
0.0
 40
0.0
 40
0.0
 40
0.0
 40
0.2372423294
 40
0.4999983821
 40
0.7627553152
 40
1.0
 40
1.0
 40
1.0
 40
1.0
 10
65.3671100772
 20
71.0195033876
 30
0.0
 10
65.4072660269
 20
71.0426872975
 30
0.0
 10
65.4832522035
 20
71.1066454742
 30
0.0
 10
65.5719403949
 20
71.22784243
 30
0.0
 10
65.6325554109
 20
71.3652478746
 30
0.0
 10
65.6499516121
 20
71.4630335281
 30
0.0
 10
65.6499516121
 20
71.509402016
 30
0.0
  0
SPLINE
  5
481
100
AcDbEntity
  8
0
100
AcDbSpline
 62
7
  6
CONTINUOUS
 70
0
 71
3
 72
11
 73
7
 74
0
 42
0.0000001
 43
0.0000001
 44
0.0000000001
 40
0.0
 40
0.0
 40
0.0
 40
0.0
 40
0.2319753041
 40
0.483812827
 40
0.7440734365
 40
1.0
 40
1.0
 40
1.0
 40
1.0
 10
46.9070993315
 20
94.7501388205
 30
0.0
 10
46.9750538588
 20
94.7063193783
 30
0.0
 10
47.1063363239
 20
94.5983638618
 30
0.0
 10
47.2753196634
 20
94.400202181
 30
0.0
 10
47.4154394997
 20
94.1708872942
 30
0.0
 10
47.4847649758
 20
94.0038341093
 30
0.0
 10
47.5116090973
 20
93.9187627868
 30
0.0
  0
SPLINE
  5
482
100
AcDbEntity
  8
0
100
AcDbSpline
 62
7
  6
CONTINUOUS
 70
0
 71
3
 72
11
 73
7
 74
0
 42
0.0000001
 43
0.0000001
 44
0.0000000001
 40
0.0
 40
0.0
 40
0.0
 40
0.0
 40
0.262380561
 40
0.5212334645
 40
0.7692092205
 40
1.0
 40
1.0
 40
1.0
 40
1.0
 10
43.8337307101
 20
98.3658919154
 30
0.0
 10
44.0191756294
 20
97.989566292
 30
0.0
 10
44.4335689097
 20
97.2637140392
 30
0.0
 10
45.1693246501
 20
96.274312659
 30
0.0
 10
45.9898527155
 20
95.4225859473
 30
0.0
 10
46.5969400918
 20
94.9500915889
 30
0.0
 10
46.9070993315
 20
94.7501388205
 30
0.0
  0
SPLINE
  5
483
100
AcDbEntity
  8
0
100
AcDbSpline
 62
7
  6
CONTINUOUS
 70
0
 71
3
 72
9
 73
5
 74
0
 42
0.0000001
 43
0.0000001
 44
0.0000000001
 40
0.0
 40
0.0
 40
0.0
 40
0.0
 40
0.4755858471
 40
1.0
 40
1.0
 40
1.0
 40
1.0
 10
43.6808561364
 20
98.7137292543
 30
0.0
 10
43.6808561364
 20
98.6739954689
 30
0.0
 10
43.6988651979
 20
98.5905150402
 30
0.0
 10
43.7384519657
 20
98.5158166262
 30
0.0
 10
43.7639839859
 20
98.4802116208
 30
0.0
  0
SPLINE
  5
484
100
AcDbEntity
  8
0
100
AcDbSpline
 62
7
  6
CONTINUOUS
 70
0
 71
3
 72
9
 73
5
 74
0
 42
0.0000001
 43
0.0000001
 44
0.0000000001
 40
0.0
 40
0.0
 40
0.0
 40
0.0
 40
0.222494832
 40
1.0
 40
1.0
 40
1.0
 40
1.0
 10
43.7139142566
 20
98.8207182563
 30
0.0
 10
43.7084077831
 20
98.814359828
 30
0.0
 10
43.6871574802
 20
98.7826844088
 30
0.0
 10
43.6808561364
 20
98.7431226134
 30
0.0
 10
43.6808561364
 20
98.7137292543
 30
0.0
  0
SPLINE
  5
485
100
AcDbEntity
  8
0
100
AcDbSpline
 62
7
  6
CONTINUOUS
 70
0
 71
3
 72
9
 73
5
 74
0
 42
0.0000001
 43
0.0000001
 44
0.0000000001
 40
0.0
 40
0.0
 40
0.0
 40
0.0
 40
0.5413125256
 40
1.0
 40
1.0
 40
1.0
 40
1.0
 10
43.7652972001
 20
98.9870135512
 30
0.0
 10
43.7652972001
 20
98.9551138179
 30
0.0
 10
43.7587412902
 20
98.8957046148
 30
0.0
 10
43.7316097854
 20
98.8411516156
 30
0.0
 10
43.7139142566
 20
98.8207182563
 30
0.0
  0
SPLINE
  5
486
100
AcDbEntity
  8
0
100
AcDbSpline
 62
7
  6
CONTINUOUS
 70
0
 71
3
 72
9
 73
5
 74
0
 42
0.0000001
 43
0.0000001
 44
0.0000000001
 40
0.0
 40
0.0
 40
0.0
 40
0.0
 40
0.5239946799
 40
1.0
 40
1.0
 40
1.0
 40
1.0
 10
43.6290610894
 20
99.3596085974
 30
0.0
 10
43.6708469634
 20
99.3033171808
 30
0.0
 10
43.7356377649
 20
99.184348911
 30
0.0
 10
43.7652972001
 20
99.0506985429
 30
0.0
 10
43.7652972001
 20
98.9870135512
 30
0.0
  0
SPLINE
  5
487
100
AcDbEntity
  8
0
100
AcDbSpline
 62
7
  6
CONTINUOUS
 70
0
 71
3
 72
9
 73
5
 74
0
 42
0.0000001
 43
0.0000001
 44
0.0000000001
 40
0.0
 40
0.0
 40
0.0
 40
0.0
 40
0.4755858471
 40
1.0
 40
1.0
 40
1.0
 40
1.0
 10
43.5459332401
 20
99.5931262305
 30
0.0
 10
43.5459332401
 20
99.5533924452
 30
0.0
 10
43.5639423016
 20
99.4699120167
 30
0.0
 10
43.6035290692
 20
99.3952136028
 30
0.0
 10
43.6290610894
 20
99.3596085974
 30
0.0
  0
SPLINE
  5
488
100
AcDbEntity
  8
0
100
AcDbSpline
 62
7
  6
CONTINUOUS
 70
0
 71
3
 72
9
 73
5
 74
0
 42
0.0000001
 43
0.0000001
 44
0.0000000001
 40
0.0
 40
0.0
 40
0.0
 40
0.0
 40
0.222494832
 40
1.0
 40
1.0
 40
1.0
 40
1.0
 10
43.5789913603
 20
99.7001152325
 30
0.0
 10
43.5734848868
 20
99.6937568042
 30
0.0
 10
43.5522345839
 20
99.662081385
 30
0.0
 10
43.5459332401
 20
99.6225195896
 30
0.0
 10
43.5459332401
 20
99.5931262305
 30
0.0
  0
SPLINE
  5
489
100
AcDbEntity
  8
0
100
AcDbSpline
 62
7
  6
CONTINUOUS
 70
0
 71
3
 72
9
 73
5
 74
0
 42
0.0000001
 43
0.0000001
 44
0.0000000001
 40
0.0
 40
0.0
 40
0.0
 40
0.0
 40
0.5413125256
 40
1.0
 40
1.0
 40
1.0
 40
1.0
 10
43.6303743038
 20
99.8664105275
 30
0.0
 10
43.6303743038
 20
99.8345107942
 30
0.0
 10
43.6238183939
 20
99.775101591
 30
0.0
 10
43.5966868892
 20
99.7205485918
 30
0.0
 10
43.5789913603
 20
99.7001152325
 30
0.0
  0
SPLINE
  5
48A
100
AcDbEntity
  8
0
100
AcDbSpline
 62
7
  6
CONTINUOUS
 70
0
 71
3
 72
9
 73
5
 74
0
 42
0.0000001
 43
0.0000001
 44
0.0000000001
 40
0.0
 40
0.0
 40
0.0
 40
0.0
 40
0.5239946799
 40
1.0
 40
1.0
 40
1.0
 40
1.0
 10
43.4941381933
 20
100.2390055734
 30
0.0
 10
43.5359240672
 20
100.1827141569
 30
0.0
 10
43.6007148687
 20
100.0637458872
 30
0.0
 10
43.6303743038
 20
99.9300955191
 30
0.0
 10
43.6303743038
 20
99.8664105275
 30
0.0
  0
SPLINE
  5
48B
100
AcDbEntity
  8
0
100
AcDbSpline
 62
7
  6
CONTINUOUS
 70
0
 71
3
 72
9
 73
5
 74
0
 42
0.0000001
 43
0.0000001
 44
0.0000000001
 40
0.0
 40
0.0
 40
0.0
 40
0.0
 40
0.4755858471
 40
1.0
 40
1.0
 40
1.0
 40
1.0
 10
43.4110103439
 20
100.4725232068
 30
0.0
 10
43.4110103439
 20
100.4327894214
 30
0.0
 10
43.4290194053
 20
100.3493089928
 30
0.0
 10
43.4686061731
 20
100.2746105789
 30
0.0
 10
43.4941381933
 20
100.2390055734
 30
0.0
  0
SPLINE
  5
48C
100
AcDbEntity
  8
0
100
AcDbSpline
 62
7
  6
CONTINUOUS
 70
0
 71
3
 72
9
 73
5
 74
0
 42
0.0000001
 43
0.0000001
 44
0.0000000001
 40
0.0
 40
0.0
 40
0.0
 40
0.0
 40
0.222494832
 40
1.0
 40
1.0
 40
1.0
 40
1.0
 10
43.4440684641
 20
100.5795122088
 30
0.0
 10
43.4385619906
 20
100.5731537805
 30
0.0
 10
43.4173116877
 20
100.5414783612
 30
0.0
 10
43.4110103439
 20
100.5019165659
 30
0.0
 10
43.4110103439
 20
100.4725232068
 30
0.0
  0
SPLINE
  5
48D
100
AcDbEntity
  8
0
100
AcDbSpline
 62
7
  6
CONTINUOUS
 70
0
 71
3
 72
9
 73
5
 74
0
 42
0.0000001
 43
0.0000001
 44
0.0000000001
 40
0.0
 40
0.0
 40
0.0
 40
0.0
 40
0.5413125256
 40
1.0
 40
1.0
 40
1.0
 40
1.0
 10
43.4954514076
 20
100.7458075037
 30
0.0
 10
43.4954514076
 20
100.7139077704
 30
0.0
 10
43.4888954977
 20
100.6544985673
 30
0.0
 10
43.4617639929
 20
100.5999455681
 30
0.0
 10
43.4440684641
 20
100.5795122088
 30
0.0
  0
SPLINE
  5
48E
100
AcDbEntity
  8
0
100
AcDbSpline
 62
7
  6
CONTINUOUS
 70
0
 71
3
 72
9
 73
5
 74
0
 42
0.0000001
 43
0.0000001
 44
0.0000000001
 40
0.0
 40
0.0
 40
0.0
 40
0.0
 40
0.52399468
 40
1.0
 40
1.0
 40
1.0
 40
1.0
 10
43.3592152972
 20
101.1184025494
 30
0.0
 10
43.4010011711
 20
101.0621111329
 30
0.0
 10
43.4657919725
 20
100.9431428633
 30
0.0
 10
43.4954514076
 20
100.8094924953
 30
0.0
 10
43.4954514076
 20
100.7458075037
 30
0.0
  0
SPLINE
  5
48F
100
AcDbEntity
  8
0
100
AcDbSpline
 62
7
  6
CONTINUOUS
 70
0
 71
3
 72
9
 73
5
 74
0
 42
0.0000001
 43
0.0000001
 44
0.0000000001
 40
0.0
 40
0.0
 40
0.0
 40
0.0
 40
0.4755858471
 40
1.0
 40
1.0
 40
1.0
 40
1.0
 10
43.2760874476
 20
101.351920183
 30
0.0
 10
43.2760874476
 20
101.3121863976
 30
0.0
 10
43.2940965091
 20
101.2287059689
 30
0.0
 10
43.3336832769
 20
101.1540075549
 30
0.0
 10
43.3592152972
 20
101.1184025494
 30
0.0
  0
SPLINE
  5
490
100
AcDbEntity
  8
0
100
AcDbSpline
 62
7
  6
CONTINUOUS
 70
0
 71
3
 72
9
 73
5
 74
0
 42
0.0000001
 43
0.0000001
 44
0.0000000001
 40
0.0
 40
0.0
 40
0.0
 40
0.0
 40
0.222494832
 40
1.0
 40
1.0
 40
1.0
 40
1.0
 10
43.3091455678
 20
101.458909185
 30
0.0
 10
43.3036390943
 20
101.4525507567
 30
0.0
 10
43.2823887914
 20
101.4208753375
 30
0.0
 10
43.2760874476
 20
101.3813135421
 30
0.0
 10
43.2760874476
 20
101.351920183
 30
0.0
  0
SPLINE
  5
491
100
AcDbEntity
  8
0
100
AcDbSpline
 62
7
  6
CONTINUOUS
 70
0
 71
3
 72
9
 73
5
 74
0
 42
0.0000001
 43
0.0000001
 44
0.0000000001
 40
0.0
 40
0.0
 40
0.0
 40
0.0
 40
0.5413125256
 40
1.0
 40
1.0
 40
1.0
 40
1.0
 10
43.3605285113
 20
101.62520448
 30
0.0
 10
43.3605285113
 20
101.5933047467
 30
0.0
 10
43.3539726014
 20
101.5338955435
 30
0.0
 10
43.3268410966
 20
101.4793425443
 30
0.0
 10
43.3091455678
 20
101.458909185
 30
0.0
  0
SPLINE
  5
492
100
AcDbEntity
  8
0
100
AcDbSpline
 62
7
  6
CONTINUOUS
 70
0
 71
3
 72
9
 73
5
 74
0
 42
0.0000001
 43
0.0000001
 44
0.0000000001
 40
0.0
 40
0.0
 40
0.0
 40
0.0
 40
0.52399468
 40
1.0
 40
1.0
 40
1.0
 40
1.0
 10
43.2242924009
 20
101.9977995257
 30
0.0
 10
43.2660782748
 20
101.9415081091
 30
0.0
 10
43.3308690762
 20
101.8225398395
 30
0.0
 10
43.3605285113
 20
101.6888894715
 30
0.0
 10
43.3605285113
 20
101.62520448
 30
0.0
  0
SPLINE
  5
493
100
AcDbEntity
  8
0
100
AcDbSpline
 62
7
  6
CONTINUOUS
 70
0
 71
3
 72
9
 73
5
 74
0
 42
0.0000001
 43
0.0000001
 44
0.0000000001
 40
0.0
 40
0.0
 40
0.0
 40
0.0
 40
0.4755858471
 40
1.0
 40
1.0
 40
1.0
 40
1.0
 10
43.1411645513
 20
102.2313171593
 30
0.0
 10
43.1411645513
 20
102.1915833739
 30
0.0
 10
43.1591736128
 20
102.1081029451
 30
0.0
 10
43.1987603806
 20
102.0334045311
 30
0.0
 10
43.2242924009
 20
101.9977995257
 30
0.0
  0
SPLINE
  5
494
100
AcDbEntity
  8
0
100
AcDbSpline
 62
7
  6
CONTINUOUS
 70
0
 71
3
 72
9
 73
5
 74
0
 42
0.0000001
 43
0.0000001
 44
0.0000000001
 40
0.0
 40
0.0
 40
0.0
 40
0.0
 40
0.222494832
 40
1.0
 40
1.0
 40
1.0
 40
1.0
 10
43.1742226715
 20
102.3383061613
 30
0.0
 10
43.168716198
 20
102.331947733
 30
0.0
 10
43.1474658951
 20
102.3002723137
 30
0.0
 10
43.1411645513
 20
102.2607105184
 30
0.0
 10
43.1411645513
 20
102.2313171593
 30
0.0
  0
SPLINE
  5
495
100
AcDbEntity
  8
0
100
AcDbSpline
 62
7
  6
CONTINUOUS
 70
0
 71
3
 72
9
 73
5
 74
0
 42
0.0000001
 43
0.0000001
 44
0.0000000001
 40
0.0
 40
0.0
 40
0.0
 40
0.0
 40
0.5413125256
 40
1.0
 40
1.0
 40
1.0
 40
1.0
 10
43.225605615
 20
102.5046014562
 30
0.0
 10
43.225605615
 20
102.4727017229
 30
0.0
 10
43.2190497051
 20
102.4132925198
 30
0.0
 10
43.1919182003
 20
102.3587395205
 30
0.0
 10
43.1742226715
 20
102.3383061613
 30
0.0
  0
SPLINE
  5
496
100
AcDbEntity
  8
0
100
AcDbSpline
 62
7
  6
CONTINUOUS
 70
0
 71
3
 72
9
 73
5
 74
0
 42
0.0000001
 43
0.0000001
 44
0.0000000001
 40
0.0
 40
0.0
 40
0.0
 40
0.0
 40
0.5239946799
 40
1.0
 40
1.0
 40
1.0
 40
1.0
 10
43.0893695044
 20
102.8771965022
 30
0.0
 10
43.1311553784
 20
102.8209050856
 30
0.0
 10
43.1959461799
 20
102.7019368159
 30
0.0
 10
43.225605615
 20
102.5682864478
 30
0.0
 10
43.225605615
 20
102.5046014562
 30
0.0
  0
SPLINE
  5
497
100
AcDbEntity
  8
0
100
AcDbSpline
 62
7
  6
CONTINUOUS
 70
0
 71
3
 72
9
 73
5
 74
0
 42
0.0000001
 43
0.0000001
 44
0.0000000001
 40
0.0
 40
0.0
 40
0.0
 40
0.0
 40
0.4755858471
 40
1.0
 40
1.0
 40
1.0
 40
1.0
 10
43.006241655
 20
103.1107141355
 30
0.0
 10
43.006241655
 20
103.0709803501
 30
0.0
 10
43.0242507165
 20
102.9874999215
 30
0.0
 10
43.0638374842
 20
102.9128015076
 30
0.0
 10
43.0893695044
 20
102.8771965022
 30
0.0
  0
SPLINE
  5
498
100
AcDbEntity
  8
0
100
AcDbSpline
 62
7
  6
CONTINUOUS
 70
0
 71
3
 72
9
 73
5
 74
0
 42
0.0000001
 43
0.0000001
 44
0.0000000001
 40
0.0
 40
0.0
 40
0.0
 40
0.0
 40
0.222494832
 40
1.0
 40
1.0
 40
1.0
 40
1.0
 10
43.0392997752
 20
103.2177031375
 30
0.0
 10
43.0337933017
 20
103.2113447092
 30
0.0
 10
43.0125429988
 20
103.17966929
 30
0.0
 10
43.006241655
 20
103.1401074946
 30
0.0
 10
43.006241655
 20
103.1107141355
 30
0.0
  0
SPLINE
  5
499
100
AcDbEntity
  8
0
100
AcDbSpline
 62
7
  6
CONTINUOUS
 70
0
 71
3
 72
9
 73
5
 74
0
 42
0.0000001
 43
0.0000001
 44
0.0000000001
 40
0.0
 40
0.0
 40
0.0
 40
0.0
 40
0.5413125256
 40
1.0
 40
1.0
 40
1.0
 40
1.0
 10
43.0906827187
 20
103.3839984325
 30
0.0
 10
43.0906827187
 20
103.3520986992
 30
0.0
 10
43.0841268088
 20
103.292689496
 30
0.0
 10
43.0569953041
 20
103.2381364968
 30
0.0
 10
43.0392997752
 20
103.2177031375
 30
0.0
  0
SPLINE
  5
49A
100
AcDbEntity
  8
0
100
AcDbSpline
 62
7
  6
CONTINUOUS
 70
0
 71
3
 72
9
 73
5
 74
0
 42
0.0000001
 43
0.0000001
 44
0.0000000001
 40
0.0
 40
0.0
 40
0.0
 40
0.0
 40
0.5239946799
 40
1.0
 40
1.0
 40
1.0
 40
1.0
 10
42.9544466082
 20
103.7565934783
 30
0.0
 10
42.9962324822
 20
103.7003020618
 30
0.0
 10
43.0610232836
 20
103.5813337921
 30
0.0
 10
43.0906827187
 20
103.4476834241
 30
0.0
 10
43.0906827187
 20
103.3839984325
 30
0.0
  0
SPLINE
  5
49B
100
AcDbEntity
  8
0
100
AcDbSpline
 62
7
  6
CONTINUOUS
 70
0
 71
3
 72
11
 73
7
 74
0
 42
0.0000001
 43
0.0000001
 44
0.0000000001
 40
0.0
 40
0.0
 40
0.0
 40
0.0
 40
0.2291769801
 40
0.4814125601
 40
0.743395572
 40
1.0
 40
1.0
 40
1.0
 40
1.0
 10
31.0078315435
 20
89.0131663384
 30
0.0
 10
31.0078315435
 20
88.8838889685
 30
0.0
 10
31.0442992573
 20
88.6120246015
 30
0.0
 10
31.1801750693
 20
88.2131534805
 30
0.0
 10
31.3892684861
 20
87.8296576784
 30
0.0
 10
31.5715559706
 20
87.5985270602
 30
0.0
 10
31.671727576
 20
87.4940381559
 30
0.0
  0
SPLINE
  5
49C
100
AcDbEntity
  8
0
100
AcDbSpline
 62
7
  6
CONTINUOUS
 70
0
 71
3
 72
15
 73
11
 74
0
 42
0.0000001
 43
0.0000001
 44
0.0000000001
 40
0.0
 40
0.0
 40
0.0
 40
0.0
 40
0.114147475
 40
0.2373368133
 40
0.3669776533
 40
0.5000010761
 40
0.6330243494
 40
0.7626647533
 40
0.8858534037
 40
1.0
 40
1.0
 40
1.0
 40
1.0
 10
31.0078353218
 20
70.1991677857
 30
0.0
 10
31.0078353218
 20
70.0286971228
 30
0.0
 10
31.03908192
 20
69.6739242286
 30
0.0
 10
31.1635337569
 20
69.1387185869
 30
0.0
 10
31.3629928189
 20
68.5966101229
 30
0.0
 10
31.6298551808
 20
68.0679692798
 30
0.0
 10
31.9542423591
 20
67.5725413309
 30
0.0
 10
32.3239936189
 20
67.1287538487
 30
0.0
 10
32.7252695633
 20
66.753377116
 30
0.0
 10
33.0168883904
 20
66.5489340171
 30
0.0
 10
33.1645200136
 20
66.4637007879
 30
0.0
  0
SPLINE
  5
49D
100
AcDbEntity
  8
0
100
AcDbSpline
 62
7
  6
CONTINUOUS
 70
0
 71
3
 72
10
 73
6
 74
0
 42
0.0000001
 43
0.0000001
 44
0.0000000001
 40
0.0
 40
0.0
 40
0.0
 40
0.0
 40
0.2808243745
 40
0.5409349472
 40
1.0
 40
1.0
 40
1.0
 40
1.0
 10
33.6886753497
 20
68.8555443861
 30
0.0
 10
33.6886753497
 20
68.8143249362
 30
0.0
 10
33.6838342067
 20
68.7347218006
 30
0.0
 10
33.6545816799
 20
68.5907914543
 30
0.0
 10
33.6073256913
 20
68.4923436285
 30
0.0
 10
33.5644569642
 20
68.4403574896
 30
0.0
  0
SPLINE
  5
49E
100
AcDbEntity
  8
0
100
AcDbSpline
 62
7
  6
CONTINUOUS
 70
0
 71
3
 72
9
 73
5
 74
0
 42
0.0000001
 43
0.0000001
 44
0.0000000001
 40
0.0
 40
0.0
 40
0.0
 40
0.0
 40
0.2551937273
 40
1.0
 40
1.0
 40
1.0
 40
1.0
 10
33.5644569642
 20
68.4403574896
 30
0.0
 10
33.5570654142
 20
68.4313938892
 30
0.0
 10
33.5266624206
 20
68.3974859266
 30
0.0
 10
33.4901950399
 20
68.3689738008
 30
0.0
 10
33.4608295965
 20
68.3520190373
 30
0.0
  0
SPLINE
  5
49F
100
AcDbEntity
  8
0
100
AcDbSpline
 62
7
  6
CONTINUOUS
 70
0
 71
3
 72
9
 73
5
 74
0
 42
0.0000001
 43
0.0000001
 44
0.0000000001
 40
0.0
 40
0.0
 40
0.0
 40
0.0
 40
0.4753214489
 40
1.0
 40
1.0
 40
1.0
 40
1.0
 10
44.2481770458
 20
60.5545820871
 30
0.0
 10
44.1669155414
 20
60.6014973772
 30
0.0
 10
43.981451333
 20
60.6754043186
 30
0.0
 10
43.7857156134
 20
60.7093642154
 30
0.0
 10
43.6824904433
 20
60.7178777091
 30
0.0
  0
SPLINE
  5
4A0
100
AcDbEntity
  8
0
100
AcDbSpline
 62
7
  6
CONTINUOUS
 70
0
 71
3
 72
11
 73
7
 74
0
 42
0.0000001
 43
0.0000001
 44
0.0000000001
 40
0.0
 40
0.0
 40
0.0
 40
0.0
 40
0.2340269746
 40
0.4734676762
 40
0.7270159771
 40
1.0
 40
1.0
 40
1.0
 40
1.0
 10
39.5240970192
 20
89.5067576254
 30
0.0
 10
39.5717585172
 20
89.3752117911
 30
0.0
 10
39.6308366835
 20
89.0937117573
 30
0.0
 10
39.5957084284
 20
88.6551697551
 30
0.0
 10
39.442289439
 20
88.2191357974
 30
0.0
 10
39.2743593604
 20
87.9500010706
 30
0.0
 10
39.1760915566
 20
87.8196968583
 30
0.0
  0
SPLINE
  5
4A1
100
AcDbEntity
  8
0
100
AcDbSpline
 62
7
  6
CONTINUOUS
 70
0
 71
3
 72
9
 73
5
 74
0
 42
0.0000001
 43
0.0000001
 44
0.0000000001
 40
0.0
 40
0.0
 40
0.0
 40
0.0
 40
0.2788440231
 40
1.0
 40
1.0
 40
1.0
 40
1.0
 10
67.1930246857
 20
66.495237307
 30
0.0
 10
67.1930246857
 20
66.5054187041
 30
0.0
 10
67.1950120394
 20
66.5417564259
 30
0.0
 10
67.2060431564
 20
66.5786589448
 30
0.0
 10
67.2211935507
 20
66.6001952468
 30
0.0
  0
SPLINE
  5
4A2
100
AcDbEntity
  8
0
100
AcDbSpline
 62
7
  6
CONTINUOUS
 70
0
 71
3
 72
9
 73
5
 74
0
 42
0.0000001
 43
0.0000001
 44
0.0000000001
 40
0.0
 40
0.0
 40
0.0
 40
0.0
 40
0.2586642903
 40
1.0
 40
1.0
 40
1.0
 40
1.0
 10
67.2211935507
 20
66.6001952468
 30
0.0
 10
67.224151121
 20
66.6043994362
 30
0.0
 10
67.2365800788
 20
66.6199257447
 30
0.0
 10
67.253506335
 20
66.63188042
 30
0.0
 10
67.2671379245
 20
66.6374674325
 30
0.0
  0
SPLINE
  5
4A3
100
AcDbEntity
  8
0
100
AcDbSpline
 62
7
  6
CONTINUOUS
 70
0
 71
3
 72
9
 73
5
 74
0
 42
0.0000001
 43
0.0000001
 44
0.0000000001
 40
0.0
 40
0.0
 40
0.0
 40
0.0
 40
0.2822435316
 40
1.0
 40
1.0
 40
1.0
 40
1.0
 10
67.8167178476
 20
44.8935461695
 30
0.0
 10
67.8167178476
 20
44.9048395909
 30
0.0
 10
67.8190865995
 20
44.9445949262
 30
0.0
 10
67.8329963093
 20
44.9852320303
 30
0.0
 10
67.8516399443
 20
45.0070776547
 30
0.0
  0
SPLINE
  5
4A4
100
AcDbEntity
  8
0
100
AcDbSpline
 62
7
  6
CONTINUOUS
 70
0
 71
3
 72
9
 73
5
 74
0
 42
0.0000001
 43
0.0000001
 44
0.0000000001
 40
0.0
 40
0.0
 40
0.0
 40
0.0
 40
0.2551333687
 40
1.0
 40
1.0
 40
1.0
 40
1.0
 10
67.8516399443
 20
45.0070776547
 30
0.0
 10
67.8543440756
 20
45.0102462127
 30
0.0
 10
67.8656046292
 20
45.0220849306
 30
0.0
 10
67.8796984695
 20
45.0312297788
 30
0.0
 10
67.8909295315
 20
45.0358951078
 30
0.0
  0
SPLINE
  5
4A5
100
AcDbEntity
  8
0
100
AcDbSpline
 62
7
  6
CONTINUOUS
 70
0
 71
3
 72
9
 73
5
 74
0
 42
0.0000001
 43
0.0000001
 44
0.0000000001
 40
0.0
 40
0.0
 40
0.0
 40
0.0
 40
0.2794284361
 40
1.0
 40
1.0
 40
1.0
 40
1.0
 10
73.132746377
 20
47.9607202522
 30
0.0
 10
73.132746377
 20
47.971072991
 30
0.0
 10
73.1347900837
 20
48.0079357273
 30
0.0
 10
73.1462184037
 20
48.0454111893
 30
0.0
 10
73.1618809454
 20
48.0670309108
 30
0.0
  0
SPLINE
  5
4A6
100
AcDbEntity
  8
0
100
AcDbSpline
 62
7
  6
CONTINUOUS
 70
0
 71
3
 72
9
 73
5
 74
0
 42
0.0000001
 43
0.0000001
 44
0.0000000001
 40
0.0
 40
0.0
 40
0.0
 40
0.0
 40
0.2581179524
 40
1.0
 40
1.0
 40
1.0
 40
1.0
 10
73.1618809454
 20
48.0670309108
 30
0.0
 10
73.1648077723
 20
48.0710709436
 30
0.0
 10
73.1770887449
 20
48.086015223
 30
0.0
 10
73.1935919385
 20
48.0975125174
 30
0.0
 10
73.2068596157
 20
48.1029503776
 30
0.0
  0
SPLINE
  5
4A7
100
AcDbEntity
  8
0
100
AcDbSpline
 62
7
  6
CONTINUOUS
 70
0
 71
3
 72
11
 73
7
 74
0
 42
0.0000001
 43
0.0000001
 44
0.0000000001
 40
0.0
 40
0.0
 40
0.0
 40
0.0
 40
0.2177827477
 40
0.4509152641
 40
0.7103063952
 40
1.0
 40
1.0
 40
1.0
 40
1.0
 10
60.7019166578
 20
64.7529873466
 30
0.0
 10
60.7019304488
 20
64.853920967
 30
0.0
 10
60.7392083811
 20
65.0643009936
 30
0.0
 10
60.8987057266
 20
65.3574293153
 30
0.0
 10
61.1508333438
 20
65.6223954204
 30
0.0
 10
61.3617897134
 20
65.7676949585
 30
0.0
 10
61.4780637018
 20
65.8348253763
 30
0.0
  0
SPLINE
  5
4A8
100
AcDbEntity
  8
0
100
AcDbSpline
 62
7
  6
CONTINUOUS
 70
0
 71
3
 72
11
 73
7
 74
0
 42
0.0000001
 43
0.0000001
 44
0.0000000001
 40
0.0
 40
0.0
 40
0.0
 40
0.0
 40
0.2895411595
 40
0.5491183966
 40
0.7822559144
 40
1.0
 40
1.0
 40
1.0
 40
1.0
 10
47.8662215117
 20
60.7111309982
 30
0.0
 10
47.8662215117
 20
60.680747687
 30
0.0
 10
47.8708607366
 20
60.6229335756
 30
0.0
 10
47.8942326015
 20
60.5434868777
 30
0.0
 10
47.9336565402
 20
60.4789981955
 30
0.0
 10
47.9707175812
 20
60.4479127915
 30
0.0
 10
47.9905056896
 20
60.4364883838
 30
0.0
  0
SPLINE
  5
4A9
100
AcDbEntity
  8
0
100
AcDbSpline
 62
7
  6
CONTINUOUS
 70
0
 71
3
 72
11
 73
7
 74
0
 42
0.0000001
 43
0.0000001
 44
0.0000000001
 40
0.0
 40
0.0
 40
0.0
 40
0.0
 40
0.2177827477
 40
0.4509152641
 40
0.7103063952
 40
1.0
 40
1.0
 40
1.0
 40
1.0
 10
66.0051954369
 20
67.8148185006
 30
0.0
 10
66.0052092279
 20
67.915752121
 30
0.0
 10
66.0424871602
 20
68.1261321476
 30
0.0
 10
66.2019845057
 20
68.4192604693
 30
0.0
 10
66.4541121229
 20
68.6842265744
 30
0.0
 10
66.6650684925
 20
68.8295261125
 30
0.0
 10
66.7813424809
 20
68.8966565304
 30
0.0
  0
SPLINE
  5
4AA
100
AcDbEntity
  8
0
100
AcDbSpline
 62
7
  6
CONTINUOUS
 70
0
 71
3
 72
11
 73
7
 74
0
 42
0.0000001
 43
0.0000001
 44
0.0000000001
 40
0.0
 40
0.0
 40
0.0
 40
0.0
 40
0.23721727
 40
0.499998382
 40
0.7627803746
 40
1.0
 40
1.0
 40
1.0
 40
1.0
 10
68.9734494569
 20
43.2587117642
 30
0.0
 10
68.953373498
 20
43.2471209731
 30
0.0
 10
68.9153782286
 20
43.2151444606
 30
0.0
 10
68.8710316743
 20
43.1545437578
 30
0.0
 10
68.8407234689
 20
43.0858377939
 30
0.0
 10
68.8320286895
 20
43.0369443662
 30
0.0
 10
68.8320286895
 20
43.01376245
 30
0.0
  0
SPLINE
  5
4AB
100
AcDbEntity
  8
0
100
AcDbSpline
 62
7
  6
CONTINUOUS
 70
0
 71
3
 72
11
 73
7
 74
0
 42
0.0000001
 43
0.0000001
 44
0.0000000001
 40
0.0
 40
0.0
 40
0.0
 40
0.0
 40
0.2372193634
 40
0.5000010919
 40
0.762782226
 40
1.0
 40
1.0
 40
1.0
 40
1.0
 10
69.114871402
 20
43.0137631299
 30
0.0
 10
69.114871402
 20
43.0369450336
 30
0.0
 10
69.106176551
 20
43.0858384395
 30
0.0
 10
69.0758680726
 20
43.1545442869
 30
0.0
 10
69.0315211204
 20
43.2151447961
 30
0.0
 10
68.9935255535
 20
43.2471210866
 30
0.0
 10
68.9734494569
 20
43.2587117642
 30
0.0
  0
SPLINE
  5
4AC
100
AcDbEntity
  8
0
100
AcDbSpline
 62
7
  6
CONTINUOUS
 70
0
 71
3
 72
11
 73
7
 74
0
 42
0.0000001
 43
0.0000001
 44
0.0000000001
 40
0.0
 40
0.0
 40
0.0
 40
0.0
 40
0.2372185796
 40
0.5000005262
 40
0.7627821863
 40
1.0
 40
1.0
 40
1.0
 40
1.0
 10
68.8320286895
 20
43.01376245
 30
0.0
 10
68.8521048192
 20
43.0021717533
 30
0.0
 10
68.8987951622
 20
42.985255463
 30
0.0
 10
68.9734502681
 20
42.9771506867
 30
0.0
 10
69.0481052613
 20
42.9852558037
 30
0.0
 10
69.0947954207
 20
43.0021723259
 30
0.0
 10
69.114871402
 20
43.0137631299
 30
0.0
  0
SPLINE
  5
4AD
100
AcDbEntity
  8
0
100
AcDbSpline
 62
7
  6
CONTINUOUS
 70
0
 71
3
 72
11
 73
7
 74
0
 42
0.0000001
 43
0.0000001
 44
0.0000000001
 40
0.0
 40
0.0
 40
0.0
 40
0.0
 40
0.23721727
 40
0.499998382
 40
0.7627803746
 40
1.0
 40
1.0
 40
1.0
 40
1.0
 10
63.0337277657
 20
61.7932288191
 30
0.0
 10
63.0136518068
 20
61.781638028
 30
0.0
 10
62.9756565374
 20
61.7496615154
 30
0.0
 10
62.931309983
 20
61.6890608127
 30
0.0
 10
62.9010017777
 20
61.6203548488
 30
0.0
 10
62.8923069983
 20
61.571461421
 30
0.0
 10
62.8923069983
 20
61.5482795049
 30
0.0
  0
SPLINE
  5
4AE
100
AcDbEntity
  8
0
100
AcDbSpline
 62
7
  6
CONTINUOUS
 70
0
 71
3
 72
11
 73
7
 74
0
 42
0.0000001
 43
0.0000001
 44
0.0000000001
 40
0.0
 40
0.0
 40
0.0
 40
0.0
 40
0.2372193634
 40
0.5000010919
 40
0.762782226
 40
1.0
 40
1.0
 40
1.0
 40
1.0
 10
63.1751497107
 20
61.5482801847
 30
0.0
 10
63.1751497107
 20
61.5714620885
 30
0.0
 10
63.1664548598
 20
61.6203554943
 30
0.0
 10
63.1361463813
 20
61.6890613417
 30
0.0
 10
63.0917994292
 20
61.749661851
 30
0.0
 10
63.0538038623
 20
61.7816381415
 30
0.0
 10
63.0337277657
 20
61.7932288191
 30
0.0
  0
SPLINE
  5
4AF
100
AcDbEntity
  8
0
100
AcDbSpline
 62
7
  6
CONTINUOUS
 70
0
 71
3
 72
11
 73
7
 74
0
 42
0.0000001
 43
0.0000001
 44
0.0000000001
 40
0.0
 40
0.0
 40
0.0
 40
0.0
 40
0.2372185796
 40
0.5000005262
 40
0.7627821863
 40
1.0
 40
1.0
 40
1.0
 40
1.0
 10
62.8923069983
 20
61.5482795049
 30
0.0
 10
62.9123831279
 20
61.5366888082
 30
0.0
 10
62.959073471
 20
61.5197725179
 30
0.0
 10
63.0337285769
 20
61.5116677415
 30
0.0
 10
63.1083835701
 20
61.5197728585
 30
0.0
 10
63.1550737295
 20
61.5366893807
 30
0.0
 10
63.1751497107
 20
61.5482801847
 30
0.0
  0
SPLINE
  5
4B0
100
AcDbEntity
  8
0
100
AcDbSpline
 62
7
  6
CONTINUOUS
 70
0
 71
3
 72
18
 73
14
 74
0
 42
0.0000001
 43
0.0000001
 44
0.0000000001
 40
0.0
 40
0.0
 40
0.0
 40
0.0
 40
0.1286585538
 40
0.2702079607
 40
0.4173278027
 40
0.5616316029
 40
0.6952660325
 40
0.7562716512
 40
0.8127630549
 40
0.864711743
 40
0.9125345558
 40
0.9571501792
 40
1.0
 40
1.0
 40
1.0
 40
1.0
 10
66.7813424809
 20
68.8966565304
 30
0.0
 10
66.9775107941
 20
69.0099136827
 30
0.0
 10
67.4216610647
 20
69.1931729305
 30
0.0
 10
68.1455076616
 20
69.3379819588
 30
0.0
 10
68.9112437474
 20
69.3591472562
 30
0.0
 10
69.6557069849
 20
69.2546059729
 30
0.0
 10
70.2262328433
 20
69.0640457652
 30
0.0
 10
70.615609647
 20
68.8523917755
 30
0.0
 10
70.8573181695
 20
68.6757591973
 30
0.0
 10
71.0523525677
 20
68.4798685559
 30
0.0
 10
71.1963170231
 20
68.2682158683
 30
0.0
 10
71.2849478497
 20
68.0448977816
 30
0.0
 10
71.3051813762
 20
67.8902596448
 30
0.0
 10
71.3051710683
 20
67.8148185611
 30
0.0
  0
SPLINE
  5
4B1
100
AcDbEntity
  8
0
100
AcDbSpline
 62
7
  6
CONTINUOUS
 70
0
 71
3
 72
18
 73
14
 74
0
 42
0.0000001
 43
0.0000001
 44
0.0000000001
 40
0.0
 40
0.0
 40
0.0
 40
0.0
 40
0.1286585538
 40
0.2702079607
 40
0.4173278027
 40
0.5616316029
 40
0.6952660325
 40
0.7562716512
 40
0.8127630549
 40
0.864711743
 40
0.9125345558
 40
0.9571501792
 40
1.0
 40
1.0
 40
1.0
 40
1.0
 10
61.4780637018
 20
65.8348253763
 30
0.0
 10
61.674232015
 20
65.9480825286
 30
0.0
 10
62.1183822856
 20
66.1313417765
 30
0.0
 10
62.8422288825
 20
66.2761508048
 30
0.0
 10
63.6079649683
 20
66.2973161022
 30
0.0
 10
64.3524282058
 20
66.1927748188
 30
0.0
 10
64.9229540642
 20
66.0022146112
 30
0.0
 10
65.3123308679
 20
65.7905606215
 30
0.0
 10
65.5540393904
 20
65.6139280433
 30
0.0
 10
65.7490737886
 20
65.4180374019
 30
0.0
 10
65.893038244
 20
65.2063847143
 30
0.0
 10
65.9816690706
 20
64.9830666276
 30
0.0
 10
66.0019025971
 20
64.8284284907
 30
0.0
 10
66.0018922892
 20
64.7529874071
 30
0.0
  0
SPLINE
  5
4B2
100
AcDbEntity
  8
0
100
AcDbSpline
 62
7
  6
CONTINUOUS
 70
0
 71
3
 72
9
 73
5
 74
0
 42
0.0000001
 43
0.0000001
 44
0.0000000001
 40
0.0
 40
0.0
 40
0.0
 40
0.0
 40
0.2364409047
 40
1.0
 40
1.0
 40
1.0
 40
1.0
 10
73.7817060914
 20
67.9985399579
 30
0.0
 10
73.7856503486
 20
67.9962627914
 30
0.0
 10
73.8019723554
 20
67.9860121206
 30
0.0
 10
73.8168853073
 20
67.9735966054
 30
0.0
 10
73.8274392118
 20
67.9633526346
 30
0.0
  0
SPLINE
  5
4B3
100
AcDbEntity
  8
0
100
AcDbSpline
 62
7
  6
CONTINUOUS
 70
0
 71
3
 72
9
 73
5
 74
0
 42
0.0000001
 43
0.0000001
 44
0.0000000001
 40
0.0
 40
0.0
 40
0.0
 40
0.0
 40
0.2430466145
 40
1.0
 40
1.0
 40
1.0
 40
1.0
 10
73.8274392118
 20
67.9633526346
 30
0.0
 10
73.8326148291
 20
67.9583290082
 30
0.0
 10
73.8531013087
 20
67.9368361608
 30
0.0
 10
73.870474625
 20
67.912430476
 30
0.0
 10
73.8817065077
 20
67.8929763925
 30
0.0
  0
SPLINE
  5
4B4
100
AcDbEntity
  8
0
100
AcDbSpline
 62
7
  6
CONTINUOUS
 70
0
 71
3
 72
9
 73
5
 74
0
 42
0.0000001
 43
0.0000001
 44
0.0000000001
 40
0.0
 40
0.0
 40
0.0
 40
0.0
 40
0.2555022621
 40
1.0
 40
1.0
 40
1.0
 40
1.0
 10
73.8817065077
 20
67.8929763925
 30
0.0
 10
73.8854974891
 20
67.8864102565
 30
0.0
 10
73.899474909
 20
67.8602324959
 30
0.0
 10
73.9101217909
 20
67.8322130673
 30
0.0
 10
73.9155212427
 20
67.8107903551
 30
0.0
  0
SPLINE
  5
4B5
100
AcDbEntity
  8
0
100
AcDbSpline
 62
7
  6
CONTINUOUS
 70
0
 71
3
 72
9
 73
5
 74
0
 42
0.0000001
 43
0.0000001
 44
0.0000000001
 40
0.0
 40
0.0
 40
0.0
 40
0.0
 40
0.2629546114
 40
1.0
 40
1.0
 40
1.0
 40
1.0
 10
73.9155212427
 20
67.8107903551
 30
0.0
 10
73.9167590228
 20
67.8058793737
 30
0.0
 10
73.920956589
 20
67.7870852676
 30
0.0
 10
73.9231280364
 20
67.7677869889
 30
0.0
 10
73.9231280364
 20
67.7535913236
 30
0.0
  0
SPLINE
  5
4B6
100
AcDbEntity
  8
0
100
AcDbSpline
 62
7
  6
CONTINUOUS
 70
0
 71
3
 72
9
 73
5
 74
0
 42
0.0000001
 43
0.0000001
 44
0.0000000001
 40
0.0
 40
0.0
 40
0.0
 40
0.0
 40
0.2364409047
 40
1.0
 40
1.0
 40
1.0
 40
1.0
 10
79.7214277826
 20
49.464022903
 30
0.0
 10
79.7253720399
 20
49.4617457366
 30
0.0
 10
79.7416940466
 20
49.4514950657
 30
0.0
 10
79.7566069985
 20
49.4390795505
 30
0.0
 10
79.767160903
 20
49.4288355797
 30
0.0
  0
SPLINE
  5
4B7
100
AcDbEntity
  8
0
100
AcDbSpline
 62
7
  6
CONTINUOUS
 70
0
 71
3
 72
9
 73
5
 74
0
 42
0.0000001
 43
0.0000001
 44
0.0000000001
 40
0.0
 40
0.0
 40
0.0
 40
0.0
 40
0.2430466145
 40
1.0
 40
1.0
 40
1.0
 40
1.0
 10
79.767160903
 20
49.4288355797
 30
0.0
 10
79.7723365203
 20
49.4238119533
 30
0.0
 10
79.7928229999
 20
49.4023191059
 30
0.0
 10
79.8101963162
 20
49.3779134212
 30
0.0
 10
79.8214281989
 20
49.3584593376
 30
0.0
  0
SPLINE
  5
4B8
100
AcDbEntity
  8
0
100
AcDbSpline
 62
7
  6
CONTINUOUS
 70
0
 71
3
 72
9
 73
5
 74
0
 42
0.0000001
 43
0.0000001
 44
0.0000000001
 40
0.0
 40
0.0
 40
0.0
 40
0.0
 40
0.2555022621
 40
1.0
 40
1.0
 40
1.0
 40
1.0
 10
79.8214281989
 20
49.3584593376
 30
0.0
 10
79.8252191804
 20
49.3518932017
 30
0.0
 10
79.8391966003
 20
49.325715441
 30
0.0
 10
79.8498434822
 20
49.2976960124
 30
0.0
 10
79.8552429339
 20
49.2762733002
 30
0.0
  0
SPLINE
  5
4B9
100
AcDbEntity
  8
0
100
AcDbSpline
 62
7
  6
CONTINUOUS
 70
0
 71
3
 72
9
 73
5
 74
0
 42
0.0000001
 43
0.0000001
 44
0.0000000001
 40
0.0
 40
0.0
 40
0.0
 40
0.0
 40
0.2629546114
 40
1.0
 40
1.0
 40
1.0
 40
1.0
 10
79.8552429339
 20
49.2762733002
 30
0.0
 10
79.856480714
 20
49.2713623189
 30
0.0
 10
79.8606782802
 20
49.2525682127
 30
0.0
 10
79.8628497276
 20
49.233269934
 30
0.0
 10
79.8628497276
 20
49.2190742687
 30
0.0
  0
SPLINE
  5
4BA
100
AcDbEntity
  8
0
100
AcDbSpline
 62
7
  6
CONTINUOUS
 70
0
 71
3
 72
11
 73
7
 74
0
 42
0.0000001
 43
0.0000001
 44
0.0000000001
 40
0.0
 40
0.0
 40
0.0
 40
0.0
 40
0.2895599869
 40
0.5489686823
 40
0.7820948463
 40
1.0
 40
1.0
 40
1.0
 40
1.0
 10
76.9637119248
 20
34.6140028066
 30
0.0
 10
76.9637119248
 20
34.634259897
 30
0.0
 10
76.9667990176
 20
34.6727931433
 30
0.0
 10
76.9823760771
 20
34.7257472152
 30
0.0
 10
77.0086551551
 20
34.7687418104
 30
0.0
 10
77.0333674094
 20
34.7894731804
 30
0.0
 10
77.0465633873
 20
34.7971055639
 30
0.0
  0
SPLINE
  5
4BB
100
AcDbEntity
  8
0
100
AcDbSpline
 62
7
  6
CONTINUOUS
 70
0
 71
3
 72
11
 73
7
 74
0
 42
0.0000001
 43
0.0000001
 44
0.0000000001
 40
0.0
 40
0.0
 40
0.0
 40
0.0
 40
0.2177827477
 40
0.4509152641
 40
0.7103063952
 40
1.0
 40
1.0
 40
1.0
 40
1.0
 10
19.4067087092
 20
77.5714647793
 30
0.0
 10
19.4067225003
 20
77.6723983997
 30
0.0
 10
19.4440004325
 20
77.8827784263
 30
0.0
 10
19.603497778
 20
78.175906748
 30
0.0
 10
19.8556253952
 20
78.4408728531
 30
0.0
 10
20.0665817648
 20
78.5861723912
 30
0.0
 10
20.1828557533
 20
78.6533028091
 30
0.0
  0
SPLINE
  5
4BC
100
AcDbEntity
  8
0
100
AcDbSpline
 62
7
  6
CONTINUOUS
 70
0
 71
3
 72
18
 73
14
 74
0
 42
0.0000001
 43
0.0000001
 44
0.0000000001
 40
0.0
 40
0.0
 40
0.0
 40
0.0
 40
0.0428471062
 40
0.0874607367
 40
0.1352819149
 40
0.1872298257
 40
0.243719446
 40
0.3047237535
 40
0.4383540717
 40
0.5826581257
 40
0.7297840182
 40
0.871340059
 40
1.0
 40
1.0
 40
1.0
 40
1.0
 10
71.9449139769
 20
49.2803014811
 30
0.0
 10
71.944908273
 20
49.355737545
 30
0.0
 10
71.9651294302
 20
49.5103678234
 30
0.0
 10
72.0537636069
 20
49.7336721232
 30
0.0
 10
72.1977065751
 20
49.9453282309
 30
0.0
 10
72.3927404114
 20
50.1412087246
 30
0.0
 10
72.6344311667
 20
50.3178511986
 30
0.0
 10
73.0237971935
 20
50.5294972945
 30
0.0
 10
73.5943048199
 20
50.7200721405
 30
0.0
 10
74.3387689418
 20
50.8246253034
 30
0.0
 10
75.1045257344
 20
50.8034728971
 30
0.0
 10
75.8283960769
 20
50.6586655439
 30
0.0
 10
76.272559494
 20
50.4754050809
 30
0.0
 10
76.4687301124
 20
50.3621484838
 30
0.0
  0
SPLINE
  5
4BD
100
AcDbEntity
  8
0
100
AcDbSpline
 62
7
  6
CONTINUOUS
 70
0
 71
3
 72
11
 73
7
 74
0
 42
0.0000001
 43
0.0000001
 44
0.0000000001
 40
0.0
 40
0.0
 40
0.0
 40
0.0
 40
0.2370468277
 40
0.4999997823
 40
0.7629536405
 40
1.0
 40
1.0
 40
1.0
 40
1.0
 10
76.9637119248
 20
34.5220237917
 30
0.0
 10
76.9637119248
 20
34.5104421525
 30
0.0
 10
76.9593188522
 20
34.4860097087
 30
0.0
 10
76.9442417546
 20
34.4516152712
 30
0.0
 10
76.9219940172
 20
34.4213608312
 30
0.0
 10
76.90303153
 20
34.4053399168
 30
0.0
 10
76.8930015411
 20
34.3995491346
 30
0.0
  0
SPLINE
  5
4BE
100
AcDbEntity
  8
0
100
AcDbSpline
 62
7
  6
CONTINUOUS
 70
0
 71
3
 72
18
 73
14
 74
0
 42
0.0000001
 43
0.0000001
 44
0.0000000001
 40
0.0
 40
0.0
 40
0.0
 40
0.0
 40
0.0428471062
 40
0.0874607367
 40
0.1352819149
 40
0.1872298257
 40
0.243719446
 40
0.3047237535
 40
0.4383540717
 40
0.5826581257
 40
0.7297840182
 40
0.871340059
 40
1.0
 40
1.0
 40
1.0
 40
1.0
 10
66.6416351978
 20
46.2184703271
 30
0.0
 10
66.6416294939
 20
46.293906391
 30
0.0
 10
66.661850651
 20
46.4485366694
 30
0.0
 10
66.7504848278
 20
46.6718409692
 30
0.0
 10
66.894427796
 20
46.8834970769
 30
0.0
 10
67.0894616323
 20
47.0793775705
 30
0.0
 10
67.3311523876
 20
47.2560200446
 30
0.0
 10
67.7205184144
 20
47.4676661405
 30
0.0
 10
68.2910260408
 20
47.6582409865
 30
0.0
 10
69.0354901627
 20
47.7627941493
 30
0.0
 10
69.8012469553
 20
47.7416417431
 30
0.0
 10
70.5251172978
 20
47.5968343899
 30
0.0
 10
70.9692807149
 20
47.4135739269
 30
0.0
 10
71.1654513333
 20
47.3003173297
 30
0.0
  0
SPLINE
  5
4BF
100
AcDbEntity
  8
0
100
AcDbSpline
 62
7
  6
CONTINUOUS
 70
0
 71
3
 72
11
 73
7
 74
0
 42
0.0000001
 43
0.0000001
 44
0.0000000001
 40
0.0
 40
0.0
 40
0.0
 40
0.0
 40
0.2897036169
 40
0.5490920547
 40
0.7822205729
 40
1.0
 40
1.0
 40
1.0
 40
1.0
 10
71.1654513333
 20
47.3003173297
 30
0.0
 10
71.2817314218
 20
47.2331845081
 30
0.0
 10
71.4926940788
 20
47.0878824427
 30
0.0
 10
71.7448289797
 20
46.8229121579
 30
0.0
 10
71.9043181351
 20
46.5297823824
 30
0.0
 10
71.9416094999
 20
46.3194037855
 30
0.0
 10
71.9416171317
 20
46.2184703169
 30
0.0
  0
SPLINE
  5
4C0
100
AcDbEntity
  8
0
100
AcDbSpline
 62
7
  6
CONTINUOUS
 70
0
 71
3
 72
11
 73
7
 74
0
 42
0.0000001
 43
0.0000001
 44
0.0000000001
 40
0.0
 40
0.0
 40
0.0
 40
0.0
 40
0.2897036169
 40
0.5490920547
 40
0.7822205729
 40
1.0
 40
1.0
 40
1.0
 40
1.0
 10
76.4687301124
 20
50.3621484838
 30
0.0
 10
76.5850102009
 20
50.2950156621
 30
0.0
 10
76.7959728579
 20
50.1497135967
 30
0.0
 10
77.0481077588
 20
49.884743312
 30
0.0
 10
77.2075969142
 20
49.5916135364
 30
0.0
 10
77.244888279
 20
49.3812349395
 30
0.0
 10
77.2448959108
 20
49.2803014709
 30
0.0
  0
SPLINE
  5
4C1
100
AcDbEntity
  8
0
100
AcDbSpline
 62
7
  6
CONTINUOUS
 70
0
 71
3
 72
11
 73
7
 74
0
 42
0.0000001
 43
0.0000001
 44
0.0000000001
 40
0.0
 40
0.0
 40
0.0
 40
0.0
 40
0.2370468277
 40
0.4999997823
 40
0.7629536405
 40
1.0
 40
1.0
 40
1.0
 40
1.0
 10
71.6604331457
 20
31.4601926377
 30
0.0
 10
71.6604331457
 20
31.4486109985
 30
0.0
 10
71.6560400731
 20
31.4241785547
 30
0.0
 10
71.6409629755
 20
31.3897841171
 30
0.0
 10
71.6187152381
 20
31.3595296772
 30
0.0
 10
71.5997527509
 20
31.3435087628
 30
0.0
 10
71.589722762
 20
31.3377179806
 30
0.0
  0
SPLINE
  5
4C2
100
AcDbEntity
  8
0
100
AcDbSpline
 62
7
  6
CONTINUOUS
 70
0
 71
3
 72
11
 73
7
 74
0
 42
0.0000001
 43
0.0000001
 44
0.0000000001
 40
0.0
 40
0.0
 40
0.0
 40
0.0
 40
0.2895599869
 40
0.5489686823
 40
0.7820948463
 40
1.0
 40
1.0
 40
1.0
 40
1.0
 10
65.7207114544
 20
50.0866887075
 30
0.0
 10
65.7207114544
 20
50.1069457978
 30
0.0
 10
65.7237985473
 20
50.1454790442
 30
0.0
 10
65.7393756067
 20
50.198433116
 30
0.0
 10
65.7656546847
 20
50.2414277112
 30
0.0
 10
65.7903669391
 20
50.2621590812
 30
0.0
 10
65.803562917
 20
50.2697914647
 30
0.0
  0
SPLINE
  5
4C3
100
AcDbEntity
  8
0
100
AcDbSpline
 62
7
  6
CONTINUOUS
 70
0
 71
3
 72
10
 73
6
 74
0
 42
0.0000001
 43
0.0000001
 44
0.0000000001
 40
0.0
 40
0.0
 40
0.0
 40
0.0
 40
0.2183506757
 40
0.4525849643
 40
1.0
 40
1.0
 40
1.0
 40
1.0
 10
21.3800281967
 20
87.0757343641
 30
0.0
 10
21.3866217626
 20
87.0795430068
 30
0.0
 10
21.4017941748
 20
87.0850645382
 30
0.0
 10
21.4371022668
 20
87.0858510648
 30
0.0
 10
21.4635033818
 20
87.075360291
 30
0.0
 10
21.4800358476
 20
87.0658154833
 30
0.0
  0
SPLINE
  5
4C4
100
AcDbEntity
  8
0
100
AcDbSpline
 62
7
  6
CONTINUOUS
 70
0
 71
3
 72
10
 73
6
 74
0
 42
0.0000001
 43
0.0000001
 44
0.0000000001
 40
0.0
 40
0.0
 40
0.0
 40
0.0
 40
0.2251552359
 40
0.4628319183
 40
1.0
 40
1.0
 40
1.0
 40
1.0
 10
10.6063769731
 20
80.775823508
 30
0.0
 10
10.6044272839
 20
80.7657082146
 30
0.0
 10
10.6040100797
 20
80.744070192
 30
0.0
 10
10.617721892
 20
80.6998086161
 30
0.0
 10
10.6422332035
 20
80.6718288187
 30
0.0
 10
10.6613471382
 20
80.6563794456
 30
0.0
  0
SPLINE
  5
4C5
100
AcDbEntity
  8
0
100
AcDbSpline
 62
7
  6
CONTINUOUS
 70
0
 71
3
 72
11
 73
7
 74
0
 42
0.0000001
 43
0.0000001
 44
0.0000000001
 40
0.0
 40
0.0
 40
0.0
 40
0.0
 40
0.2370468277
 40
0.4999997823
 40
0.7629536405
 40
1.0
 40
1.0
 40
1.0
 40
1.0
 10
65.7207114544
 20
49.9947096925
 30
0.0
 10
65.7207114544
 20
49.9831280533
 30
0.0
 10
65.7163183818
 20
49.9586956096
 30
0.0
 10
65.7012412843
 20
49.924301172
 30
0.0
 10
65.6789935469
 20
49.894046732
 30
0.0
 10
65.6600310596
 20
49.8780258177
 30
0.0
 10
65.6500010707
 20
49.8722350354
 30
0.0
  0
SPLINE
  5
4C6
100
AcDbEntity
  8
0
100
AcDbSpline
 62
7
  6
CONTINUOUS
 70
0
 71
3
 72
11
 73
7
 74
0
 42
0.0000001
 43
0.0000001
 44
0.0000000001
 40
0.0
 40
0.0
 40
0.0
 40
0.0
 40
0.2979108509
 40
0.5634593267
 40
0.7951395859
 40
1.0
 40
1.0
 40
1.0
 40
1.0
 10
30.9901348667
 20
93.0801997087
 30
0.0
 10
30.8888536429
 20
93.1121039758
 30
0.0
 10
30.7014111122
 20
93.1875319053
 30
0.0
 10
30.4622250517
 20
93.3437451793
 30
0.0
 10
30.2913046355
 20
93.5311494209
 30
0.0
 10
30.2297001488
 20
93.678949143
 30
0.0
 10
30.2167610884
 20
93.7508141143
 30
0.0
  0
SPLINE
  5
4C7
100
AcDbEntity
  8
0
100
AcDbSpline
 62
7
  6
CONTINUOUS
 70
0
 71
3
 72
15
 73
11
 74
0
 42
0.0000001
 43
0.0000001
 44
0.0000000001
 40
0.0
 40
0.0
 40
0.0
 40
0.0
 40
0.1201848946
 40
0.2513100772
 40
0.3889205561
 40
0.5277855701
 40
0.6624982589
 40
0.7881715277
 40
0.9011610036
 40
1.0
 40
1.0
 40
1.0
 40
1.0
 10
20.1828557533
 20
78.6533028091
 30
0.0
 10
20.3432171267
 20
78.7458869385
 30
0.0
 10
20.7001310417
 20
78.902927303
 30
0.0
 10
21.2831754627
 20
79.0502069293
 30
0.0
 10
21.9101002668
 20
79.1138413552
 30
0.0
 10
22.5452020359
 20
79.0901907514
 30
0.0
 10
23.1527171379
 20
78.9806235681
 30
0.0
 10
23.6987999873
 20
78.7909484839
 30
0.0
 10
24.153213929
 20
78.5315877146
 30
0.0
 10
24.3943138898
 20
78.3041600717
 30
0.0
 10
24.4860437173
 20
78.1826065007
 30
0.0
  0
SPLINE
  5
4C8
100
AcDbEntity
  8
0
100
AcDbSpline
 62
7
  6
CONTINUOUS
 70
0
 71
3
 72
11
 73
7
 74
0
 42
0.0000001
 43
0.0000001
 44
0.0000000001
 40
0.0
 40
0.0
 40
0.0
 40
0.0
 40
0.2372196254
 40
0.500001618
 40
0.76278273
 40
1.0
 40
1.0
 40
1.0
 40
1.0
 10
24.5669510634
 20
92.411478
 30
0.0
 10
24.5669510634
 20
92.4694327905
 30
0.0
 10
24.588688012
 20
92.5916663598
 30
0.0
 10
24.6644585253
 20
92.7634312696
 30
0.0
 10
24.7753249112
 20
92.9149330264
 30
0.0
 10
24.8703130846
 20
92.9948743078
 30
0.0
 10
24.920502982
 20
93.0238512855
 30
0.0
  0
SPLINE
  5
4C9
100
AcDbEntity
  8
0
100
AcDbSpline
 62
7
  6
CONTINUOUS
 70
0
 71
3
 72
11
 73
7
 74
0
 42
0.0000001
 43
0.0000001
 44
0.0000000001
 40
0.0
 40
0.0
 40
0.0
 40
0.0
 40
0.2396859864
 40
0.5048842232
 40
0.767386887
 40
1.0
 40
1.0
 40
1.0
 40
1.0
 10
30.789524299
 20
71.8357318453
 30
0.0
 10
30.7693227354
 20
71.8240685367
 30
0.0
 10
30.7227163404
 20
71.8064864012
 30
0.0
 10
30.6483360056
 20
71.7957793538
 30
0.0
 10
30.5740028951
 20
71.7999839512
 30
0.0
 10
30.5270008542
 20
71.813570605
 30
0.0
 10
30.5066815865
 20
71.8235517573
 30
0.0
  0
SPLINE
  5
4CA
100
AcDbEntity
  8
0
100
AcDbSpline
 62
7
  6
CONTINUOUS
 70
0
 71
3
 72
11
 73
7
 74
0
 42
0.0000001
 43
0.0000001
 44
0.0000000001
 40
0.0
 40
0.0
 40
0.0
 40
0.0
 40
0.23721727
 40
0.499998382
 40
0.7627803746
 40
1.0
 40
1.0
 40
1.0
 40
1.0
 10
30.4556005814
 20
73.6615232664
 30
0.0
 10
30.4355246224
 20
73.6499324753
 30
0.0
 10
30.3975293531
 20
73.6179559628
 30
0.0
 10
30.3531827987
 20
73.5573552601
 30
0.0
 10
30.3228745934
 20
73.4886492961
 30
0.0
 10
30.3141798139
 20
73.4397558684
 30
0.0
 10
30.3141798139
 20
73.4165739522
 30
0.0
  0
SPLINE
  5
4CB
100
AcDbEntity
  8
0
100
AcDbSpline
 62
7
  6
CONTINUOUS
 70
0
 71
3
 72
11
 73
7
 74
0
 42
0.0000001
 43
0.0000001
 44
0.0000000001
 40
0.0
 40
0.0
 40
0.0
 40
0.0
 40
0.2456520333
 40
0.5085848881
 40
0.766892294
 40
1.0
 40
1.0
 40
1.0
 40
1.0
 10
30.5954578839
 20
73.4417020261
 30
0.0
 10
30.5928232182
 20
73.4635048432
 30
0.0
 10
30.5810397012
 20
73.5079339106
 30
0.0
 10
30.5501094126
 20
73.5696031239
 30
0.0
 10
30.5081520071
 20
73.6229476081
 30
0.0
 10
30.4736486162
 20
73.6511034644
 30
0.0
 10
30.4556005814
 20
73.6615232664
 30
0.0
  0
SPLINE
  5
4CC
100
AcDbEntity
  8
0
100
AcDbSpline
 62
7
  6
CONTINUOUS
 70
0
 71
3
 72
11
 73
7
 74
0
 42
0.0000001
 43
0.0000001
 44
0.0000000001
 40
0.0
 40
0.0
 40
0.0
 40
0.0
 40
0.2281149986
 40
0.4904726821
 40
0.7579517101
 40
1.0
 40
1.0
 40
1.0
 40
1.0
 10
30.3141798139
 20
73.4165739522
 30
0.0
 10
30.3346105712
 20
73.4083172374
 30
0.0
 10
30.3816159852
 20
73.3983028896
 30
0.0
 10
30.4551960354
 20
73.398240628
 30
0.0
 10
30.5289178962
 20
73.4117306347
 30
0.0
 10
30.5752084
 20
73.4300110509
 30
0.0
 10
30.5954578839
 20
73.4417020261
 30
0.0
  0
SPLINE
  5
4CD
100
AcDbEntity
  8
0
100
AcDbSpline
 62
7
  6
CONTINUOUS
 70
0
 71
3
 72
9
 73
5
 74
0
 42
0.0000001
 43
0.0000001
 44
0.0000000001
 40
0.0
 40
0.0
 40
0.0
 40
0.0
 40
0.4744377155
 40
1.0
 40
1.0
 40
1.0
 40
1.0
 10
29.8702828339
 20
73.6728521954
 30
0.0
 10
29.8702828339
 20
73.6960341115
 30
0.0
 10
29.8789687902
 20
73.7449122565
 30
0.0
 10
29.8988640919
 20
73.7899979362
 30
0.0
 10
29.9117040177
 20
73.8122374634
 30
0.0
  0
SPLINE
  5
4CE
100
AcDbEntity
  8
0
100
AcDbSpline
 62
7
  6
CONTINUOUS
 70
0
 71
3
 72
9
 73
5
 74
0
 42
0.0000001
 43
0.0000001
 44
0.0000000001
 40
0.0
 40
0.0
 40
0.0
 40
0.0
 40
0.255502651
 40
1.0
 40
1.0
 40
1.0
 40
1.0
 10
29.9117040177
 20
73.8122374634
 30
0.0
 10
29.9154948725
 20
73.818803453
 30
0.0
 10
29.9311763237
 20
73.8439964808
 30
0.0
 10
29.9501177891
 20
73.8672261302
 30
0.0
 10
29.9659701276
 20
73.8826132538
 30
0.0
  0
SPLINE
  5
4CF
100
AcDbEntity
  8
0
100
AcDbSpline
 62
7
  6
CONTINUOUS
 70
0
 71
3
 72
9
 73
5
 74
0
 42
0.0000001
 43
0.0000001
 44
0.0000000001
 40
0.0
 40
0.0
 40
0.0
 40
0.0
 40
0.2629554435
 40
1.0
 40
1.0
 40
1.0
 40
1.0
 10
29.9659701276
 20
73.8826132538
 30
0.0
 10
29.9696043504
 20
73.8861408239
 30
0.0
 10
29.9837820185
 20
73.8991735083
 30
0.0
 10
29.9994094723
 20
73.9107035332
 30
0.0
 10
30.0117036013
 20
73.9178015096
 30
0.0
  0
SPLINE
  5
4D0
100
AcDbEntity
  8
0
100
AcDbSpline
 62
7
  6
CONTINUOUS
 70
0
 71
3
 72
9
 73
5
 74
0
 42
0.0000001
 43
0.0000001
 44
0.0000000001
 40
0.0
 40
0.0
 40
0.0
 40
0.0
 40
0.4744377155
 40
1.0
 40
1.0
 40
1.0
 40
1.0
 10
16.7887529187
 20
77.1427940683
 30
0.0
 10
16.7887529187
 20
77.1659759845
 30
0.0
 10
16.797438875
 20
77.2148541295
 30
0.0
 10
16.8173341767
 20
77.2599398091
 30
0.0
 10
16.8301741025
 20
77.2821793364
 30
0.0
  0
SPLINE
  5
4D1
100
AcDbEntity
  8
0
100
AcDbSpline
 62
7
  6
CONTINUOUS
 70
0
 71
3
 72
9
 73
5
 74
0
 42
0.0000001
 43
0.0000001
 44
0.0000000001
 40
0.0
 40
0.0
 40
0.0
 40
0.0
 40
0.255502651
 40
1.0
 40
1.0
 40
1.0
 40
1.0
 10
16.8301741025
 20
77.2821793364
 30
0.0
 10
16.8339649573
 20
77.288745326
 30
0.0
 10
16.8496464085
 20
77.3139383537
 30
0.0
 10
16.8685878738
 20
77.3371680032
 30
0.0
 10
16.8844402124
 20
77.3525551268
 30
0.0
  0
SPLINE
  5
4D2
100
AcDbEntity
  8
0
100
AcDbSpline
 62
7
  6
CONTINUOUS
 70
0
 71
3
 72
9
 73
5
 74
0
 42
0.0000001
 43
0.0000001
 44
0.0000000001
 40
0.0
 40
0.0
 40
0.0
 40
0.0
 40
0.2629554435
 40
1.0
 40
1.0
 40
1.0
 40
1.0
 10
16.8844402124
 20
77.3525551268
 30
0.0
 10
16.8880744352
 20
77.3560826969
 30
0.0
 10
16.9022521033
 20
77.3691153813
 30
0.0
 10
16.917879557
 20
77.3806454062
 30
0.0
 10
16.9301736861
 20
77.3877433825
 30
0.0
  0
SPLINE
  5
4D3
100
AcDbEntity
  8
0
100
AcDbSpline
 62
7
  6
CONTINUOUS
 70
0
 71
3
 72
11
 73
7
 74
0
 42
0.0000001
 43
0.0000001
 44
0.0000000001
 40
0.0
 40
0.0
 40
0.0
 40
0.0
 40
0.2238884922
 40
0.4596807307
 40
0.7167183571
 40
1.0
 40
1.0
 40
1.0
 40
1.0
 10
33.4815446832
 20
68.479438309
 30
0.0
 10
33.5098089619
 20
68.4957584
 30
0.0
 10
33.5631224949
 20
68.5381712051
 30
0.0
 10
33.6241455299
 20
68.6243877527
 30
0.0
 10
33.6660641745
 20
68.7304245219
 30
0.0
 10
33.6801084924
 20
68.8084178849
 30
0.0
 10
33.6843132236
 20
68.8494990051
 30
0.0
  0
SPLINE
  5
4D4
100
AcDbEntity
  8
0
100
AcDbSpline
 62
7
  6
CONTINUOUS
 70
0
 71
3
 72
17
 73
13
 74
0
 42
0.0000001
 43
0.0000001
 44
0.0000000001
 40
0.0
 40
0.0
 40
0.0
 40
0.0
 40
0.0428570455
 40
0.087485165
 40
0.1353123244
 40
0.1872781392
 40
0.3045378316
 40
0.4381995438
 40
0.5825378192
 40
0.7296849502
 40
0.8713141218
 40
1.0
 40
1.0
 40
1.0
 40
1.0
 10
33.4608295965
 20
68.3520190373
 30
0.0
 10
33.4337129405
 20
68.336362659
 30
0.0
 10
33.3739574908
 20
68.3114600814
 30
0.0
 10
33.2752756726
 20
68.2970667895
 30
0.0
 10
33.169309817
 20
68.3047996989
 30
0.0
 10
33.0153549716
 20
68.345821551
 30
0.0
 10
32.8185199812
 20
68.4533959755
 30
0.0
 10
32.6010556154
 20
68.6459831509
 30
0.0
 10
32.4088449891
 20
68.8920152128
 30
0.0
 10
32.2575152824
 20
69.1716368753
 30
0.0
 10
32.1593591433
 20
69.4619372177
 30
0.0
 10
32.1330339544
 20
69.6596545081
 30
0.0
 10
32.1330339544
 20
69.7536740461
 30
0.0
  0
SPLINE
  5
4D5
100
AcDbEntity
  8
0
100
AcDbSpline
 62
7
  6
CONTINUOUS
 70
0
 71
3
 72
11
 73
7
 74
0
 42
0.0000001
 43
0.0000001
 44
0.0000000001
 40
0.0
 40
0.0
 40
0.0
 40
0.0
 40
0.2895599869
 40
0.5489686823
 40
0.7820948463
 40
1.0
 40
1.0
 40
1.0
 40
1.0
 10
65.0842685423
 20
71.6830369164
 30
0.0
 10
65.0842685423
 20
71.7032940067
 30
0.0
 10
65.0873556352
 20
71.7418272531
 30
0.0
 10
65.1029326946
 20
71.7947813249
 30
0.0
 10
65.1292117726
 20
71.8377759201
 30
0.0
 10
65.1539240269
 20
71.8585072901
 30
0.0
 10
65.1671200049
 20
71.8661396736
 30
0.0
  0
SPLINE
  5
4D6
100
AcDbEntity
  8
0
100
AcDbSpline
 62
7
  6
CONTINUOUS
 70
0
 71
3
 72
9
 73
5
 74
0
 42
0.0000001
 43
0.0000001
 44
0.0000000001
 40
0.0
 40
0.0
 40
0.0
 40
0.0
 40
0.4736121713
 40
1.0
 40
1.0
 40
1.0
 40
1.0
 10
48.3551267427
 20
60.4556690928
 30
0.0
 10
48.3466955041
 20
60.4605335114
 30
0.0
 10
48.3263674692
 20
60.4667641285
 30
0.0
 10
48.305469187
 20
60.4646464899
 30
0.0
 10
48.2949483546
 20
60.4621259778
 30
0.0
  0
SPLINE
  5
4D7
100
AcDbEntity
  8
0
100
AcDbSpline
 62
7
  6
CONTINUOUS
 70
0
 71
3
 72
9
 73
5
 74
0
 42
0.0000001
 43
0.0000001
 44
0.0000000001
 40
0.0
 40
0.0
 40
0.0
 40
0.0
 40
0.2362939693
 40
1.0
 40
1.0
 40
1.0
 40
1.0
 10
48.2949483546
 20
60.4621259778
 30
0.0
 10
48.2916442328
 20
60.4613343979
 30
0.0
 10
48.2778060423
 20
60.4573845304
 30
0.0
 10
48.2646386028
 20
60.4512543896
 30
0.0
 10
48.2551286222
 20
60.4457638325
 30
0.0
  0
SPLINE
  5
4D8
100
AcDbEntity
  8
0
100
AcDbSpline
 62
7
  6
CONTINUOUS
 70
0
 71
3
 72
9
 73
5
 74
0
 42
0.0000001
 43
0.0000001
 44
0.0000000001
 40
0.0
 40
0.0
 40
0.0
 40
0.0
 40
0.2477407452
 40
1.0
 40
1.0
 40
1.0
 40
1.0
 10
38.6843895569
 20
87.3175991614
 30
0.0
 10
38.6766248567
 20
87.3131161447
 30
0.0
 10
38.6445646066
 20
87.296281762
 30
0.0
 10
38.6097780384
 20
87.2847425014
 30
0.0
 10
38.5831404662
 20
87.2791181782
 30
0.0
  0
SPLINE
  5
4D9
100
AcDbEntity
  8
0
100
AcDbSpline
 62
7
  6
CONTINUOUS
 70
0
 71
3
 72
11
 73
7
 74
0
 42
0.0000001
 43
0.0000001
 44
0.0000000001
 40
0.0
 40
0.0
 40
0.0
 40
0.0
 40
0.2396080419
 40
0.4971101175
 40
0.7561074219
 40
1.0
 40
1.0
 40
1.0
 40
1.0
 10
23.4028552381
 20
76.3306644607
 30
0.0
 10
23.2094783542
 20
76.4170315037
 30
0.0
 10
22.7852378818
 20
76.546087157
 30
0.0
 10
22.1171882667
 20
76.6159749648
 30
0.0
 10
21.4434898535
 20
76.5670758198
 30
0.0
 10
21.0101772253
 20
76.4521122879
 30
0.0
 10
20.8098258369
 20
76.3725406079
 30
0.0
  0
SPLINE
  5
4DA
100
AcDbEntity
  8
0
100
AcDbSpline
 62
7
  6
CONTINUOUS
 70
0
 71
3
 72
11
 73
7
 74
0
 42
0.0000001
 43
0.0000001
 44
0.0000000001
 40
0.0
 40
0.0
 40
0.0
 40
0.0
 40
0.2895599869
 40
0.5489686823
 40
0.7820948463
 40
1.0
 40
1.0
 40
1.0
 40
1.0
 10
59.7809897632
 20
68.6212057623
 30
0.0
 10
59.7809897632
 20
68.6414628527
 30
0.0
 10
59.7840768561
 20
68.679996099
 30
0.0
 10
59.7996539155
 20
68.7329501709
 30
0.0
 10
59.8259329935
 20
68.7759447661
 30
0.0
 10
59.8506452478
 20
68.7966761361
 30
0.0
 10
59.8638412258
 20
68.8043085196
 30
0.0
  0
SPLINE
  5
4DB
100
AcDbEntity
  8
0
100
AcDbSpline
 62
7
  6
CONTINUOUS
 70
0
 71
3
 72
11
 73
7
 74
0
 42
0.0000001
 43
0.0000001
 44
0.0000000001
 40
0.0
 40
0.0
 40
0.0
 40
0.0
 40
0.2370468277
 40
0.4999997823
 40
0.7629536405
 40
1.0
 40
1.0
 40
1.0
 40
1.0
 10
59.7809897632
 20
68.5292267474
 30
0.0
 10
59.7809897632
 20
68.5176451082
 30
0.0
 10
59.7765966906
 20
68.4932126644
 30
0.0
 10
59.761519593
 20
68.4588182269
 30
0.0
 10
59.7392718556
 20
68.4285637869
 30
0.0
 10
59.7203093684
 20
68.4125428725
 30
0.0
 10
59.7102793795
 20
68.4067520903
 30
0.0
  0
SPLINE
  5
4DC
100
AcDbEntity
  8
0
100
AcDbSpline
 62
7
  6
CONTINUOUS
 70
0
 71
3
 72
9
 73
5
 74
0
 42
0.0000001
 43
0.0000001
 44
0.0000000001
 40
0.0
 40
0.0
 40
0.0
 40
0.0
 40
0.4744377155
 40
1.0
 40
1.0
 40
1.0
 40
1.0
 10
10.6613471382
 20
80.6563794456
 30
0.0
 10
10.6613471382
 20
80.6795613618
 30
0.0
 10
10.6700330945
 20
80.7284395067
 30
0.0
 10
10.6899283963
 20
80.7735251864
 30
0.0
 10
10.702768322
 20
80.7957647137
 30
0.0
  0
SPLINE
  5
4DD
100
AcDbEntity
  8
0
100
AcDbSpline
 62
7
  6
CONTINUOUS
 70
0
 71
3
 72
9
 73
5
 74
0
 42
0.0000001
 43
0.0000001
 44
0.0000000001
 40
0.0
 40
0.0
 40
0.0
 40
0.0
 40
0.255502651
 40
1.0
 40
1.0
 40
1.0
 40
1.0
 10
10.702768322
 20
80.7957647137
 30
0.0
 10
10.7065591769
 20
80.8023307033
 30
0.0
 10
10.722240628
 20
80.827523731
 30
0.0
 10
10.7411820934
 20
80.8507533805
 30
0.0
 10
10.757034432
 20
80.8661405041
 30
0.0
  0
SPLINE
  5
4DE
100
AcDbEntity
  8
0
100
AcDbSpline
 62
7
  6
CONTINUOUS
 70
0
 71
3
 72
9
 73
5
 74
0
 42
0.0000001
 43
0.0000001
 44
0.0000000001
 40
0.0
 40
0.0
 40
0.0
 40
0.0
 40
0.2629554435
 40
1.0
 40
1.0
 40
1.0
 40
1.0
 10
10.757034432
 20
80.8661405041
 30
0.0
 10
10.7606686548
 20
80.8696680742
 30
0.0
 10
10.7748463228
 20
80.8827007586
 30
0.0
 10
10.7904737766
 20
80.8942307835
 30
0.0
 10
10.8027679057
 20
80.9013287598
 30
0.0
  0
SPLINE
  5
4DF
100
AcDbEntity
  8
0
100
AcDbSpline
 62
7
  6
CONTINUOUS
 70
0
 71
3
 72
10
 73
6
 74
0
 42
0.0000001
 43
0.0000001
 44
0.0000000001
 40
0.0
 40
0.0
 40
0.0
 40
0.0
 40
0.5474150357
 40
0.7816493243
 40
1.0
 40
1.0
 40
1.0
 40
1.0
 10
10.8027679057
 20
80.9013287598
 30
0.0
 10
10.7862354399
 20
80.9108735675
 30
0.0
 10
10.7598343249
 20
80.9213643413
 30
0.0
 10
10.7245262329
 20
80.9205778147
 30
0.0
 10
10.7093538207
 20
80.9150562833
 30
0.0
 10
10.7027602548
 20
80.9112476406
 30
0.0
  0
SPLINE
  5
4E0
100
AcDbEntity
  8
0
100
AcDbSpline
 62
7
  6
CONTINUOUS
 70
0
 71
3
 72
9
 73
5
 74
0
 42
0.0000001
 43
0.0000001
 44
0.0000000001
 40
0.0
 40
0.0
 40
0.0
 40
0.0
 40
0.2338987195
 40
1.0
 40
1.0
 40
1.0
 40
1.0
 10
16.838684252
 20
77.4165696683
 30
0.0
 10
16.8335847925
 20
77.4136255115
 30
0.0
 10
16.8123918193
 20
77.3999913334
 30
0.0
 10
16.7935626736
 20
77.3828524662
 30
0.0
 10
16.7805736303
 20
77.3685958869
 30
0.0
  0
SPLINE
  5
4E1
100
AcDbEntity
  8
0
100
AcDbSpline
 62
7
  6
CONTINUOUS
 70
0
 71
3
 72
9
 73
5
 74
0
 42
0.0000001
 43
0.0000001
 44
0.0000000001
 40
0.0
 40
0.0
 40
0.0
 40
0.0
 40
0.2557012025
 40
1.0
 40
1.0
 40
1.0
 40
1.0
 10
16.7386868376
 20
77.3110043696
 30
0.0
 10
16.7348226583
 20
77.3043113776
 30
0.0
 10
16.720602539
 20
77.2776403126
 30
0.0
 10
16.7098407135
 20
77.2490562159
 30
0.0
 10
16.7044718986
 20
77.2272103485
 30
0.0
  0
SPLINE
  5
4E2
100
AcDbEntity
  8
0
100
AcDbSpline
 62
7
  6
CONTINUOUS
 70
0
 71
3
 72
9
 73
5
 74
0
 42
0.0000001
 43
0.0000001
 44
0.0000000001
 40
0.0
 40
0.0
 40
0.0
 40
0.0
 40
0.2627306837
 40
1.0
 40
1.0
 40
1.0
 40
1.0
 10
16.7044718986
 20
77.2272103485
 30
0.0
 10
16.7032987804
 20
77.2224368957
 30
0.0
 10
16.6993173701
 20
77.2041590344
 30
0.0
 10
16.6972634846
 20
77.1854141032
 30
0.0
 10
16.6972634846
 20
77.1716203541
 30
0.0
  0
SPLINE
  5
4E3
100
AcDbEntity
  8
0
100
AcDbSpline
 62
7
  6
CONTINUOUS
 70
0
 71
3
 72
11
 73
7
 74
0
 42
0.0000001
 43
0.0000001
 44
0.0000000001
 40
0.0
 40
0.0
 40
0.0
 40
0.0
 40
0.2047031306
 40
0.4362923828
 40
0.7019399586
 40
1.0
 40
1.0
 40
1.0
 40
1.0
 10
30.2167610884
 20
94.8024197461
 30
0.0
 10
30.2297603271
 20
94.7302205378
 30
0.0
 10
30.2918006615
 20
94.5817193429
 30
0.0
 10
30.4640505641
 20
94.3937207103
 30
0.0
 10
30.7049430479
 20
94.2371746013
 30
0.0
 10
30.8937198934
 20
94.1618769869
 30
0.0
 10
30.9956872487
 20
94.1300576393
 30
0.0
  0
SPLINE
  5
4E4
100
AcDbEntity
  8
0
100
AcDbSpline
 62
7
  6
CONTINUOUS
 70
0
 71
3
 72
11
 73
7
 74
0
 42
0.0000001
 43
0.0000001
 44
0.0000000001
 40
0.0
 40
0.0
 40
0.0
 40
0.0
 40
0.2177827477
 40
0.4509152641
 40
0.7103063952
 40
1.0
 40
1.0
 40
1.0
 40
1.0
 10
54.7621949665
 20
83.2875044015
 30
0.0
 10
54.7622087576
 20
83.3884380218
 30
0.0
 10
54.7994866898
 20
83.5988180484
 30
0.0
 10
54.9589840354
 20
83.8919463702
 30
0.0
 10
55.2111116526
 20
84.1569124753
 30
0.0
 10
55.4220680221
 20
84.3022120133
 30
0.0
 10
55.5383420106
 20
84.3693424312
 30
0.0
  0
SPLINE
  5
4E5
100
AcDbEntity
  8
0
100
AcDbSpline
 62
7
  6
CONTINUOUS
 70
0
 71
3
 72
11
 73
7
 74
0
 42
0.0000001
 43
0.0000001
 44
0.0000000001
 40
0.0
 40
0.0
 40
0.0
 40
0.0
 40
0.2177827477
 40
0.4509152641
 40
0.7103063952
 40
1.0
 40
1.0
 40
1.0
 40
1.0
 10
60.0654737456
 20
86.3493355555
 30
0.0
 10
60.0654875367
 20
86.4502691759
 30
0.0
 10
60.1027654689
 20
86.6606492025
 30
0.0
 10
60.2622628145
 20
86.9537775242
 30
0.0
 10
60.5143904317
 20
87.2187436293
 30
0.0
 10
60.7253468012
 20
87.3640431674
 30
0.0
 10
60.8416207897
 20
87.4311735852
 30
0.0
  0
SPLINE
  5
4E6
100
AcDbEntity
  8
0
100
AcDbSpline
 62
7
  6
CONTINUOUS
 70
0
 71
3
 72
11
 73
7
 74
0
 42
0.0000001
 43
0.0000001
 44
0.0000000001
 40
0.0
 40
0.0
 40
0.0
 40
0.0
 40
0.2372193634
 40
0.5000010919
 40
0.762782226
 40
1.0
 40
1.0
 40
1.0
 40
1.0
 10
30.6480917557
 20
89.3088499654
 30
0.0
 10
30.6480917557
 20
89.3668047248
 30
0.0
 10
30.6263546282
 20
89.4890382393
 30
0.0
 10
30.5505834322
 20
89.6608028579
 30
0.0
 10
30.4397160517
 20
89.812304131
 30
0.0
 10
30.3447271346
 20
89.8922448573
 30
0.0
 10
30.2945368931
 20
89.9212215512
 30
0.0
  0
SPLINE
  5
4E7
100
AcDbEntity
  8
0
100
AcDbSpline
 62
7
  6
CONTINUOUS
 70
0
 71
3
 72
11
 73
7
 74
0
 42
0.0000001
 43
0.0000001
 44
0.0000000001
 40
0.0
 40
0.0
 40
0.0
 40
0.0
 40
0.23721727
 40
0.499998382
 40
0.7627803746
 40
1.0
 40
1.0
 40
1.0
 40
1.0
 10
30.2945368931
 20
89.9212215512
 30
0.0
 10
30.2443469958
 20
89.8922445734
 30
0.0
 10
30.1493588224
 20
89.8123032921
 30
0.0
 10
30.0384924365
 20
89.6608015353
 30
0.0
 10
29.9627219231
 20
89.4890366254
 30
0.0
 10
29.9409849745
 20
89.3668030562
 30
0.0
 10
29.9409849745
 20
89.3088482657
 30
0.0
  0
SPLINE
  5
4E8
100
AcDbEntity
  8
0
100
AcDbSpline
 62
7
  6
CONTINUOUS
 70
0
 71
3
 72
11
 73
7
 74
0
 42
0.0000001
 43
0.0000001
 44
0.0000000001
 40
0.0
 40
0.0
 40
0.0
 40
0.0
 40
0.2372185796
 40
0.5000005262
 40
0.7627821863
 40
1.0
 40
1.0
 40
1.0
 40
1.0
 10
29.9409849745
 20
89.3088482657
 30
0.0
 10
29.9911752987
 20
89.2798715241
 30
0.0
 10
30.1079011563
 20
89.2375807982
 30
0.0
 10
30.294538921
 20
89.2173188573
 30
0.0
 10
30.4811764041
 20
89.2375816499
 30
0.0
 10
30.5979018025
 20
89.2798729554
 30
0.0
 10
30.6480917557
 20
89.3088499654
 30
0.0
  0
SPLINE
  5
4E9
100
AcDbEntity
  8
0
100
AcDbSpline
 62
7
  6
CONTINUOUS
 70
0
 71
3
 72
11
 73
7
 74
0
 42
0.0000001
 43
0.0000001
 44
0.0000000001
 40
0.0
 40
0.0
 40
0.0
 40
0.0
 40
0.2372196254
 40
0.500001618
 40
0.76278273
 40
1.0
 40
1.0
 40
1.0
 40
1.0
 10
31.8501812324
 20
86.3286426691
 30
0.0
 10
31.8501812324
 20
86.3865974596
 30
0.0
 10
31.871918181
 20
86.5088310288
 30
0.0
 10
31.9476886944
 20
86.6805959387
 30
0.0
 10
32.0585550803
 20
86.8320976955
 30
0.0
 10
32.1535432537
 20
86.9120389768
 30
0.0
 10
32.203733151
 20
86.9410159546
 30
0.0
  0
SPLINE
  5
4EA
100
AcDbEntity
  8
0
100
AcDbSpline
 62
7
  6
CONTINUOUS
 70
0
 71
3
 72
11
 73
7
 74
0
 42
0.0000001
 43
0.0000001
 44
0.0000000001
 40
0.0
 40
0.0
 40
0.0
 40
0.0
 40
0.2895599869
 40
0.5489686823
 40
0.7820948463
 40
1.0
 40
1.0
 40
1.0
 40
1.0
 10
71.0239902336
 20
53.1485198615
 30
0.0
 10
71.0239902336
 20
53.1687769519
 30
0.0
 10
71.0270773264
 20
53.2073101982
 30
0.0
 10
71.0426543859
 20
53.2602642701
 30
0.0
 10
71.0689334638
 20
53.3032588652
 30
0.0
 10
71.0936457182
 20
53.3239902353
 30
0.0
 10
71.1068416961
 20
53.3316226188
 30
0.0
  0
SPLINE
  5
4EB
100
AcDbEntity
  8
0
100
AcDbSpline
 62
7
  6
CONTINUOUS
 70
0
 71
3
 72
9
 73
5
 74
0
 42
0.0000001
 43
0.0000001
 44
0.0000000001
 40
0.0
 40
0.0
 40
0.0
 40
0.0
 40
0.2364409047
 40
1.0
 40
1.0
 40
1.0
 40
1.0
 10
67.8419844001
 20
86.5330570128
 30
0.0
 10
67.8459286574
 20
86.5307798463
 30
0.0
 10
67.8622506642
 20
86.5205291755
 30
0.0
 10
67.8771636161
 20
86.5081136602
 30
0.0
 10
67.8877175205
 20
86.4978696894
 30
0.0
  0
SPLINE
  5
4EC
100
AcDbEntity
  8
0
100
AcDbSpline
 62
7
  6
CONTINUOUS
 70
0
 71
3
 72
9
 73
5
 74
0
 42
0.0000001
 43
0.0000001
 44
0.0000000001
 40
0.0
 40
0.0
 40
0.0
 40
0.0
 40
0.2430466145
 40
1.0
 40
1.0
 40
1.0
 40
1.0
 10
67.8877175205
 20
86.4978696894
 30
0.0
 10
67.8928931379
 20
86.4928460631
 30
0.0
 10
67.9133796174
 20
86.4713532156
 30
0.0
 10
67.9307529337
 20
86.4469475309
 30
0.0
 10
67.9419848165
 20
86.4274934474
 30
0.0
  0
SPLINE
  5
4ED
100
AcDbEntity
  8
0
100
AcDbSpline
 62
7
  6
CONTINUOUS
 70
0
 71
3
 72
9
 73
5
 74
0
 42
0.0000001
 43
0.0000001
 44
0.0000000001
 40
0.0
 40
0.0
 40
0.0
 40
0.0
 40
0.2555022621
 40
1.0
 40
1.0
 40
1.0
 40
1.0
 10
67.9419848165
 20
86.4274934474
 30
0.0
 10
67.9457757979
 20
86.4209273114
 30
0.0
 10
67.9597532178
 20
86.3947495508
 30
0.0
 10
67.9704000997
 20
86.3667301222
 30
0.0
 10
67.9757995515
 20
86.34530741
 30
0.0
  0
SPLINE
  5
4EE
100
AcDbEntity
  8
0
100
AcDbSpline
 62
7
  6
CONTINUOUS
 70
0
 71
3
 72
9
 73
5
 74
0
 42
0.0000001
 43
0.0000001
 44
0.0000000001
 40
0.0
 40
0.0
 40
0.0
 40
0.0
 40
0.2629546114
 40
1.0
 40
1.0
 40
1.0
 40
1.0
 10
67.9757995515
 20
86.34530741
 30
0.0
 10
67.9770373316
 20
86.3403964286
 30
0.0
 10
67.9812348977
 20
86.3216023225
 30
0.0
 10
67.9834063452
 20
86.3023040438
 30
0.0
 10
67.9834063452
 20
86.2881083785
 30
0.0
  0
SPLINE
  5
4EF
100
AcDbEntity
  8
0
100
AcDbSpline
 62
7
  6
CONTINUOUS
 70
0
 71
3
 72
11
 73
7
 74
0
 42
0.0000001
 43
0.0000001
 44
0.0000000001
 40
0.0
 40
0.0
 40
0.0
 40
0.0
 40
0.23721727
 40
0.499998382
 40
0.7627803746
 40
1.0
 40
1.0
 40
1.0
 40
1.0
 10
57.0940060745
 20
80.3277458739
 30
0.0
 10
57.0739301155
 20
80.3161550828
 30
0.0
 10
57.0359348462
 20
80.2841785703
 30
0.0
 10
56.9915882918
 20
80.2235778676
 30
0.0
 10
56.9612800865
 20
80.1548719036
 30
0.0
 10
56.952585307
 20
80.1059784759
 30
0.0
 10
56.952585307
 20
80.0827965597
 30
0.0
  0
SPLINE
  5
4F0
100
AcDbEntity
  8
0
100
AcDbSpline
 62
7
  6
CONTINUOUS
 70
0
 71
3
 72
11
 73
7
 74
0
 42
0.0000001
 43
0.0000001
 44
0.0000000001
 40
0.0
 40
0.0
 40
0.0
 40
0.0
 40
0.2372193634
 40
0.5000010919
 40
0.762782226
 40
1.0
 40
1.0
 40
1.0
 40
1.0
 10
57.2354280195
 20
80.0827972396
 30
0.0
 10
57.2354280195
 20
80.1059791434
 30
0.0
 10
57.2267331685
 20
80.1548725492
 30
0.0
 10
57.1964246901
 20
80.2235783966
 30
0.0
 10
57.1520777379
 20
80.2841789058
 30
0.0
 10
57.1140821711
 20
80.3161551964
 30
0.0
 10
57.0940060745
 20
80.3277458739
 30
0.0
  0
SPLINE
  5
4F1
100
AcDbEntity
  8
0
100
AcDbSpline
 62
7
  6
CONTINUOUS
 70
0
 71
3
 72
11
 73
7
 74
0
 42
0.0000001
 43
0.0000001
 44
0.0000000001
 40
0.0
 40
0.0
 40
0.0
 40
0.0
 40
0.2372185796
 40
0.5000005262
 40
0.7627821863
 40
1.0
 40
1.0
 40
1.0
 40
1.0
 10
56.952585307
 20
80.0827965597
 30
0.0
 10
56.9726614367
 20
80.0712058631
 30
0.0
 10
57.0193517797
 20
80.0542895727
 30
0.0
 10
57.0940068856
 20
80.0461847964
 30
0.0
 10
57.1686618789
 20
80.0542899134
 30
0.0
 10
57.2153520382
 20
80.0712064356
 30
0.0
 10
57.2354280195
 20
80.0827972396
 30
0.0
  0
SPLINE
  5
4F2
100
AcDbEntity
  8
0
100
AcDbSpline
 62
7
  6
CONTINUOUS
 70
0
 71
3
 72
18
 73
14
 74
0
 42
0.0000001
 43
0.0000001
 44
0.0000000001
 40
0.0
 40
0.0
 40
0.0
 40
0.0
 40
0.1286585538
 40
0.2702079607
 40
0.4173278027
 40
0.5616316029
 40
0.6952660325
 40
0.7562716512
 40
0.8127630549
 40
0.864711743
 40
0.9125345558
 40
0.9571501792
 40
1.0
 40
1.0
 40
1.0
 40
1.0
 10
60.8416207897
 20
87.4311735852
 30
0.0
 10
61.0377891028
 20
87.5444307375
 30
0.0
 10
61.4819393734
 20
87.7276899854
 30
0.0
 10
62.2057859703
 20
87.8724990137
 30
0.0
 10
62.9715220562
 20
87.8936643111
 30
0.0
 10
63.7159852937
 20
87.7891230277
 30
0.0
 10
64.286511152
 20
87.5985628201
 30
0.0
 10
64.6758879558
 20
87.3869088304
 30
0.0
 10
64.9175964783
 20
87.2102762522
 30
0.0
 10
65.1126308765
 20
87.0143856108
 30
0.0
 10
65.2565953319
 20
86.8027329232
 30
0.0
 10
65.3452261585
 20
86.5794148365
 30
0.0
 10
65.365459685
 20
86.4247766996
 30
0.0
 10
65.3654493771
 20
86.349335616
 30
0.0
  0
SPLINE
  5
4F3
100
AcDbEntity
  8
0
100
AcDbSpline
 62
7
  6
CONTINUOUS
 70
0
 71
3
 72
18
 73
14
 74
0
 42
0.0000001
 43
0.0000001
 44
0.0000000001
 40
0.0
 40
0.0
 40
0.0
 40
0.0
 40
0.1286585538
 40
0.2702079607
 40
0.4173278027
 40
0.5616316029
 40
0.6952660325
 40
0.7562716512
 40
0.8127630549
 40
0.864711743
 40
0.9125345558
 40
0.9571501792
 40
1.0
 40
1.0
 40
1.0
 40
1.0
 10
55.5383420106
 20
84.3693424312
 30
0.0
 10
55.7345103237
 20
84.4825995835
 30
0.0
 10
56.1786605943
 20
84.6658588314
 30
0.0
 10
56.9025071912
 20
84.8106678597
 30
0.0
 10
57.6682432771
 20
84.8318331571
 30
0.0
 10
58.4127065146
 20
84.7272918737
 30
0.0
 10
58.9832323729
 20
84.536731666
 30
0.0
 10
59.3726091767
 20
84.3250776763
 30
0.0
 10
59.6143176992
 20
84.1484450982
 30
0.0
 10
59.8093520974
 20
83.9525544567
 30
0.0
 10
59.9533165528
 20
83.7409017692
 30
0.0
 10
60.0419473794
 20
83.5175836824
 30
0.0
 10
60.0621809059
 20
83.3629455456
 30
0.0
 10
60.062170598
 20
83.287504462
 30
0.0
  0
SPLINE
  5
4F4
100
AcDbEntity
  8
0
100
AcDbSpline
 62
7
  6
CONTINUOUS
 70
0
 71
3
 72
9
 73
5
 74
0
 42
0.0000001
 43
0.0000001
 44
0.0000000001
 40
0.0
 40
0.0
 40
0.0
 40
0.0
 40
0.4744377155
 40
1.0
 40
1.0
 40
1.0
 40
1.0
 10
51.5785513959
 20
83.1854262941
 30
0.0
 10
51.5785513959
 20
83.2086082103
 30
0.0
 10
51.5872373522
 20
83.2574863552
 30
0.0
 10
51.6071326539
 20
83.3025720349
 30
0.0
 10
51.6199725797
 20
83.3248115621
 30
0.0
  0
SPLINE
  5
4F5
100
AcDbEntity
  8
0
100
AcDbSpline
 62
7
  6
CONTINUOUS
 70
0
 71
3
 72
9
 73
5
 74
0
 42
0.0000001
 43
0.0000001
 44
0.0000000001
 40
0.0
 40
0.0
 40
0.0
 40
0.0
 40
0.255502651
 40
1.0
 40
1.0
 40
1.0
 40
1.0
 10
51.6199725797
 20
83.3248115621
 30
0.0
 10
51.6237634345
 20
83.3313775517
 30
0.0
 10
51.6394448857
 20
83.3565705795
 30
0.0
 10
51.6583863511
 20
83.379800229
 30
0.0
 10
51.6742386896
 20
83.3951873525
 30
0.0
  0
SPLINE
  5
4F6
100
AcDbEntity
  8
0
100
AcDbSpline
 62
7
  6
CONTINUOUS
 70
0
 71
3
 72
9
 73
5
 74
0
 42
0.0000001
 43
0.0000001
 44
0.0000000001
 40
0.0
 40
0.0
 40
0.0
 40
0.0
 40
0.2629554435
 40
1.0
 40
1.0
 40
1.0
 40
1.0
 10
51.6742386896
 20
83.3951873525
 30
0.0
 10
51.6778729125
 20
83.3987149226
 30
0.0
 10
51.6920505805
 20
83.4117476071
 30
0.0
 10
51.7076780343
 20
83.4232776319
 30
0.0
 10
51.7199721634
 20
83.4303756083
 30
0.0
  0
SPLINE
  5
4F7
100
AcDbEntity
  8
0
100
AcDbSpline
 62
7
  6
CONTINUOUS
 70
0
 71
3
 72
11
 73
7
 74
0
 42
0.0000001
 43
0.0000001
 44
0.0000000001
 40
0.0
 40
0.0
 40
0.0
 40
0.0
 40
0.2396080419
 40
0.4971101175
 40
0.7561074219
 40
1.0
 40
1.0
 40
1.0
 40
1.0
 10
64.0616202746
 20
85.1085352369
 30
0.0
 10
63.8682433907
 20
85.1949022799
 30
0.0
 10
63.4440029183
 20
85.3239579332
 30
0.0
 10
62.7759533032
 20
85.393845741
 30
0.0
 10
62.10225489
 20
85.3449465959
 30
0.0
 10
61.6689422618
 20
85.2299830641
 30
0.0
 10
61.4685908734
 20
85.1504113841
 30
0.0
  0
SPLINE
  5
4F8
100
AcDbEntity
  8
0
100
AcDbSpline
 62
7
  6
CONTINUOUS
 70
0
 71
3
 72
11
 73
7
 74
0
 42
0.0000001
 43
0.0000001
 44
0.0000000001
 40
0.0
 40
0.0
 40
0.0
 40
0.0
 40
0.2404873383
 40
0.4994037996
 40
0.7586462106
 40
1.0
 40
1.0
 40
1.0
 40
1.0
 10
58.7721965295
 20
82.0404828461
 30
0.0
 10
58.5701311013
 20
82.1322029086
 30
0.0
 10
58.1246932465
 20
82.2673166851
 30
0.0
 10
57.4240145159
 20
82.3344050155
 30
0.0
 10
56.7221565148
 20
82.271570984
 30
0.0
 10
56.2747345252
 20
82.1394185141
 30
0.0
 10
56.071188843
 20
82.0490435362
 30
0.0
  0
SPLINE
  5
4F9
100
AcDbEntity
  8
0
100
AcDbSpline
 62
7
  6
CONTINUOUS
 70
0
 71
3
 72
9
 73
5
 74
0
 42
0.0000001
 43
0.0000001
 44
0.0000000001
 40
0.0
 40
0.0
 40
0.0
 40
0.0
 40
0.2465341799
 40
1.0
 40
1.0
 40
1.0
 40
1.0
 10
39.5125857066
 20
86.7425148581
 30
0.0
 10
39.5567555281
 20
86.7883951033
 30
0.0
 10
39.7319652949
 20
86.9782757725
 30
0.0
 10
39.8911420714
 20
87.1828394348
 30
0.0
 10
40.0016148621
 20
87.3430916952
 30
0.0
  0
SPLINE
  5
4FA
100
AcDbEntity
  8
0
100
AcDbSpline
 62
7
  6
CONTINUOUS
 70
0
 71
3
 72
9
 73
5
 74
0
 42
0.0000001
 43
0.0000001
 44
0.0000000001
 40
0.0
 40
0.0
 40
0.0
 40
0.0
 40
0.50970302
 40
1.0
 40
1.0
 40
1.0
 40
1.0
 10
45.7895814247
 20
94.2630791059
 30
0.0
 10
45.8807574308
 20
94.1245264932
 30
0.0
 10
46.0367463332
 20
93.8370001982
 30
0.0
 10
46.1414223724
 20
93.5266395876
 30
0.0
 10
46.17666458
 20
93.3710344007
 30
0.0
  0
SPLINE
  5
4FB
100
AcDbEntity
  8
0
100
AcDbSpline
 62
7
  6
CONTINUOUS
 70
0
 71
3
 72
11
 73
7
 74
0
 42
0.0000001
 43
0.0000001
 44
0.0000000001
 40
0.0
 40
0.0
 40
0.0
 40
0.0
 40
0.2558411116
 40
0.5160747041
 40
0.7679438807
 40
1.0
 40
1.0
 40
1.0
 40
1.0
 10
46.522027486
 20
93.3460666747
 30
0.0
 10
46.4952183992
 20
93.4311319513
 30
0.0
 10
46.4260753112
 20
93.5982418511
 30
0.0
 10
46.2860944398
 20
93.827666778
 30
0.0
 10
46.1172060636
 20
94.0259848515
 30
0.0
 10
45.986007187
 20
94.1341539541
 30
0.0
 10
45.9180388975
 20
94.1780265825
 30
0.0
  0
SPLINE
  5
4FC
100
AcDbEntity
  8
0
100
AcDbSpline
 62
7
  6
CONTINUOUS
 70
0
 71
3
 72
11
 73
7
 74
0
 42
0.0000001
 43
0.0000001
 44
0.0000000001
 40
0.0
 40
0.0
 40
0.0
 40
0.0
 40
0.2370468277
 40
0.4999997823
 40
0.7629536405
 40
1.0
 40
1.0
 40
1.0
 40
1.0
 10
65.0842685423
 20
71.5910579014
 30
0.0
 10
65.0842685423
 20
71.5794762623
 30
0.0
 10
65.0798754697
 20
71.5550438185
 30
0.0
 10
65.0647983721
 20
71.5206493809
 30
0.0
 10
65.0425506347
 20
71.4903949409
 30
0.0
 10
65.0235881475
 20
71.4743740266
 30
0.0
 10
65.0135581586
 20
71.4685832443
 30
0.0
  0
SPLINE
  5
4FD
100
AcDbEntity
  8
0
100
AcDbSpline
 62
7
  6
CONTINUOUS
 70
0
 71
3
 72
11
 73
7
 74
0
 42
0.0000001
 43
0.0000001
 44
0.0000000001
 40
0.0
 40
0.0
 40
0.0
 40
0.0
 40
0.2370468277
 40
0.4999997823
 40
0.7629536405
 40
1.0
 40
1.0
 40
1.0
 40
1.0
 10
71.0239902336
 20
53.0565408466
 30
0.0
 10
71.0239902336
 20
53.0449592074
 30
0.0
 10
71.0195971609
 20
53.0205267636
 30
0.0
 10
71.0045200634
 20
52.986132326
 30
0.0
 10
70.982272326
 20
52.9558778861
 30
0.0
 10
70.9633098387
 20
52.9398569717
 30
0.0
 10
70.9532798498
 20
52.9340661895
 30
0.0
  0
SPLINE
  5
4FE
100
AcDbEntity
  8
0
100
AcDbSpline
 62
7
  6
CONTINUOUS
 70
0
 71
3
 72
11
 73
7
 74
0
 42
0.0000001
 43
0.0000001
 44
0.0000000001
 40
0.0
 40
0.0
 40
0.0
 40
0.0
 40
0.2895599869
 40
0.5489686823
 40
0.7820948463
 40
1.0
 40
1.0
 40
1.0
 40
1.0
 10
71.6604331457
 20
31.5521716526
 30
0.0
 10
71.6604331457
 20
31.572428743
 30
0.0
 10
71.6635202385
 20
31.6109619893
 30
0.0
 10
71.679097298
 20
31.6639160612
 30
0.0
 10
71.705376376
 20
31.7069106563
 30
0.0
 10
71.7300886303
 20
31.7276420264
 30
0.0
 10
71.7432846082
 20
31.7352744099
 30
0.0
  0
SPLINE
  5
4FF
100
AcDbEntity
  8
0
100
AcDbSpline
 62
7
  6
CONTINUOUS
 70
0
 71
3
 72
9
 73
5
 74
0
 42
0.0000001
 43
0.0000001
 44
0.0000000001
 40
0.0
 40
0.0
 40
0.0
 40
0.0
 40
0.4760053201
 40
1.0
 40
1.0
 40
1.0
 40
1.0
 10
31.9891524745
 20
96.9745652167
 30
0.0
 10
31.9891524745
 20
97.0382502083
 30
0.0
 10
31.9594930393
 20
97.1719005763
 30
0.0
 10
31.8947022379
 20
97.290868846
 30
0.0
 10
31.8529163639
 20
97.3471602626
 30
0.0
  0
SPLINE
  5
500
100
AcDbEntity
  8
0
100
AcDbSpline
 62
7
  6
CONTINUOUS
 70
0
 71
3
 72
9
 73
5
 74
0
 42
0.0000001
 43
0.0000001
 44
0.0000000001
 40
0.0
 40
0.0
 40
0.0
 40
0.0
 40
0.4586874744
 40
1.0
 40
1.0
 40
1.0
 40
1.0
 10
31.937769531
 20
96.8082699217
 30
0.0
 10
31.9554650598
 20
96.828703281
 30
0.0
 10
31.9825965646
 20
96.8832562802
 30
0.0
 10
31.9891524745
 20
96.9426654834
 30
0.0
 10
31.9891524745
 20
96.9745652167
 30
0.0
  0
SPLINE
  5
501
100
AcDbEntity
  8
0
100
AcDbSpline
 62
7
  6
CONTINUOUS
 70
0
 71
3
 72
9
 73
5
 74
0
 42
0.0000001
 43
0.0000001
 44
0.0000000001
 40
0.0
 40
0.0
 40
0.0
 40
0.0
 40
0.283844504
 40
1.0
 40
1.0
 40
1.0
 40
1.0
 10
31.9047114108
 20
96.7012809197
 30
0.0
 10
31.9047114108
 20
96.7119907227
 30
0.0
 10
31.9068895756
 20
96.7494717703
 30
0.0
 10
31.9200800125
 20
96.7878435027
 30
0.0
 10
31.937769531
 20
96.8082699217
 30
0.0
  0
SPLINE
  5
502
100
AcDbEntity
  8
0
100
AcDbSpline
 62
7
  6
CONTINUOUS
 70
0
 71
3
 72
9
 73
5
 74
0
 42
0.0000001
 43
0.0000001
 44
0.0000000001
 40
0.0
 40
0.0
 40
0.0
 40
0.0
 40
0.5244141529
 40
1.0
 40
1.0
 40
1.0
 40
1.0
 10
31.9878392602
 20
96.4677632864
 30
0.0
 10
31.96230724
 20
96.5033682918
 30
0.0
 10
31.9227204723
 20
96.5780667057
 30
0.0
 10
31.9047114108
 20
96.6615471344
 30
0.0
 10
31.9047114108
 20
96.7012809197
 30
0.0
  0
SPLINE
  5
503
100
AcDbEntity
  8
0
100
AcDbSpline
 62
7
  6
CONTINUOUS
 70
0
 71
3
 72
9
 73
5
 74
0
 42
0.0000001
 43
0.0000001
 44
0.0000000001
 40
0.0
 40
0.0
 40
0.0
 40
0.0
 40
0.4760053201
 40
1.0
 40
1.0
 40
1.0
 40
1.0
 10
32.1240753708
 20
96.0951682405
 30
0.0
 10
32.1240753708
 20
96.158853232
 30
0.0
 10
32.0944159356
 20
96.2925036001
 30
0.0
 10
32.0296251341
 20
96.4114718698
 30
0.0
 10
31.9878392602
 20
96.4677632864
 30
0.0
  0
SPLINE
  5
504
100
AcDbEntity
  8
0
100
AcDbSpline
 62
7
  6
CONTINUOUS
 70
0
 71
3
 72
9
 73
5
 74
0
 42
0.0000001
 43
0.0000001
 44
0.0000000001
 40
0.0
 40
0.0
 40
0.0
 40
0.0
 40
0.4586874744
 40
1.0
 40
1.0
 40
1.0
 40
1.0
 10
32.0726924272
 20
95.9288729455
 30
0.0
 10
32.0903879561
 20
95.9493063048
 30
0.0
 10
32.1175194609
 20
96.003859304
 30
0.0
 10
32.1240753708
 20
96.0632685071
 30
0.0
 10
32.1240753708
 20
96.0951682405
 30
0.0
  0
SPLINE
  5
505
100
AcDbEntity
  8
0
100
AcDbSpline
 62
7
  6
CONTINUOUS
 70
0
 71
3
 72
9
 73
5
 74
0
 42
0.0000001
 43
0.0000001
 44
0.0000000001
 40
0.0
 40
0.0
 40
0.0
 40
0.0
 40
0.283844504
 40
1.0
 40
1.0
 40
1.0
 40
1.0
 10
32.0396343071
 20
95.8218839435
 30
0.0
 10
32.0396343071
 20
95.8325937465
 30
0.0
 10
32.0418124719
 20
95.8700747941
 30
0.0
 10
32.0550029087
 20
95.9084465265
 30
0.0
 10
32.0726924272
 20
95.9288729455
 30
0.0
  0
SPLINE
  5
506
100
AcDbEntity
  8
0
100
AcDbSpline
 62
7
  6
CONTINUOUS
 70
0
 71
3
 72
9
 73
5
 74
0
 42
0.0000001
 43
0.0000001
 44
0.0000000001
 40
0.0
 40
0.0
 40
0.0
 40
0.0
 40
0.5244141529
 40
1.0
 40
1.0
 40
1.0
 40
1.0
 10
32.1227621566
 20
95.5883663099
 30
0.0
 10
32.0972301364
 20
95.6239713154
 30
0.0
 10
32.0576433686
 20
95.6986697294
 30
0.0
 10
32.0396343071
 20
95.7821501581
 30
0.0
 10
32.0396343071
 20
95.8218839435
 30
0.0
  0
SPLINE
  5
507
100
AcDbEntity
  8
0
100
AcDbSpline
 62
7
  6
CONTINUOUS
 70
0
 71
3
 72
9
 73
5
 74
0
 42
0.0000001
 43
0.0000001
 44
0.0000000001
 40
0.0
 40
0.0
 40
0.0
 40
0.0
 40
0.47600532
 40
1.0
 40
1.0
 40
1.0
 40
1.0
 10
32.258998267
 20
95.2157712642
 30
0.0
 10
32.258998267
 20
95.2794562557
 30
0.0
 10
32.2293388319
 20
95.4131066237
 30
0.0
 10
32.1645480305
 20
95.5320748933
 30
0.0
 10
32.1227621566
 20
95.5883663099
 30
0.0
  0
SPLINE
  5
508
100
AcDbEntity
  8
0
100
AcDbSpline
 62
7
  6
CONTINUOUS
 70
0
 71
3
 72
9
 73
5
 74
0
 42
0.0000001
 43
0.0000001
 44
0.0000000001
 40
0.0
 40
0.0
 40
0.0
 40
0.0
 40
0.4586874744
 40
1.0
 40
1.0
 40
1.0
 40
1.0
 10
32.2076153235
 20
95.0494759692
 30
0.0
 10
32.2253108524
 20
95.0699093285
 30
0.0
 10
32.2524423571
 20
95.1244623277
 30
0.0
 10
32.258998267
 20
95.1838715309
 30
0.0
 10
32.258998267
 20
95.2157712642
 30
0.0
  0
SPLINE
  5
509
100
AcDbEntity
  8
0
100
AcDbSpline
 62
7
  6
CONTINUOUS
 70
0
 71
3
 72
9
 73
5
 74
0
 42
0.0000001
 43
0.0000001
 44
0.0000000001
 40
0.0
 40
0.0
 40
0.0
 40
0.0
 40
0.283844504
 40
1.0
 40
1.0
 40
1.0
 40
1.0
 10
32.1745572033
 20
94.9424869672
 30
0.0
 10
32.1745572033
 20
94.9531967703
 30
0.0
 10
32.1767353681
 20
94.9906778178
 30
0.0
 10
32.189925805
 20
95.0290495502
 30
0.0
 10
32.2076153235
 20
95.0494759692
 30
0.0
  0
SPLINE
  5
50A
100
AcDbEntity
  8
0
100
AcDbSpline
 62
7
  6
CONTINUOUS
 70
0
 71
3
 72
9
 73
5
 74
0
 42
0.0000001
 43
0.0000001
 44
0.0000000001
 40
0.0
 40
0.0
 40
0.0
 40
0.0
 40
0.5244141529
 40
1.0
 40
1.0
 40
1.0
 40
1.0
 10
32.2576850529
 20
94.7089693337
 30
0.0
 10
32.2321530327
 20
94.7445743391
 30
0.0
 10
32.1925662648
 20
94.8192727531
 30
0.0
 10
32.1745572033
 20
94.9027531818
 30
0.0
 10
32.1745572033
 20
94.9424869672
 30
0.0
  0
SPLINE
  5
50B
100
AcDbEntity
  8
0
100
AcDbSpline
 62
7
  6
CONTINUOUS
 70
0
 71
3
 72
9
 73
5
 74
0
 42
0.0000001
 43
0.0000001
 44
0.0000000001
 40
0.0
 40
0.0
 40
0.0
 40
0.0
 40
0.47600532
 40
1.0
 40
1.0
 40
1.0
 40
1.0
 10
32.3939211633
 20
94.336374288
 30
0.0
 10
32.3939211633
 20
94.4000592795
 30
0.0
 10
32.3642617282
 20
94.5337096475
 30
0.0
 10
32.2994709268
 20
94.6526779171
 30
0.0
 10
32.2576850529
 20
94.7089693337
 30
0.0
  0
SPLINE
  5
50C
100
AcDbEntity
  8
0
100
AcDbSpline
 62
7
  6
CONTINUOUS
 70
0
 71
3
 72
9
 73
5
 74
0
 42
0.0000001
 43
0.0000001
 44
0.0000000001
 40
0.0
 40
0.0
 40
0.0
 40
0.0
 40
0.4586874744
 40
1.0
 40
1.0
 40
1.0
 40
1.0
 10
32.3425382198
 20
94.170078993
 30
0.0
 10
32.3602337486
 20
94.1905123523
 30
0.0
 10
32.3873652534
 20
94.2450653515
 30
0.0
 10
32.3939211633
 20
94.3044745546
 30
0.0
 10
32.3939211633
 20
94.336374288
 30
0.0
  0
SPLINE
  5
50D
100
AcDbEntity
  8
0
100
AcDbSpline
 62
7
  6
CONTINUOUS
 70
0
 71
3
 72
9
 73
5
 74
0
 42
0.0000001
 43
0.0000001
 44
0.0000000001
 40
0.0
 40
0.0
 40
0.0
 40
0.0
 40
0.283844504
 40
1.0
 40
1.0
 40
1.0
 40
1.0
 10
32.3094800996
 20
94.063089991
 30
0.0
 10
32.3094800996
 20
94.073799794
 30
0.0
 10
32.3116582644
 20
94.1112808416
 30
0.0
 10
32.3248487013
 20
94.149652574
 30
0.0
 10
32.3425382198
 20
94.170078993
 30
0.0
  0
SPLINE
  5
50E
100
AcDbEntity
  8
0
100
AcDbSpline
 62
7
  6
CONTINUOUS
 70
0
 71
3
 72
9
 73
5
 74
0
 42
0.0000001
 43
0.0000001
 44
0.0000000001
 40
0.0
 40
0.0
 40
0.0
 40
0.0
 40
0.5244141529
 40
1.0
 40
1.0
 40
1.0
 40
1.0
 10
32.392607949
 20
93.8295723576
 30
0.0
 10
32.3670759288
 20
93.8651773631
 30
0.0
 10
32.3274891611
 20
93.939875777
 30
0.0
 10
32.3094800996
 20
94.0233562056
 30
0.0
 10
32.3094800996
 20
94.063089991
 30
0.0
  0
SPLINE
  5
50F
100
AcDbEntity
  8
0
100
AcDbSpline
 62
7
  6
CONTINUOUS
 70
0
 71
3
 72
9
 73
5
 74
0
 42
0.0000001
 43
0.0000001
 44
0.0000000001
 40
0.0
 40
0.0
 40
0.0
 40
0.0
 40
0.4760053201
 40
1.0
 40
1.0
 40
1.0
 40
1.0
 10
32.5288440596
 20
93.4569773117
 30
0.0
 10
32.5288440596
 20
93.5206623033
 30
0.0
 10
32.4991846244
 20
93.6543126714
 30
0.0
 10
32.434393823
 20
93.7732809411
 30
0.0
 10
32.392607949
 20
93.8295723576
 30
0.0
  0
SPLINE
  5
510
100
AcDbEntity
  8
0
100
AcDbSpline
 62
7
  6
CONTINUOUS
 70
0
 71
3
 72
9
 73
5
 74
0
 42
0.0000001
 43
0.0000001
 44
0.0000000001
 40
0.0
 40
0.0
 40
0.0
 40
0.0
 40
0.4586874744
 40
1.0
 40
1.0
 40
1.0
 40
1.0
 10
32.4774611161
 20
93.2906820168
 30
0.0
 10
32.4951566449
 20
93.311115376
 30
0.0
 10
32.5222881497
 20
93.3656683752
 30
0.0
 10
32.5288440596
 20
93.4250775784
 30
0.0
 10
32.5288440596
 20
93.4569773117
 30
0.0
  0
SPLINE
  5
511
100
AcDbEntity
  8
0
100
AcDbSpline
 62
7
  6
CONTINUOUS
 70
0
 71
3
 72
9
 73
5
 74
0
 42
0.0000001
 43
0.0000001
 44
0.0000000001
 40
0.0
 40
0.0
 40
0.0
 40
0.0
 40
0.283844504
 40
1.0
 40
1.0
 40
1.0
 40
1.0
 10
32.4444029959
 20
93.1836930147
 30
0.0
 10
32.4444029959
 20
93.1944028178
 30
0.0
 10
32.4465811607
 20
93.2318838653
 30
0.0
 10
32.4597715976
 20
93.2702555977
 30
0.0
 10
32.4774611161
 20
93.2906820168
 30
0.0
  0
SPLINE
  5
512
100
AcDbEntity
  8
0
100
AcDbSpline
 62
7
  6
CONTINUOUS
 70
0
 71
3
 72
9
 73
5
 74
0
 42
0.0000001
 43
0.0000001
 44
0.0000000001
 40
0.0
 40
0.0
 40
0.0
 40
0.0
 40
0.5244141529
 40
1.0
 40
1.0
 40
1.0
 40
1.0
 10
32.5275308451
 20
92.9501753816
 30
0.0
 10
32.501998825
 20
92.985780387
 30
0.0
 10
32.4624120573
 20
93.0604788009
 30
0.0
 10
32.4444029959
 20
93.1439592294
 30
0.0
 10
32.4444029959
 20
93.1836930147
 30
0.0
  0
SPLINE
  5
513
100
AcDbEntity
  8
0
100
AcDbSpline
 62
7
  6
CONTINUOUS
 70
0
 71
3
 72
9
 73
5
 74
0
 42
0.0000001
 43
0.0000001
 44
0.0000000001
 40
0.0
 40
0.0
 40
0.0
 40
0.0
 40
0.4760053201
 40
1.0
 40
1.0
 40
1.0
 40
1.0
 10
32.6637669559
 20
92.5775803355
 30
0.0
 10
32.6637669559
 20
92.6412653271
 30
0.0
 10
32.6341075207
 20
92.7749156953
 30
0.0
 10
32.5693167191
 20
92.893883965
 30
0.0
 10
32.5275308451
 20
92.9501753816
 30
0.0
  0
SPLINE
  5
514
100
AcDbEntity
  8
0
100
AcDbSpline
 62
7
  6
CONTINUOUS
 70
0
 71
3
 72
9
 73
5
 74
0
 42
0.0000001
 43
0.0000001
 44
0.0000000001
 40
0.0
 40
0.0
 40
0.0
 40
0.0
 40
0.4586874744
 40
1.0
 40
1.0
 40
1.0
 40
1.0
 10
32.6123840123
 20
92.4112850405
 30
0.0
 10
32.6300795412
 20
92.4317183998
 30
0.0
 10
32.657211046
 20
92.486271399
 30
0.0
 10
32.6637669559
 20
92.5456806021
 30
0.0
 10
32.6637669559
 20
92.5775803355
 30
0.0
  0
SPLINE
  5
515
100
AcDbEntity
  8
0
100
AcDbSpline
 62
7
  6
CONTINUOUS
 70
0
 71
3
 72
9
 73
5
 74
0
 42
0.0000001
 43
0.0000001
 44
0.0000000001
 40
0.0
 40
0.0
 40
0.0
 40
0.0
 40
0.283844504
 40
1.0
 40
1.0
 40
1.0
 40
1.0
 10
32.5793258922
 20
92.3042960385
 30
0.0
 10
32.5793258922
 20
92.3150058415
 30
0.0
 10
32.581504057
 20
92.3524868891
 30
0.0
 10
32.5946944938
 20
92.3908586215
 30
0.0
 10
32.6123840123
 20
92.4112850405
 30
0.0
  0
SPLINE
  5
516
100
AcDbEntity
  8
0
100
AcDbSpline
 62
7
  6
CONTINUOUS
 70
0
 71
3
 72
9
 73
5
 74
0
 42
0.0000001
 43
0.0000001
 44
0.0000000001
 40
0.0
 40
0.0
 40
0.0
 40
0.0
 40
0.5244141529
 40
1.0
 40
1.0
 40
1.0
 40
1.0
 10
32.6624537417
 20
92.070778405
 30
0.0
 10
32.6369217214
 20
92.1063834105
 30
0.0
 10
32.5973349537
 20
92.1810818244
 30
0.0
 10
32.5793258922
 20
92.2645622531
 30
0.0
 10
32.5793258922
 20
92.3042960385
 30
0.0
  0
SPLINE
  5
517
100
AcDbEntity
  8
0
100
AcDbSpline
 62
7
  6
CONTINUOUS
 70
0
 71
3
 72
11
 73
7
 74
0
 42
0.0000001
 43
0.0000001
 44
0.0000000001
 40
0.0
 40
0.0
 40
0.0
 40
0.0
 40
0.2307821985
 40
0.4787543793
 40
0.7376115627
 40
1.0
 40
1.0
 40
1.0
 40
1.0
 10
35.8066621685
 20
88.33994076
 30
0.0
 10
35.4964237482
 20
88.5399346862
 30
0.0
 10
34.8890904958
 20
89.012421222
 30
0.0
 10
34.0682609141
 20
89.8643075871
 30
0.0
 10
33.3322344113
 20
90.8539517678
 30
0.0
 10
32.9177025002
 20
91.5800171719
 30
0.0
 10
32.7322004658
 20
91.9564586996
 30
0.0
  0
SPLINE
  5
518
100
AcDbEntity
  8
0
100
AcDbSpline
 62
7
  6
CONTINUOUS
 70
0
 71
3
 72
11
 73
7
 74
0
 42
0.0000001
 43
0.0000001
 44
0.0000000001
 40
0.0
 40
0.0
 40
0.0
 40
0.0
 40
0.2558380938
 40
0.5160710343
 40
0.7679481133
 40
1.0
 40
1.0
 40
1.0
 40
1.0
 10
36.4104408015
 20
87.5081810255
 30
0.0
 10
36.3836393587
 20
87.5932216538
 30
0.0
 10
36.3145204344
 20
87.760286224
 30
0.0
 10
36.1745872295
 20
87.9896507693
 30
0.0
 10
36.0057852882
 20
88.1879543502
 30
0.0
 10
35.8746020895
 20
88.296068307
 30
0.0
 10
35.8066621685
 20
88.33994076
 30
0.0
  0
SPLINE
  5
519
100
AcDbEntity
  8
0
100
AcDbSpline
 62
7
  6
CONTINUOUS
 70
0
 71
3
 72
9
 73
5
 74
0
 42
0.0000001
 43
0.0000001
 44
0.0000000001
 40
0.0
 40
0.0
 40
0.0
 40
0.0
 40
0.2599947723
 40
1.0
 40
1.0
 40
1.0
 40
1.0
 10
32.1330339544
 20
69.7536740461
 30
0.0
 10
32.1330339544
 20
69.7688046533
 30
0.0
 10
32.1343295565
 20
69.8269844356
 30
0.0
 10
32.1409296931
 20
69.8851138729
 30
0.0
 10
32.1494160781
 20
69.9273346409
 30
0.0
  0
SPLINE
  5
51A
100
AcDbEntity
  8
0
100
AcDbSpline
 62
7
  6
CONTINUOUS
 70
0
 71
3
 72
9
 73
5
 74
0
 42
0.0000001
 43
0.0000001
 44
0.0000000001
 40
0.0
 40
0.0
 40
0.0
 40
0.0
 40
0.258111183
 40
1.0
 40
1.0
 40
1.0
 40
1.0
 10
32.1494160781
 20
69.9273346409
 30
0.0
 10
32.1513224586
 20
69.9368191093
 30
0.0
 10
32.1594179786
 20
69.9734148354
 30
0.0
 10
32.1704600617
 20
70.0093877029
 30
0.0
 10
32.1805293956
 20
70.0353069362
 30
0.0
  0
SPLINE
  5
51B
100
AcDbEntity
  8
0
100
AcDbSpline
 62
7
  6
CONTINUOUS
 70
0
 71
3
 72
9
 73
5
 74
0
 42
0.0000001
 43
0.0000001
 44
0.0000000001
 40
0.0
 40
0.0
 40
0.0
 40
0.0
 40
0.2638519635
 40
1.0
 40
1.0
 40
1.0
 40
1.0
 10
32.1805293956
 20
70.0353069362
 30
0.0
 10
32.1866602321
 20
70.0510881768
 30
0.0
 10
32.2124714157
 20
70.1098159625
 30
0.0
 10
32.2496874692
 20
70.1639156481
 30
0.0
 10
32.2830781756
 20
70.1973261315
 30
0.0
  0
SPLINE
  5
51C
100
AcDbEntity
  8
0
100
AcDbSpline
 62
7
  6
CONTINUOUS
 70
0
 71
3
 72
9
 73
5
 74
0
 42
0.0000001
 43
0.0000001
 44
0.0000000001
 40
0.0
 40
0.0
 40
0.0
 40
0.0
 40
0.252758801
 40
1.0
 40
1.0
 40
1.0
 40
1.0
 10
32.2830781756
 20
70.1973261315
 30
0.0
 10
32.2889345974
 20
70.203186022
 30
0.0
 10
32.3128328294
 20
70.2256292378
 30
0.0
 10
32.339668902
 20
70.2449528851
 30
0.0
 10
32.3608797076
 20
70.2571993949
 30
0.0
  0
SPLINE
  5
51D
100
AcDbEntity
  8
0
100
AcDbSpline
 62
7
  6
CONTINUOUS
 70
0
 71
3
 72
9
 73
5
 74
0
 42
0.0000001
 43
0.0000001
 44
0.0000000001
 40
0.0
 40
0.0
 40
0.0
 40
0.0
 40
0.2562368566
 40
1.0
 40
1.0
 40
1.0
 40
1.0
 10
48.3977461054
 20
58.931874489
 30
0.0
 10
48.4033675292
 20
58.9459325883
 30
0.0
 10
48.4241869068
 20
59.0012321283
 30
0.0
 10
48.4405145317
 20
59.0582617386
 30
0.0
 10
48.4495641709
 20
59.1012668959
 30
0.0
  0
SPLINE
  5
51E
100
AcDbEntity
  8
0
100
AcDbSpline
 62
7
  6
CONTINUOUS
 70
0
 71
3
 72
9
 73
5
 74
0
 42
0.0000001
 43
0.0000001
 44
0.0000000001
 40
0.0
 40
0.0
 40
0.0
 40
0.0
 40
0.2608642308
 40
1.0
 40
1.0
 40
1.0
 40
1.0
 10
48.4495641709
 20
59.1012668959
 30
0.0
 10
48.4524595507
 20
59.1150261481
 30
0.0
 10
48.4623306431
 20
59.1680112395
 30
0.0
 10
48.4672615398
 20
59.2219990179
 30
0.0
 10
48.4672615398
 20
59.2618384639
 30
0.0
  0
SPLINE
  5
51F
100
AcDbEntity
  8
0
100
AcDbSpline
 62
7
  6
CONTINUOUS
 70
0
 71
3
 72
11
 73
7
 74
0
 42
0.0000001
 43
0.0000001
 44
0.0000000001
 40
0.0
 40
0.0
 40
0.0
 40
0.0
 40
0.2372444228
 40
0.5000010918
 40
0.7627571666
 40
1.0
 40
1.0
 40
1.0
 40
1.0
 10
48.0429992374
 20
59.8333943887
 30
0.0
 10
48.0429992374
 20
59.868170736
 30
0.0
 10
48.0299519791
 20
59.9415099433
 30
0.0
 10
47.9844903076
 20
60.0445638519
 30
0.0
 10
47.9179735673
 20
60.1354612786
 30
0.0
 10
47.8609834886
 20
60.1834295781
 30
0.0
 10
47.8308663199
 20
60.2008173402
 30
0.0
  0
SPLINE
  5
520
100
AcDbEntity
  8
0
100
AcDbSpline
 62
7
  6
CONTINUOUS
 70
0
 71
3
 72
9
 73
5
 74
0
 42
0.0000001
 43
0.0000001
 44
0.0000000001
 40
0.0
 40
0.0
 40
0.0
 40
0.0
 40
0.243618421
 40
1.0
 40
1.0
 40
1.0
 40
1.0
 10
48.2551286222
 20
60.4457638325
 30
0.0
 10
48.2574842479
 20
60.4444038422
 30
0.0
 10
48.2670707236
 20
60.4386784649
 30
0.0
 10
48.276328931
 20
60.4324085472
 30
0.0
 10
48.283143021
 20
60.4274197966
 30
0.0
  0
SPLINE
  5
521
100
AcDbEntity
  8
0
100
AcDbSpline
 62
7
  6
CONTINUOUS
 70
0
 71
3
 72
9
 73
5
 74
0
 42
0.0000001
 43
0.0000001
 44
0.0000000001
 40
0.0
 40
0.0
 40
0.0
 40
0.0
 40
0.2392152542
 40
1.0
 40
1.0
 40
1.0
 40
1.0
 10
48.3006975851
 20
60.4137041522
 30
0.0
 10
48.3104897333
 20
60.405565327
 30
0.0
 10
48.3497136025
 20
60.3695048404
 30
0.0
 10
48.382198075
 20
60.3263638053
 30
0.0
 10
48.4027608332
 20
60.2914781593
 30
0.0
  0
SPLINE
  5
522
100
AcDbEntity
  8
0
100
AcDbSpline
 62
7
  6
CONTINUOUS
 70
0
 71
3
 72
9
 73
5
 74
0
 42
0.0000001
 43
0.0000001
 44
0.0000000001
 40
0.0
 40
0.0
 40
0.0
 40
0.0
 40
0.2581462839
 40
1.0
 40
1.0
 40
1.0
 40
1.0
 10
48.4337333471
 20
60.229853039
 30
0.0
 10
48.437118575
 20
60.2218025534
 30
0.0
 10
48.4494111215
 20
60.1902841221
 30
0.0
 10
48.4583124169
 20
60.1573949789
 30
0.0
 10
48.462478352
 20
60.1326457011
 30
0.0
  0
SPLINE
  5
523
100
AcDbEntity
  8
0
100
AcDbSpline
 62
7
  6
CONTINUOUS
 70
0
 71
3
 72
9
 73
5
 74
0
 42
0.0000001
 43
0.0000001
 44
0.0000000001
 40
0.0
 40
0.0
 40
0.0
 40
0.0
 40
0.2594375125
 40
1.0
 40
1.0
 40
1.0
 40
1.0
 10
48.462478352
 20
60.1326457011
 30
0.0
 10
48.4632613916
 20
60.1279937648
 30
0.0
 10
48.4659440575
 20
60.1100101587
 30
0.0
 10
48.4672615397
 20
60.0918066044
 30
0.0
 10
48.4672615397
 20
60.078340881
 30
0.0
  0
SPLINE
  5
524
100
AcDbEntity
  8
0
100
AcDbSpline
 62
7
  6
CONTINUOUS
 70
0
 71
3
 72
11
 73
7
 74
0
 42
0.0000001
 43
0.0000001
 44
0.0000000001
 40
0.0
 40
0.0
 40
0.0
 40
0.0
 40
0.2254552585
 40
0.472704578
 40
0.73376098
 40
1.0
 40
1.0
 40
1.0
 40
1.0
 10
32.2825241612
 20
69.7840109899
 30
0.0
 10
32.2761467623
 20
69.7876928996
 30
0.0
 10
32.2650281285
 20
69.7995449988
 30
0.0
 10
32.2576005964
 20
69.8228008924
 30
0.0
 10
32.2563489591
 20
69.8482395643
 30
0.0
 10
32.2586224213
 20
69.8653938931
 30
0.0
 10
32.2603445804
 20
69.8739177059
 30
0.0
  0
SPLINE
  5
525
100
AcDbEntity
  8
0
100
AcDbSpline
 62
7
  6
CONTINUOUS
 70
0
 71
3
 72
11
 73
7
 74
0
 42
0.0000001
 43
0.0000001
 44
0.0000000001
 40
0.0
 40
0.0
 40
0.0
 40
0.0
 40
0.2259425593
 40
0.4675556423
 40
0.7279682731
 40
1.0
 40
1.0
 40
1.0
 40
1.0
 10
33.5391851429
 20
69.0584938472
 30
0.0
 10
33.5464302572
 20
69.0543109732
 30
0.0
 10
33.5650625732
 20
69.0512185158
 30
0.0
 10
33.5901710125
 20
69.0633813542
 30
0.0
 10
33.6111766457
 20
69.0831417534
 30
0.0
 10
33.6226456948
 20
69.0993291569
 30
0.0
 10
33.6278717294
 20
69.1079397395
 30
0.0
  0
SPLINE
  5
526
100
AcDbEntity
  8
0
100
AcDbSpline
 62
7
  6
CONTINUOUS
 70
0
 71
3
 72
9
 73
5
 74
0
 42
0.0000001
 43
0.0000001
 44
0.0000000001
 40
0.0
 40
0.0
 40
0.0
 40
0.0
 40
0.2475313424
 40
1.0
 40
1.0
 40
1.0
 40
1.0
 10
33.6278717294
 20
69.1079397395
 30
0.0
 10
33.6315411245
 20
69.1139855525
 30
0.0
 10
33.6451159871
 20
69.1391630515
 30
0.0
 10
33.6543370508
 20
69.166554997
 30
0.0
 10
33.6591987842
 20
69.18749686
 30
0.0
  0
SPLINE
  5
527
100
AcDbEntity
  8
0
100
AcDbSpline
 62
7
  6
CONTINUOUS
 70
0
 71
3
 72
9
 73
5
 74
0
 42
0.0000001
 43
0.0000001
 44
0.0000000001
 40
0.0
 40
0.0
 40
0.0
 40
0.0
 40
0.2879796438
 40
1.0
 40
1.0
 40
1.0
 40
1.0
 10
33.5391851429
 20
69.0584938472
 30
0.0
 10
33.544785984
 20
69.0150327511
 30
0.0
 10
33.5550424564
 20
68.8643120717
 30
0.0
 10
33.5224560867
 20
68.7021300133
 30
0.0
 10
33.4587622947
 20
68.6144847606
 30
0.0
  0
SPLINE
  5
528
100
AcDbEntity
  8
0
100
AcDbSpline
 62
7
  6
CONTINUOUS
 70
0
 71
3
 72
14
 73
10
 74
0
 42
0.0000001
 43
0.0000001
 44
0.0000000001
 40
0.0
 40
0.0
 40
0.0
 40
0.0
 40
0.1032816137
 40
0.2052823244
 40
0.3114135264
 40
0.4260598646
 40
0.5519959474
 40
0.6901532795
 40
1.0
 40
1.0
 40
1.0
 40
1.0
 10
33.4427129831
 20
68.5940487734
 30
0.0
 10
33.4239163565
 20
68.57189833
 30
0.0
 10
33.3805046917
 20
68.5324959968
 30
0.0
 10
33.3003866405
 20
68.4942035445
 30
0.0
 10
33.2096890561
 20
68.4794744624
 30
0.0
 10
33.1117044681
 20
68.4877935032
 30
0.0
 10
33.0090509847
 20
68.518545945
 30
0.0
 10
32.8638214746
 20
68.590271416
 30
0.0
 10
32.7641451744
 20
68.6702375698
 30
0.0
 10
32.7018553523
 20
68.7311938493
 30
0.0
  0
SPLINE
  5
529
100
AcDbEntity
  8
0
100
AcDbSpline
 62
7
  6
CONTINUOUS
 70
0
 71
3
 72
9
 73
5
 74
0
 42
0.0000001
 43
0.0000001
 44
0.0000000001
 40
0.0
 40
0.0
 40
0.0
 40
0.0
 40
0.4944851519
 40
1.0
 40
1.0
 40
1.0
 40
1.0
 10
32.6885354129
 20
68.7444227024
 30
0.0
 10
32.6212062377
 20
68.8122812955
 30
0.0
 10
32.4997317616
 20
68.9644976615
 30
0.0
 10
32.4084994953
 20
69.1363509536
 30
0.0
 10
32.3712165565
 20
69.2266847206
 30
0.0
  0
SPLINE
  5
52A
100
AcDbEntity
  8
0
100
AcDbSpline
 62
7
  6
CONTINUOUS
 70
0
 71
3
 72
9
 73
5
 74
0
 42
0.0000001
 43
0.0000001
 44
0.0000000001
 40
0.0
 40
0.0
 40
0.0
 40
0.0
 40
0.5335490529
 40
1.0
 40
1.0
 40
1.0
 40
1.0
 10
32.3571197598
 20
69.2621435765
 30
0.0
 10
32.3233668481
 20
69.3504083277
 30
0.0
 10
32.2756842068
 20
69.5223522497
 30
0.0
 10
32.2701573727
 20
69.7023274852
 30
0.0
 10
32.2825241612
 20
69.7840109899
 30
0.0
  0
SPLINE
  5
52B
100
AcDbEntity
  8
0
100
AcDbSpline
 62
7
  6
CONTINUOUS
 70
0
 71
3
 72
14
 73
10
 74
0
 42
0.0000001
 43
0.0000001
 44
0.0000000001
 40
0.0
 40
0.0
 40
0.0
 40
0.0
 40
0.2716505219
 40
0.3994750208
 40
0.5228745458
 40
0.6431241559
 40
0.7617333664
 40
0.880236989
 40
1.0
 40
1.0
 40
1.0
 40
1.0
 10
40.0016148808
 20
87.3430917346
 30
0.0
 10
40.1075465324
 20
87.5118050727
 30
0.0
 10
40.2388434621
 20
87.7778295962
 30
0.0
 10
40.3374979775
 20
88.1494018505
 30
0.0
 10
40.3690733392
 20
88.4210256676
 30
0.0
 10
40.3593862589
 20
88.6875834286
 30
0.0
 10
40.3078867784
 20
88.9457306694
 30
0.0
 10
40.2156786771
 20
89.1918034118
 30
0.0
 10
40.128938245
 20
89.3444450812
 30
0.0
 10
40.0798547253
 20
89.4172766089
 30
0.0
  0
SPLINE
  5
52C
100
AcDbEntity
  8
0
100
AcDbSpline
 62
7
  6
CONTINUOUS
 70
0
 71
3
 72
11
 73
7
 74
0
 42
0.0000001
 43
0.0000001
 44
0.0000000001
 40
0.0
 40
0.0
 40
0.0
 40
0.0
 40
0.2404777452
 40
0.4994474606
 40
0.7587088198
 40
1.0
 40
1.0
 40
1.0
 40
1.0
 10
64.7138443063
 20
63.5051058291
 30
0.0
 10
64.5114803262
 20
63.5972000272
 30
0.0
 10
64.0651500198
 20
63.7327715935
 30
0.0
 10
63.3630299474
 20
63.7999743722
 30
0.0
 10
62.6597803875
 20
63.7367819744
 30
0.0
 10
62.2116384562
 20
63.6039070161
 30
0.0
 10
62.0078525904
 20
63.5131390312
 30
0.0
  0
SPLINE
  5
52D
100
AcDbEntity
  8
0
100
AcDbSpline
 62
7
  6
CONTINUOUS
 70
0
 71
3
 72
11
 73
7
 74
0
 42
0.0000001
 43
0.0000001
 44
0.0000000001
 40
0.0
 40
0.0
 40
0.0
 40
0.0
 40
0.2396080419
 40
0.4971101175
 40
0.7561074219
 40
1.0
 40
1.0
 40
1.0
 40
1.0
 10
70.0013419658
 20
66.574018182
 30
0.0
 10
69.8079650819
 20
66.660385225
 30
0.0
 10
69.3837246095
 20
66.7894408783
 30
0.0
 10
68.7156749944
 20
66.8593286861
 30
0.0
 10
68.0419765812
 20
66.8104295411
 30
0.0
 10
67.608663953
 20
66.6954660092
 30
0.0
 10
67.4083125646
 20
66.6158943292
 30
0.0
  0
SPLINE
  5
52E
100
AcDbEntity
  8
0
100
AcDbSpline
 62
7
  6
CONTINUOUS
 70
0
 71
3
 72
11
 73
7
 74
0
 42
0.0000001
 43
0.0000001
 44
0.0000000001
 40
0.0
 40
0.0
 40
0.0
 40
0.0
 40
0.2395799012
 40
0.497081244
 40
0.7560930622
 40
1.0
 40
1.0
 40
1.0
 40
1.0
 10
75.9420000715
 20
48.0390826687
 30
0.0
 10
75.7486072477
 20
48.1255526254
 30
0.0
 10
75.3242612427
 20
48.2547793759
 30
0.0
 10
74.6559777949
 20
48.3248189628
 30
0.0
 10
73.9819871891
 20
48.275977552
 30
0.0
 10
73.5484744717
 20
48.1609842331
 30
0.0
 10
73.3480342559
 20
48.0813772743
 30
0.0
  0
SPLINE
  5
52F
100
AcDbEntity
  8
0
100
AcDbSpline
 62
7
  6
CONTINUOUS
 70
0
 71
3
 72
11
 73
7
 74
0
 42
0.0000001
 43
0.0000001
 44
0.0000000001
 40
0.0
 40
0.0
 40
0.0
 40
0.0
 40
0.2397426737
 40
0.4974097837
 40
0.7564144834
 40
1.0
 40
1.0
 40
1.0
 40
1.0
 10
70.6381987472
 20
44.9774855766
 30
0.0
 10
70.4438043825
 20
45.0643459565
 30
0.0
 10
70.0171834593
 20
45.193902102
 30
0.0
 10
69.3455517055
 20
45.2632780405
 30
0.0
 10
68.6688319321
 20
45.212702233
 30
0.0
 10
68.2340393642
 20
45.0957719574
 30
0.0
 10
68.0333581212
 20
45.0149889284
 30
0.0
  0
ELLIPSE
  5
530
100
AcDbEntity
  8
0
100
AcDbEllipse
 62
7
  6
CONTINUOUS
 10
10.6189193772
 20
79.7827177303
 30
0.0
 11
0.2019804225
 21
-0.0034287199
 31
0.0
 40
0.5771200208
 41
3.0409952929
 42
3.9465961204
  0
ELLIPSE
  5
531
100
AcDbEntity
  8
0
100
AcDbEllipse
 62
7
  6
CONTINUOUS
 10
32.8401442683
 20
69.2637848007
 30
0.0
 11
0.4041208668
 21
1.1441590009
 31
0.0
 40
0.6665900675
 41
7.0135371974
 42
7.440761843
  0
ELLIPSE
  5
532
100
AcDbEntity
  8
0
100
AcDbEllipse
 62
7
  6
CONTINUOUS
 10
43.5410732086
 20
63.8190642571
 30
0.0
 11
-0.6447984068
 21
2.2704128139
 31
0.0
 40
0.3366580175
 41
-1.4861535102
 42
-0.8426524014
  0
ELLIPSE
  5
533
100
AcDbEntity
  8
0
100
AcDbEllipse
 62
7
  6
CONTINUOUS
 10
31.5885500453
 20
73.9872030153
 30
0.0
 11
0.0730786979
 21
0.1875914284
 31
0.0
 40
0.6552541388
 41
-4.1760058273
 42
-4.0271158797
  0
ENDSEC
  0
SECTION
  2
OBJECTS
  0
DICTIONARY
  5
C
100
AcDbDictionary
280
0
281
1
  3
ACAD_GROUP
350
D
  3
ACAD_MLINESTYLE
350
17
  3
ACAD_LAYOUT
350
1A
  3
ACAD_PLOTSETTINGS
350
19
  3
ACAD_PLOTSTYLENAME
350
E
  0
DICTIONARY
  5
D
102
{ACAD_REACTORS
330
C
102
}
100
AcDbDictionary
280
0
281
1
  0
ACDBDICTIONARYWDFLT
  5
E
102
{ACAD_REACTORS
330
C
102
}
100
AcDbDictionary
281
1
  3
Normal
350
F
100
AcDbDictionaryWithDefault
340
F
  0
DICTIONARY
  5
17
102
{ACAD_REACTORS
330
C
102
}
100
AcDbDictionary
280
0
281
1
  3
Standard
350
18
  0
DICTIONARY
  5
19
102
{ACAD_REACTORS
330
C
102
}
100
AcDbDictionary
281
1
  0
DICTIONARY
  5
1A
102
{ACAD_REACTORS
330
C
102
}
100
AcDbDictionary
281
1
  3
Model
350
534
  3
Layout1
350
535
  0
ACDBPLACEHOLDER
  5
F
102
{ACAD_REACTORS
330
E
102
}
  0
MLINESTYLE
  5
18
102
{ACAD_REACTORS
330
17
102
}
100
AcDbMlineStyle
  2
STANDARD
 70
0
  3

 62
256
 51
90.0
 52
90.0
 71
2
 49
0.5
 62
256
  6
BYLAYER
 49
-0.5
 62
256
  6
BYLAYER
  0
LAYOUT
  5
534
102
{ACAD_REACTORS
330
1A
102
}
100
AcDbPlotSettings
  1

  2
none_device
  4

  6

 40
0.0
 41
0.0
 42
0.0
 43
0.0
 44
210.0
 45
297.0
 46
0.0
 47
0.0
 48
0.0
 49
0.0
140
0.0
141
0.0
142
1.0
143
1.0
 70
1024
 72
1
 73
0
 74
0
  7

 75
0
147
1.0
148
0.0
149
0.0
100
AcDbLayout
  1
Model
 70
0
 71
0
 10
0.0
 20
0.0
 11
210.0
 21
297.0
 12
0.0
 22
0.0
 32
0.0
 14
0.0
 24
0.0
 34
0.0
 15
0.0
 25
0.0
 35
0.0
146
0.0
 13
0.0
 23
0.0
 33
0.0
 16
1.0
 26
0.0
 36
0.0
 17
0.0
 27
1.0
 37
0.0
 76
0
330
210
345
0
346
0
  0
LAYOUT
  5
535
102
{ACAD_REACTORS
330
1A
102
}
100
AcDbPlotSettings
  1

  2
none_device
  4

  6

 40
0.0
 41
0.0
 42
0.0
 43
0.0
 44
210.0
 45
297.0
 46
0.0
 47
0.0
 48
0.0
 49
0.0
140
0.0
141
0.0
142
1.0
143
1.0
 70
0
 72
1
 73
0
 74
0
  7

 75
0
147
1.0
148
0.0
149
0.0
100
AcDbLayout
  1
Layout1
 70
0
 71
1
 10
0.0
 20
0.0
 11
210.0
 21
297.0
 12
0.0
 22
0.0
 32
0.0
 14
0.0
 24
0.0
 34
0.0
 15
0.0
 25
0.0
 35
0.0
146
0.0
 13
0.0
 23
0.0
 33
0.0
 16
1.0
 26
0.0
 36
0.0
 17
0.0
 27
1.0
 37
0.0
 76
0
330
211
345
0
346
0
  0
ENDSEC
  0
EOF
