999
DXF file: C:\Users\sesa63760\Dev\_Creo\CAD\MCADPE0010588_3D-CAD\drw0001_3.dxf
999
Pro/ENGINEER 2019471 by Parametric Technology Corporation
  0
SECTION
  2
HEADER
  9
$ACADVER
  1
AC1024
  9
$DWGCODEPAGE
  3
ANSI_1252
  9
$EXTMAX
 10
42.4700602364
 20
60.0647994772
 30
0.0
  9
$EXTMIN
 10
0.0
 20
0.0
 30
0.0
  9
$LIMMIN
 10
0.0
 20
0.0
  9
$LIMMAX
 10
42.4700602364
 20
60.0647994772
  9
$VIEWCTR
 10
21.2350301182
 20
30.0323997386
  9
$VIEWSIZE
 40
60.0647994772
  9
$CLAYER
  8
0
  9
$LTSCALE
 40
3.915335077
  9
$CELTYPE
  6
BYLAYER
  9
$DIMSCALE
 40
1.0
  9
$DIMASZ
 40
0.5055959552
  9
$DIMEXO
 40
1.0
  9
$DIMDLI
 40
2.7051405987
  9
$DIMEXE
 40
1.0
  9
$DIMCEN
 40
0.6406911944
  9
$DIMLFAC
 40
1.0
  9
$DIMBLK
  1
_FILLED
  9
$DIMALT
 70
0
  9
$DIMALTF
 40
0.0393700787
  9
$DIMTXT
 40
0.7078343373
  9
$DIMTOL
 70
1
  9
$DIMLIM
 70
0
  9
$DIMTFAC
 40
1.0
  9
$DIMTP
 40
0.01
  9
$DIMTM
 40
0.01
  9
$DIMGAP
 40
0.625
  9
$DIMDSEP
 70
46
  9
$AUNITS
 70
0
  9
$PDMODE
 70
3
  9
$PDSIZE
 40
0.3125
  9
$HANDSEED
  5
24E
  9
$TILEMODE
 70
1
  9
$MEASUREMENT
 70
1
  9
$INSUNITS
 70
4
  0
ENDSEC
  0
SECTION
  2
CLASSES
  0
CLASS
  1
ACDBDICTIONARYWDFLT
  2
AcDbDictionaryWithDefault
  3
AutoCAD 2000
 90
0
 91
1
280
0
281
0
  0
CLASS
  1
ACDBPLACEHOLDER
  2
AcDbPlaceHolder
  3
AutoCAD 2000
 90
0
 91
1
280
0
281
0
  0
CLASS
  1
LAYOUT
  2
AcDbLayout
  3
AutoCAD 2000
 90
0
 91
0
280
0
281
0
  0
ENDSEC
  0
SECTION
  2
TABLES
  0
TABLE
  2
VPORT
  5
8
100
AcDbSymbolTable
 70
2
  0
VPORT
  5
1F4
100
AcDbSymbolTableRecord
100
AcDbViewportTableRecord
  2
*ACTIVE
 70
0
 10
0.0
 20
0.0
 11
1.0
 21
1.0
 12
21.2350301182
 22
30.0323997386
 13
0.0
 23
0.0
 14
1.0
 24
1.0
 15
0.0
 25
0.0
 16
0.0
 26
0.0
 36
1.0
 17
0.0
 27
0.0
 37
0.0
 40
60.0647994772
 41
0.7070707071
 42
50.0
 43
0.0
 44
0.0
 50
0.0
 51
0.0
 71
0
 72
100
 73
1
 74
1
 75
0
 76
0
 77
0
 78
0
  0
ENDTAB
  0
TABLE
  2
LTYPE
  5
5
100
AcDbSymbolTable
 70
6
  0
LTYPE
  5
14
100
AcDbSymbolTableRecord
100
AcDbLinetypeTableRecord
  2
BYBLOCK
 70
0
  3

 72
65
 73
0
 40
0.0
  0
LTYPE
  5
15
100
AcDbSymbolTableRecord
100
AcDbLinetypeTableRecord
  2
BYLAYER
 70
0
  3

 72
65
 73
0
 40
0.0
  0
LTYPE
  5
16
100
AcDbSymbolTableRecord
100
AcDbLinetypeTableRecord
  2
CONTINUOUS
 70
64
  3
Solid line
 72
65
 73
0
 40
0.0
  0
LTYPE
  5
1F5
100
AcDbSymbolTableRecord
100
AcDbLinetypeTableRecord
  2
CENTER
 70
64
  3
____ _ ____ _ ____ _ ____ _ ____ _ ____ _ ____
 72
65
 73
4
 40
0.6
 49
0.375
 74
0
 49
-0.075
 74
0
 49
0.075
 74
0
 49
-0.075
 74
0
  0
LTYPE
  5
1F6
100
AcDbSymbolTableRecord
100
AcDbLinetypeTableRecord
  2
HIDDEN
 70
64
  3
- - - - - - - - - - - - - - - - - - - -
 72
65
 73
2
 40
0.2
 49
0.1
 74
0
 49
-0.1
 74
0
  0
LTYPE
  5
1F7
100
AcDbSymbolTableRecord
100
AcDbLinetypeTableRecord
  2
PHANTOM
 70
64
  3
_____ _ _ _____ _ _ _____ _ _ _____
 72
65
 73
6
 40
0.8
 49
0.45
 74
0
 49
-0.05
 74
0
 49
0.1
 74
0
 49
-0.05
 74
0
 49
0.1
 74
0
 49
-0.05
 74
0
  0
LTYPE
  5
1F8
100
AcDbSymbolTableRecord
100
AcDbLinetypeTableRecord
  2
DOT
 70
64
  3
. . . . . . . . . . . . . . . . . . . .
 72
65
 73
2
 40
0.2
 49
0.1
 74
0
 49
-0.1
 74
0
  0
LTYPE
  5
1F9
100
AcDbSymbolTableRecord
100
AcDbLinetypeTableRecord
  2
DASHED
 70
64
  3
- - - - - - - - - - - - - - - - - - - -
 72
65
 73
2
 40
0.2
 49
0.1
 74
0
 49
-0.1
 74
0
  0
ENDTAB
  0
TABLE
  2
LAYER
  5
2
100
AcDbSymbolTable
 70
36
  0
LAYER
  5
10
100
AcDbSymbolTableRecord
100
AcDbLayerTableRecord
  2
0
 70
0
 62
7
  6
CONTINUOUS
370
-3
390
F
  0
LAYER
  5
1FA
100
AcDbSymbolTableRecord
100
AcDbLayerTableRecord
  2
DEFAULT_1
 70
0
 62
7
  6
CENTER
370
-3
390
F
  0
LAYER
  5
1FB
100
AcDbSymbolTableRecord
100
AcDbLayerTableRecord
  2
DEFAULT_2
 70
0
 62
7
  6
HIDDEN
370
-3
390
F
  0
LAYER
  5
1FC
100
AcDbSymbolTableRecord
100
AcDbLayerTableRecord
  2
DEFAULT_3
 70
0
 62
7
  6
PHANTOM
370
-3
390
F
  0
LAYER
  5
1FD
100
AcDbSymbolTableRecord
100
AcDbLayerTableRecord
  2
00_COMPONENTS
 70
0
 62
7
  6
CONTINUOUS
370
-3
390
F
  0
LAYER
  5
1FE
100
AcDbSymbolTableRecord
100
AcDbLayerTableRecord
  2
01_1_DEFAULT_DATUMS
 70
0
 62
7
  6
CONTINUOUS
370
-3
390
F
  0
LAYER
  5
1FF
100
AcDbSymbolTableRecord
100
AcDbLayerTableRecord
  2
01_PLANES
 70
0
 62
7
  6
CONTINUOUS
370
-3
390
F
  0
LAYER
  5
200
100
AcDbSymbolTableRecord
100
AcDbLayerTableRecord
  2
02_COORD_SYS
 70
0
 62
7
  6
CONTINUOUS
370
-3
390
F
  0
LAYER
  5
201
100
AcDbSymbolTableRecord
100
AcDbLayerTableRecord
  2
03_AXES
 70
0
 62
7
  6
CONTINUOUS
370
-3
390
F
  0
LAYER
  5
202
100
AcDbSymbolTableRecord
100
AcDbLayerTableRecord
  2
04_POINTS
 70
0
 62
7
  6
CONTINUOUS
370
-3
390
F
  0
LAYER
  5
203
100
AcDbSymbolTableRecord
100
AcDbLayerTableRecord
  2
05_CURVES
 70
0
 62
7
  6
CONTINUOUS
370
-3
390
F
  0
LAYER
  5
204
100
AcDbSymbolTableRecord
100
AcDbLayerTableRecord
  2
06_SURFS
 70
0
 62
7
  6
CONTINUOUS
370
-3
390
F
  0
LAYER
  5
205
100
AcDbSymbolTableRecord
100
AcDbLayerTableRecord
  2
07_COSMETICS
 70
0
 62
7
  6
CONTINUOUS
370
-3
390
F
  0
LAYER
  5
206
100
AcDbSymbolTableRecord
100
AcDbLayerTableRecord
  2
10_NOTES
 70
0
 62
7
  6
CONTINUOUS
370
-3
390
F
  0
LAYER
  5
207
100
AcDbSymbolTableRecord
100
AcDbLayerTableRecord
  2
11_NOTES_PUB
 70
0
 62
7
  6
CONTINUOUS
370
-3
390
F
  0
LAYER
  5
208
100
AcDbSymbolTableRecord
100
AcDbLayerTableRecord
  2
13_REF_GTOL
 70
0
 62
7
  6
CONTINUOUS
370
-3
390
F
  0
LAYER
  5
209
100
AcDbSymbolTableRecord
100
AcDbLayerTableRecord
  2
16_MISC
 70
0
 62
7
  6
CONTINUOUS
370
-3
390
F
  0
LAYER
  5
20A
100
AcDbSymbolTableRecord
100
AcDbLayerTableRecord
  2
17_NO_PRINT
 70
0
 62
7
  6
CONTINUOUS
370
-3
390
F
  0
LAYER
  5
20B
100
AcDbSymbolTableRecord
100
AcDbLayerTableRecord
  2
18_DATUM_CAMS_JOINTS
 70
0
 62
7
  6
CONTINUOUS
370
-3
390
F
  0
LAYER
  5
20C
100
AcDbSymbolTableRecord
100
AcDbLayerTableRecord
  2
19_DATUM_FUNCTIONAL
 70
0
 62
7
  6
CONTINUOUS
370
-3
390
F
  0
LAYER
  5
20D
100
AcDbSymbolTableRecord
100
AcDbLayerTableRecord
  2
20_DATUM_KINEMATIC_SCHEME
 70
0
 62
7
  6
CONTINUOUS
370
-3
390
F
  0
ENDTAB
  0
TABLE
  2
STYLE
  5
3
100
AcDbSymbolTable
 70
1
  0
STYLE
  5
11
100
AcDbSymbolTableRecord
100
AcDbTextStyleTableRecord
  2
STANDARD
 70
0
 40
0.0
 41
1.0
 50
0.0
 71
0
 42
0.2
  3
ARIAL.TTF
  4

  0
STYLE
  5
20E
100
AcDbSymbolTableRecord
100
AcDbTextStyleTableRecord
  2
TEXTSTYLE_1
 70
0
 40
0.0
 41
0.8
 50
0.0
 71
0
 42
0.2
  3
gdt
  4

  0
ENDTAB
  0
TABLE
  2
VIEW
  5
6
100
AcDbSymbolTable
 70
0
  0
ENDTAB
  0
TABLE
  2
UCS
  5
7
100
AcDbSymbolTable
 70
0
  0
ENDTAB
  0
TABLE
  2
APPID
  5
9
100
AcDbSymbolTable
 70
1
  0
APPID
  5
20F
100
AcDbSymbolTableRecord
100
AcDbRegAppTableRecord
  2
ACAD
 70
0
  0
ENDTAB
  0
TABLE
  2
BLOCK_RECORD
  5
1
100
AcDbSymbolTable
 70
0
  0
BLOCK_RECORD
  5
210
100
AcDbSymbolTableRecord
100
AcDbBlockTableRecord
  2
*Model_Space
  0
BLOCK_RECORD
  5
211
100
AcDbSymbolTableRecord
100
AcDbBlockTableRecord
  2
*Paper_Space
  0
BLOCK_RECORD
  5
212
100
AcDbSymbolTableRecord
100
AcDbBlockTableRecord
  2
_FILLED
  0
ENDTAB
  0
TABLE
  2
DIMSTYLE
  5
A
100
AcDbSymbolTable
 70
1
100
AcDbDimStyleTable
 71
0
  0
DIMSTYLE
105
213
100
AcDbSymbolTableRecord
100
AcDbDimStyleTableRecord
  2
STANDARD
 70
0
  3

  4

 40
1.0
 41
0.5055959552
 42
1.0
 43
0.38
 44
1.0
 45
0.0
 46
0.0
 47
0.01
 48
0.01
140
0.7078343373
141
0.09
142
0.0
143
25.4
144
1.0
145
0.0
146
1.0
147
0.625
 71
1
 72
0
 73
0
 74
0
 75
0
 76
0
 77
1
 78
8
 79
2
170
0
171
1
172
0
173
0
174
0
175
0
176
0
177
0
178
0
270
2
179
2
271
2
272
2
273
2
274
2
275
0
280
0
281
0
282
0
283
1
284
8
285
0
286
0
287
3
288
0
340
11
278
46
341
212
342
212
343
212
344
212
  0
ENDTAB
  0
ENDSEC
  0
SECTION
  2
BLOCKS
  0
BLOCK
  5
20
100
AcDbEntity
  8
0
100
AcDbBlockBegin
  2
*Model_Space
 70
0
 10
0.0
 20
0.0
 30
0.0
  3
*Model_Space
  1

  0
ENDBLK
  5
21
100
AcDbEntity
  8
0
100
AcDbBlockEnd
  0
BLOCK
  5
1C
100
AcDbEntity
  8
0
100
AcDbBlockBegin
  2
*Paper_Space
 70
0
 10
0.0
 20
0.0
 30
0.0
  3
*Paper_Space
  1

  0
ENDBLK
  5
1D
100
AcDbEntity
  8
0
100
AcDbBlockEnd
  0
BLOCK
  5
214
100
AcDbEntity
  8
0
100
AcDbBlockBegin
  2
_FILLED
 70
64
 10
0.0
 20
0.0
  3
_FILLED
  1

  0
SOLID
  5
215
100
AcDbEntity
  8
0
  6
BYBLOCK
 62
0
100
AcDbTrace
 10
0.0
 20
0.0
 11
-1.0
 21
0.25
 12
-1.0
 22
-0.25
 13
-1.0
 23
-0.25
  0
ENDBLK
  5
216
100
AcDbEntity
  8
0
  6
BYBLOCK
 62
0
100
AcDbBlockEnd
  0
ENDSEC
  0
SECTION
  2
ENTITIES
  0
LINE
  5
217
100
AcDbEntity
  8
0
100
AcDbLine
 62
7
  6
BYLAYER
 10
24.8981799295
 20
4.8042958073
 11
18.7481799295
 21
4.8042958073
  0
LINE
  5
218
100
AcDbEntity
  8
0
100
AcDbLine
 62
7
  6
BYLAYER
 10
24.8981799295
 20
6.1214917922
 11
18.7481799295
 21
6.1214917922
  0
LINE
  5
219
100
AcDbEntity
  8
0
100
AcDbLine
 62
7
  6
BYLAYER
 10
18.7481799295
 20
9.751339054
 11
24.8981799295
 21
9.751339054
  0
LINE
  5
21A
100
AcDbEntity
  8
0
100
AcDbLine
 62
7
  6
BYLAYER
 10
18.7481799295
 20
10.2000867914
 11
24.8981799295
 21
10.2000867914
  0
LINE
  5
21B
100
AcDbEntity
  8
0
100
AcDbLine
 62
7
  6
BYLAYER
 10
18.7481799295
 20
14.5628233431
 11
24.8981799295
 21
14.5628233431
  0
LINE
  5
21C
100
AcDbEntity
  8
0
100
AcDbLine
 62
7
  6
BYLAYER
 10
18.7481799295
 20
17.3058999342
 11
24.8981799295
 21
17.3058999342
  0
LINE
  5
21D
100
AcDbEntity
  8
0
100
AcDbLine
 62
7
  6
BYLAYER
 10
24.8981799295
 20
17.6803831993
 11
18.7481799295
 21
17.6803831993
  0
LINE
  5
21E
100
AcDbEntity
  8
0
100
AcDbLine
 62
7
  6
BYLAYER
 10
24.8981799295
 20
18.9975791842
 11
18.7481799295
 21
18.9975791842
  0
LINE
  5
21F
100
AcDbEntity
  8
0
100
AcDbLine
 62
7
  6
BYLAYER
 10
18.7481799295
 20
20.4929351772
 11
24.8981799295
 21
20.4929351772
  0
LINE
  5
220
100
AcDbEntity
  8
0
100
AcDbLine
 62
7
  6
BYLAYER
 10
18.7481799295
 20
21.9277808415
 11
24.8981799295
 21
21.9277808415
  0
LINE
  5
221
100
AcDbEntity
  8
0
100
AcDbLine
 62
7
  6
BYLAYER
 10
23.8981799295
 20
23.0764169788
 11
20.6981799295
 21
23.0764169788
  0
LINE
  5
222
100
AcDbEntity
  8
0
100
AcDbLine
 62
7
  6
BYLAYER
 10
18.7481799295
 20
4.8045403504
 11
18.7481799295
 21
17.6505594315
  0
LINE
  5
223
100
AcDbEntity
  8
0
100
AcDbLine
 62
7
  6
BYLAYER
 10
18.7481799295
 20
17.6806277424
 11
18.7481799295
 21
55.5507332005
  0
LINE
  5
224
100
AcDbEntity
  8
0
100
AcDbLine
 62
7
  6
BYLAYER
 10
20.6981799295
 20
40.8447796842
 11
20.6981799295
 21
23.0764169788
  0
LINE
  5
225
100
AcDbEntity
  8
0
100
AcDbLine
 62
7
  6
BYLAYER
 10
23.8981799295
 20
28.7098303848
 11
20.6981799295
 21
28.7098303848
  0
LINE
  5
226
100
AcDbEntity
  8
0
100
AcDbLine
 62
7
  6
BYLAYER
 10
23.8981799295
 20
23.0764169788
 11
23.8981799295
 21
40.844779684
  0
LINE
  5
227
100
AcDbEntity
  8
0
100
AcDbLine
 62
7
  6
BYLAYER
 10
24.8981799295
 20
55.5507332005
 11
24.8981799295
 21
4.8045409981
  0
LINE
  5
228
100
AcDbEntity
  8
0
100
AcDbLine
 62
7
  6
BYLAYER
 10
24.8981799295
 20
33.8848283643
 11
23.8981799295
 21
33.8848283643
  0
LINE
  5
229
100
AcDbEntity
  8
0
100
AcDbLine
 62
7
  6
BYLAYER
 10
20.6981799295
 20
33.8848283643
 11
18.7481799295
 21
33.8848283643
  0
LINE
  5
22A
100
AcDbEntity
  8
0
100
AcDbLine
 62
7
  6
BYLAYER
 10
20.6981799295
 20
34.0713138383
 11
23.8981799295
 21
34.0713138383
  0
LINE
  5
22B
100
AcDbEntity
  8
0
100
AcDbLine
 62
7
  6
BYLAYER
 10
18.7481799295
 20
36.2324035484
 11
20.6981799295
 21
36.2324035484
  0
LINE
  5
22C
100
AcDbEntity
  8
0
100
AcDbLine
 62
7
  6
BYLAYER
 10
23.8981799295
 20
36.2324035484
 11
24.8981799295
 21
36.2324035484
  0
LINE
  5
22D
100
AcDbEntity
  8
0
100
AcDbLine
 62
7
  6
BYLAYER
 10
24.8981799295
 20
40.0632323891
 11
23.8981799295
 21
40.0632323891
  0
LINE
  5
22E
100
AcDbEntity
  8
0
100
AcDbLine
 62
7
  6
BYLAYER
 10
20.6981799295
 20
40.0632323891
 11
18.7481799295
 21
40.0632323891
  0
LINE
  5
22F
100
AcDbEntity
  8
0
100
AcDbLine
 62
7
  6
BYLAYER
 10
20.6981799295
 20
40.7330360934
 11
23.8981799295
 21
40.7330360934
  0
LINE
  5
230
100
AcDbEntity
  8
0
100
AcDbLine
 62
7
  6
BYLAYER
 10
18.7481799295
 20
40.8447796842
 11
20.6981799295
 21
40.8447796842
  0
LINE
  5
231
100
AcDbEntity
  8
0
100
AcDbLine
 62
7
  6
BYLAYER
 10
23.8981799295
 20
40.8447796842
 11
24.8981799295
 21
40.8447796842
  0
LINE
  5
232
100
AcDbEntity
  8
0
100
AcDbLine
 62
7
  6
BYLAYER
 10
24.8981799295
 20
41.3920409471
 11
18.7481799295
 21
41.3920409471
  0
LINE
  5
233
100
AcDbEntity
  8
0
100
AcDbLine
 62
7
  6
BYLAYER
 10
18.7481799295
 20
41.8590216523
 11
24.8981799295
 21
41.8590216523
  0
LINE
  5
234
100
AcDbEntity
  8
0
100
AcDbLine
 62
7
  6
BYLAYER
 10
24.8981799295
 20
42.596552471
 11
18.7481799295
 21
42.596552471
  0
LINE
  5
235
100
AcDbEntity
  8
0
100
AcDbLine
 62
7
  6
BYLAYER
 10
18.7481799295
 20
43.5295975585
 11
24.8981799295
 21
43.5295975585
  0
LINE
  5
236
100
AcDbEntity
  8
0
100
AcDbLine
 62
7
  6
BYLAYER
 10
24.8981799295
 20
43.9139360831
 11
18.7481799295
 21
43.9139360831
  0
LINE
  5
237
100
AcDbEntity
  8
0
100
AcDbLine
 62
7
  6
BYLAYER
 10
18.7481799295
 20
47.3864516821
 11
24.8981799295
 21
47.3864516821
  0
LINE
  5
238
100
AcDbEntity
  8
0
100
AcDbLine
 62
7
  6
BYLAYER
 10
18.7481799295
 20
47.769079035
 11
24.8981799295
 21
47.769079035
  0
LINE
  5
239
100
AcDbEntity
  8
0
100
AcDbLine
 62
7
  6
BYLAYER
 10
24.8981799295
 20
47.8585449925
 11
18.7481799295
 21
47.8585449925
  0
LINE
  5
23A
100
AcDbEntity
  8
0
100
AcDbLine
 62
7
  6
BYLAYER
 10
18.7481799295
 20
49.0791970208
 11
24.8981799295
 21
49.0791970208
  0
LINE
  5
23B
100
AcDbEntity
  8
0
100
AcDbLine
 62
7
  6
BYLAYER
 10
24.8981799295
 20
50.1685881576
 11
18.7481799295
 21
50.1685881576
  0
LINE
  5
23C
100
AcDbEntity
  8
0
100
AcDbLine
 62
7
  6
BYLAYER
 10
18.7481799295
 20
52.1963655426
 11
24.8981799295
 21
52.1963655426
  0
LINE
  5
23D
100
AcDbEntity
  8
0
100
AcDbLine
 62
7
  6
BYLAYER
 10
24.8981799295
 20
52.5732502189
 11
18.7481799295
 21
52.5732502189
  0
LINE
  5
23E
100
AcDbEntity
  8
0
100
AcDbLine
 62
7
  6
BYLAYER
 10
18.7481799295
 20
53.3819365087
 11
24.8981799295
 21
53.3819365087
  0
LINE
  5
23F
100
AcDbEntity
  8
0
100
AcDbLine
 62
7
  6
BYLAYER
 10
18.7481799295
 20
53.3856634329
 11
24.8981799295
 21
53.3856634329
  0
LINE
  5
240
100
AcDbEntity
  8
0
100
AcDbLine
 62
7
  6
BYLAYER
 10
18.7481799295
 20
54.3509139644
 11
24.8981799295
 21
54.3509139644
  0
LINE
  5
241
100
AcDbEntity
  8
0
100
AcDbLine
 62
7
  6
BYLAYER
 10
24.8981799295
 20
54.7347115131
 11
18.7481799295
 21
54.7347115131
  0
LINE
  5
242
100
AcDbEntity
  8
0
100
AcDbLine
 62
7
  6
BYLAYER
 10
18.7481799295
 20
55.5433978029
 11
24.8981799295
 21
55.5433978029
  0
LINE
  5
243
100
AcDbEntity
  8
0
100
AcDbLine
 62
7
  6
BYLAYER
 10
24.8981799295
 20
55.5508516513
 11
18.7481799295
 21
55.5508516513
  0
SPLINE
  5
244
100
AcDbEntity
  8
0
100
AcDbSpline
 62
7
  6
BYLAYER
 70
0
 71
3
 72
23
 73
19
 74
0
 42
0.0000001
 43
0.0000001
 44
0.0000000001
 40
0.0
 40
0.0
 40
0.0
 40
0.0
 40
0.1908431238
 40
0.3745503519
 40
0.544019019
 40
0.6214551894
 40
0.6930237323
 40
0.7580738074
 40
0.8160322471
 40
0.8663915893
 40
0.90878721
 40
0.9429513592
 40
0.9569428303
 40
0.9689152146
 40
0.9789507663
 40
0.9872136558
 40
0.9940327995
 40
1.0
 40
1.0
 40
1.0
 40
1.0
 10
22.2981799295
 20
52.6812004304
 30
0.0
 10
22.1567524021
 20
52.6812004304
 30
0.0
 10
21.8791726777
 20
52.6844737056
 30
0.0
 10
21.4762438739
 20
52.6990679678
 30
0.0
 10
21.1577181018
 20
52.7193193826
 30
0.0
 10
20.9226391183
 20
52.7403983726
 30
0.0
 10
20.7649414999
 20
52.7576721878
 30
0.0
 10
20.6219918405
 20
52.7767017433
 30
0.0
 10
20.4951524051
 20
52.7972744927
 30
0.0
 10
20.3855949367
 20
52.8191842429
 30
0.0
 10
20.2943523183
 20
52.8421602267
 30
0.0
 10
20.2304764526
 20
52.8631055102
 30
0.0
 10
20.1895707424
 20
52.8808611471
 30
0.0
 10
20.1659923798
 20
52.893421823
 30
0.0
 10
20.1474176401
 20
52.9061117886
 30
0.0
 10
20.1338388113
 20
52.9190086064
 30
0.0
 10
20.1252798681
 20
52.9323069314
 30
0.0
 10
20.1232087332
 20
52.9418441577
 30
0.0
 10
20.1232084415
 20
52.9462662526
 30
0.0
  0
SPLINE
  5
245
100
AcDbEntity
  8
0
100
AcDbSpline
 62
7
  6
BYLAYER
 70
0
 71
3
 72
23
 73
19
 74
0
 42
0.0000001
 43
0.0000001
 44
0.0000000001
 40
0.0
 40
0.0
 40
0.0
 40
0.0
 40
0.005960432
 40
0.0127831245
 40
0.0210481661
 40
0.0310796196
 40
0.0430513281
 40
0.0570496413
 40
0.0912179159
 40
0.1336055754
 40
0.1839763397
 40
0.2419291649
 40
0.3069860652
 40
0.3785509218
 40
0.4559848518
 40
0.6254619929
 40
0.8091412301
 40
1.0
 40
1.0
 40
1.0
 40
1.0
 10
24.4731799295
 20
55.1703817695
 30
0.0
 10
24.4731799295
 20
55.1659646795
 30
0.0
 10
24.4710900988
 20
55.1564316838
 30
0.0
 10
24.4625133598
 20
55.14314938
 30
0.0
 10
24.4489426185
 20
55.1302448559
 30
0.0
 10
24.430382657
 20
55.1175357798
 30
0.0
 10
24.406806012
 20
55.1049669836
 30
0.0
 10
24.3658885785
 20
55.0872186257
 30
0.0
 10
24.3020103298
 20
55.0662751584
 30
0.0
 10
24.2107629442
 20
55.0432927029
 30
0.0
 10
24.1012038799
 20
55.0213980183
 30
0.0
 10
23.9743574606
 20
55.000808752
 30
0.0
 10
23.8314076843
 20
54.9817899081
 30
0.0
 10
23.6737097839
 20
54.964510178
 30
0.0
 10
23.4386280085
 20
54.9434334552
 30
0.0
 10
23.1201175416
 20
54.9231846239
 30
0.0
 10
22.7171907141
 20
54.9085867067
 30
0.0
 10
22.4396194024
 20
54.9053159476
 30
0.0
 10
22.2981799295
 20
54.9053159476
 30
0.0
  0
SPLINE
  5
246
100
AcDbEntity
  8
0
100
AcDbSpline
 62
7
  6
BYLAYER
 70
0
 71
3
 72
23
 73
19
 74
0
 42
0.0000001
 43
0.0000001
 44
0.0000000001
 40
0.0
 40
0.0
 40
0.0
 40
0.0
 40
0.005960432
 40
0.0127831245
 40
0.0210481661
 40
0.0310796196
 40
0.0430513281
 40
0.0570496413
 40
0.0912179159
 40
0.1336055754
 40
0.1839763397
 40
0.2419291649
 40
0.3069860652
 40
0.3785509218
 40
0.4559848518
 40
0.6254619929
 40
0.8091412301
 40
1.0
 40
1.0
 40
1.0
 40
1.0
 10
24.4731799295
 20
52.9462662523
 30
0.0
 10
24.4731799295
 20
52.9418491623
 30
0.0
 10
24.4710900988
 20
52.9323161666
 30
0.0
 10
24.4625133598
 20
52.9190338628
 30
0.0
 10
24.4489426185
 20
52.9061293387
 30
0.0
 10
24.430382657
 20
52.8934202627
 30
0.0
 10
24.406806012
 20
52.8808514664
 30
0.0
 10
24.3658885785
 20
52.8631031086
 30
0.0
 10
24.3020103298
 20
52.8421596413
 30
0.0
 10
24.2107629442
 20
52.8191771858
 30
0.0
 10
24.1012038799
 20
52.7972825011
 30
0.0
 10
23.9743574606
 20
52.7766932349
 30
0.0
 10
23.8314076843
 20
52.7576743909
 30
0.0
 10
23.6737097839
 20
52.7403946609
 30
0.0
 10
23.4386280085
 20
52.7193179381
 30
0.0
 10
23.1201175416
 20
52.6990691068
 30
0.0
 10
22.7171907141
 20
52.6844711895
 30
0.0
 10
22.4396194024
 20
52.6812004304
 30
0.0
 10
22.2981799295
 20
52.6812004304
 30
0.0
  0
SPLINE
  5
247
100
AcDbEntity
  8
0
100
AcDbSpline
 62
7
  6
BYLAYER
 70
0
 71
3
 72
23
 73
19
 74
0
 42
0.0000001
 43
0.0000001
 44
0.0000000001
 40
0.0
 40
0.0
 40
0.0
 40
0.0
 40
0.1908431238
 40
0.3745503519
 40
0.544019019
 40
0.6214551894
 40
0.6930237323
 40
0.7580738074
 40
0.8160322471
 40
0.8663915893
 40
0.90878721
 40
0.9429513592
 40
0.9569428303
 40
0.9689152146
 40
0.9789507663
 40
0.9872136558
 40
0.9940327995
 40
1.0
 40
1.0
 40
1.0
 40
1.0
 10
22.2981799295
 20
54.9053159476
 30
0.0
 10
22.1567524021
 20
54.9053159476
 30
0.0
 10
21.8791726777
 20
54.9085892227
 30
0.0
 10
21.4762438739
 20
54.9231834849
 30
0.0
 10
21.1577181018
 20
54.9434348997
 30
0.0
 10
20.9226391183
 20
54.9645138897
 30
0.0
 10
20.7649414999
 20
54.981787705
 30
0.0
 10
20.6219918405
 20
55.0008172604
 30
0.0
 10
20.4951524051
 20
55.0213900098
 30
0.0
 10
20.3855949367
 20
55.0432997601
 30
0.0
 10
20.2943523183
 20
55.0662757438
 30
0.0
 10
20.2304764526
 20
55.0872210274
 30
0.0
 10
20.1895707424
 20
55.1049766642
 30
0.0
 10
20.1659923798
 20
55.1175373401
 30
0.0
 10
20.1474176401
 20
55.1302273057
 30
0.0
 10
20.1338388113
 20
55.1431241235
 30
0.0
 10
20.1252798681
 20
55.1564224486
 30
0.0
 10
20.1232087332
 20
55.1659596748
 30
0.0
 10
20.1232084415
 20
55.1703817697
 30
0.0
  0
SPLINE
  5
248
100
AcDbEntity
  8
0
100
AcDbSpline
 62
7
  6
BYLAYER
 70
0
 71
3
 72
23
 73
19
 74
0
 42
0.0000001
 43
0.0000001
 44
0.0000000001
 40
0.0
 40
0.0
 40
0.0
 40
0.0
 40
0.0059669238
 40
0.0127859274
 40
0.0210493206
 40
0.0310844451
 40
0.0430556366
 40
0.0570458551
 40
0.0912097577
 40
0.1336029024
 40
0.1839603132
 40
0.2419189397
 40
0.3069683964
 40
0.378538823
 40
0.4559760787
 40
0.6254478555
 40
0.8091591538
 40
1.0
 40
1.0
 40
1.0
 40
1.0
 10
20.1232084415
 20
52.9462662526
 30
0.0
 10
20.1232081499
 20
52.950688143
 30
0.0
 10
20.1252779717
 20
52.9602254491
 30
0.0
 10
20.1338374588
 20
52.9735238435
 30
0.0
 10
20.1474180078
 20
52.9864186837
 30
0.0
 10
20.1659913191
 20
52.9991089969
 30
0.0
 10
20.1895673344
 20
53.0116696756
 30
0.0
 10
20.2304706641
 20
53.0294258304
 30
0.0
 10
20.2943444803
 20
53.0503681512
 30
0.0
 10
20.3855830094
 20
53.0733458052
 30
0.0
 10
20.4951374297
 20
53.0952553501
 30
0.0
 10
20.6219751854
 20
53.1158274047
 30
0.0
 10
20.7649257128
 20
53.1348587802
 30
0.0
 10
20.9226251807
 20
53.1521319545
 30
0.0
 10
21.1577085536
 20
53.1732126328
 30
0.0
 10
21.4762405169
 20
53.1934641897
 30
0.0
 10
21.8791729833
 20
53.2080587689
 30
0.0
 10
22.1567540728
 20
53.2113320742
 30
0.0
 10
22.2981799295
 20
53.2113320742
 30
0.0
  0
SPLINE
  5
249
100
AcDbEntity
  8
0
100
AcDbSpline
 62
7
  6
BYLAYER
 70
0
 71
3
 72
23
 73
19
 74
0
 42
0.0000001
 43
0.0000001
 44
0.0000000001
 40
0.0
 40
0.0
 40
0.0
 40
0.0
 40
0.1908587699
 40
0.3745380071
 40
0.5440151482
 40
0.6214490782
 40
0.6930139348
 40
0.7580708351
 40
0.8160236603
 40
0.8663944246
 40
0.9087820841
 40
0.9429503587
 40
0.9569486719
 40
0.9689203804
 40
0.9789518339
 40
0.9872168755
 40
0.994039568
 40
1.0
 40
1.0
 40
1.0
 40
1.0
 10
22.2981799295
 20
53.2113320742
 30
0.0
 10
22.4396194024
 20
53.2113320742
 30
0.0
 10
22.7171907141
 20
53.2080613151
 30
0.0
 10
23.1201175416
 20
53.1934633979
 30
0.0
 10
23.4386280085
 20
53.1732145666
 30
0.0
 10
23.6737097839
 20
53.1521378438
 30
0.0
 10
23.8314076843
 20
53.1348581137
 30
0.0
 10
23.9743574606
 20
53.1158392698
 30
0.0
 10
24.1012038799
 20
53.0952500035
 30
0.0
 10
24.2107629442
 20
53.0733553189
 30
0.0
 10
24.3020103298
 20
53.0503728634
 30
0.0
 10
24.3658885785
 20
53.0294293961
 30
0.0
 10
24.406806012
 20
53.0116810382
 30
0.0
 10
24.430382657
 20
52.999112242
 30
0.0
 10
24.4489426185
 20
52.9864031659
 30
0.0
 10
24.4625133598
 20
52.9734986418
 30
0.0
 10
24.4710900988
 20
52.960216338
 30
0.0
 10
24.4731799295
 20
52.9506833423
 30
0.0
 10
24.4731799295
 20
52.9462662523
 30
0.0
  0
SPLINE
  5
24A
100
AcDbEntity
  8
0
100
AcDbSpline
 62
7
  6
BYLAYER
 70
0
 71
3
 72
23
 73
19
 74
0
 42
0.0000001
 43
0.0000001
 44
0.0000000001
 40
0.0
 40
0.0
 40
0.0
 40
0.0
 40
0.0059669238
 40
0.0127859274
 40
0.0210493206
 40
0.0310844451
 40
0.0430556366
 40
0.0570458551
 40
0.0912097577
 40
0.1336029024
 40
0.1839603132
 40
0.2419189397
 40
0.3069683964
 40
0.378538823
 40
0.4559760787
 40
0.6254478555
 40
0.8091591538
 40
1.0
 40
1.0
 40
1.0
 40
1.0
 10
20.1232084415
 20
55.1703817697
 30
0.0
 10
20.1232081499
 20
55.1748036602
 30
0.0
 10
20.1252779717
 20
55.1843409662
 30
0.0
 10
20.1338374588
 20
55.1976393606
 30
0.0
 10
20.1474180078
 20
55.2105342009
 30
0.0
 10
20.1659913191
 20
55.223224514
 30
0.0
 10
20.1895673344
 20
55.2357851927
 30
0.0
 10
20.2304706641
 20
55.2535413476
 30
0.0
 10
20.2943444803
 20
55.2744836684
 30
0.0
 10
20.3855830094
 20
55.2974613224
 30
0.0
 10
20.4951374297
 20
55.3193708673
 30
0.0
 10
20.6219751854
 20
55.3399429218
 30
0.0
 10
20.7649257128
 20
55.3589742973
 30
0.0
 10
20.9226251807
 20
55.3762474717
 30
0.0
 10
21.1577085536
 20
55.3973281499
 30
0.0
 10
21.4762405169
 20
55.4175797068
 30
0.0
 10
21.8791729833
 20
55.432174286
 30
0.0
 10
22.1567540728
 20
55.4354475914
 30
0.0
 10
22.2981799295
 20
55.4354475914
 30
0.0
  0
SPLINE
  5
24B
100
AcDbEntity
  8
0
100
AcDbSpline
 62
7
  6
BYLAYER
 70
0
 71
3
 72
23
 73
19
 74
0
 42
0.0000001
 43
0.0000001
 44
0.0000000001
 40
0.0
 40
0.0
 40
0.0
 40
0.0
 40
0.1908587699
 40
0.3745380071
 40
0.5440151482
 40
0.6214490782
 40
0.6930139348
 40
0.7580708351
 40
0.8160236603
 40
0.8663944246
 40
0.9087820841
 40
0.9429503587
 40
0.9569486719
 40
0.9689203804
 40
0.9789518339
 40
0.9872168755
 40
0.994039568
 40
1.0
 40
1.0
 40
1.0
 40
1.0
 10
22.2981799295
 20
55.4354475914
 30
0.0
 10
22.4396194024
 20
55.4354475914
 30
0.0
 10
22.7171907141
 20
55.4321768323
 30
0.0
 10
23.1201175416
 20
55.417578915
 30
0.0
 10
23.4386280085
 20
55.3973300837
 30
0.0
 10
23.6737097839
 20
55.3762533609
 30
0.0
 10
23.8314076843
 20
55.3589736309
 30
0.0
 10
23.9743574606
 20
55.3399547869
 30
0.0
 10
24.1012038799
 20
55.3193655207
 30
0.0
 10
24.2107629442
 20
55.297470836
 30
0.0
 10
24.3020103298
 20
55.2744883805
 30
0.0
 10
24.3658885785
 20
55.2535449132
 30
0.0
 10
24.406806012
 20
55.2357965554
 30
0.0
 10
24.430382657
 20
55.2232277591
 30
0.0
 10
24.4489426185
 20
55.2105186831
 30
0.0
 10
24.4625133598
 20
55.1976141589
 30
0.0
 10
24.4710900988
 20
55.1843318552
 30
0.0
 10
24.4731799295
 20
55.1747988595
 30
0.0
 10
24.4731799295
 20
55.1703817695
 30
0.0
  0
ENDSEC
  0
SECTION
  2
OBJECTS
  0
DICTIONARY
  5
C
100
AcDbDictionary
280
0
281
1
  3
ACAD_GROUP
350
D
  3
ACAD_MLINESTYLE
350
17
  3
ACAD_LAYOUT
350
1A
  3
ACAD_PLOTSETTINGS
350
19
  3
ACAD_PLOTSTYLENAME
350
E
  0
DICTIONARY
  5
D
102
{ACAD_REACTORS
330
C
102
}
100
AcDbDictionary
280
0
281
1
  0
ACDBDICTIONARYWDFLT
  5
E
102
{ACAD_REACTORS
330
C
102
}
100
AcDbDictionary
281
1
  3
Normal
350
F
100
AcDbDictionaryWithDefault
340
F
  0
DICTIONARY
  5
17
102
{ACAD_REACTORS
330
C
102
}
100
AcDbDictionary
280
0
281
1
  3
Standard
350
18
  0
DICTIONARY
  5
19
102
{ACAD_REACTORS
330
C
102
}
100
AcDbDictionary
281
1
  0
DICTIONARY
  5
1A
102
{ACAD_REACTORS
330
C
102
}
100
AcDbDictionary
281
1
  3
Model
350
24C
  3
Layout1
350
24D
  0
ACDBPLACEHOLDER
  5
F
102
{ACAD_REACTORS
330
E
102
}
  0
MLINESTYLE
  5
18
102
{ACAD_REACTORS
330
17
102
}
100
AcDbMlineStyle
  2
STANDARD
 70
0
  3

 62
256
 51
90.0
 52
90.0
 71
2
 49
0.5
 62
256
  6
BYLAYER
 49
-0.5
 62
256
  6
BYLAYER
  0
LAYOUT
  5
24C
102
{ACAD_REACTORS
330
1A
102
}
100
AcDbPlotSettings
  1

  2
none_device
  4

  6

 40
0.0
 41
0.0
 42
0.0
 43
0.0
 44
210.0
 45
297.0
 46
0.0
 47
0.0
 48
0.0
 49
0.0
140
0.0
141
0.0
142
1.0
143
1.0
 70
1024
 72
1
 73
0
 74
0
  7

 75
0
147
1.0
148
0.0
149
0.0
100
AcDbLayout
  1
Model
 70
0
 71
0
 10
0.0
 20
0.0
 11
210.0
 21
297.0
 12
0.0
 22
0.0
 32
0.0
 14
0.0
 24
0.0
 34
0.0
 15
0.0
 25
0.0
 35
0.0
146
0.0
 13
0.0
 23
0.0
 33
0.0
 16
1.0
 26
0.0
 36
0.0
 17
0.0
 27
1.0
 37
0.0
 76
0
330
210
345
0
346
0
  0
LAYOUT
  5
24D
102
{ACAD_REACTORS
330
1A
102
}
100
AcDbPlotSettings
  1

  2
none_device
  4

  6

 40
0.0
 41
0.0
 42
0.0
 43
0.0
 44
210.0
 45
297.0
 46
0.0
 47
0.0
 48
0.0
 49
0.0
140
0.0
141
0.0
142
1.0
143
1.0
 70
0
 72
1
 73
0
 74
0
  7

 75
0
147
1.0
148
0.0
149
0.0
100
AcDbLayout
  1
Layout1
 70
0
 71
1
 10
0.0
 20
0.0
 11
210.0
 21
297.0
 12
0.0
 22
0.0
 32
0.0
 14
0.0
 24
0.0
 34
0.0
 15
0.0
 25
0.0
 35
0.0
146
0.0
 13
0.0
 23
0.0
 33
0.0
 16
1.0
 26
0.0
 36
0.0
 17
0.0
 27
1.0
 37
0.0
 76
0
330
211
345
0
346
0
  0
ENDSEC
  0
EOF
