999
DXF file: C:\Users\sesa63760\Dev\_Creo\CAD\MCADID0005856_3D-CAD\mcadid0005856_3d-simplified_6.dxf
999
Pro/ENGINEER 2019471 by Parametric Technology Corporation
  0
SECTION
  2
HEADER
  9
$ACADVER
  1
AC1024
  9
$DWGCODEPAGE
  3
ANSI_1252
  9
$EXTMAX
 10
93.2878456336
 20
131.9356673961
 30
0.0
  9
$EXTMIN
 10
0.0
 20
0.0
 30
0.0
  9
$LIMMIN
 10
0.0
 20
0.0
  9
$LIMMAX
 10
93.2878456336
 20
131.9356673961
  9
$VIEWCTR
 10
46.6439228168
 20
65.967833698
  9
$VIEWSIZE
 40
131.9356673961
  9
$CLAYER
  8
0
  9
$LTSCALE
 40
8.6002509117
  9
$CELTYPE
  6
BYLAYER
  9
$DIMSCALE
 40
1.0
  9
$DIMASZ
 40
1.1105695909
  9
$DIMEXO
 40
1.0
  9
$DIMDLI
 40
5.941991539
  9
$DIMEXE
 40
1.0
  9
$DIMCEN
 40
1.4073137856
  9
$DIMLFAC
 40
1.0
  9
$DIMBLK
  1
_FILLED
  9
$DIMALT
 70
0
  9
$DIMALTF
 40
0.0393700787
  9
$DIMTXT
 40
1.5547974272
  9
$DIMTOL
 70
1
  9
$DIMLIM
 70
0
  9
$DIMTFAC
 40
1.0
  9
$DIMTP
 40
0.01
  9
$DIMTM
 40
0.01
  9
$DIMGAP
 40
0.625
  9
$DIMDSEP
 70
46
  9
$AUNITS
 70
0
  9
$PDMODE
 70
3
  9
$PDSIZE
 40
0.3125
  9
$HANDSEED
  5
288
  9
$TILEMODE
 70
1
  9
$MEASUREMENT
 70
1
  9
$INSUNITS
 70
4
  0
ENDSEC
  0
SECTION
  2
CLASSES
  0
CLASS
  1
ACDBDICTIONARYWDFLT
  2
AcDbDictionaryWithDefault
  3
AutoCAD 2000
 90
0
 91
1
280
0
281
0
  0
CLASS
  1
ACDBPLACEHOLDER
  2
AcDbPlaceHolder
  3
AutoCAD 2000
 90
0
 91
1
280
0
281
0
  0
CLASS
  1
LAYOUT
  2
AcDbLayout
  3
AutoCAD 2000
 90
0
 91
0
280
0
281
0
  0
ENDSEC
  0
SECTION
  2
TABLES
  0
TABLE
  2
VPORT
  5
8
100
AcDbSymbolTable
 70
2
  0
VPORT
  5
1F4
100
AcDbSymbolTableRecord
100
AcDbViewportTableRecord
  2
*ACTIVE
 70
0
 10
0.0
 20
0.0
 11
1.0
 21
1.0
 12
46.6439228168
 22
65.967833698
 13
0.0
 23
0.0
 14
1.0
 24
1.0
 15
0.0
 25
0.0
 16
0.0
 26
0.0
 36
1.0
 17
0.0
 27
0.0
 37
0.0
 40
131.9356673961
 41
0.7070707071
 42
50.0
 43
0.0
 44
0.0
 50
0.0
 51
0.0
 71
0
 72
100
 73
1
 74
1
 75
0
 76
0
 77
0
 78
0
  0
ENDTAB
  0
TABLE
  2
LTYPE
  5
5
100
AcDbSymbolTable
 70
6
  0
LTYPE
  5
14
100
AcDbSymbolTableRecord
100
AcDbLinetypeTableRecord
  2
BYBLOCK
 70
0
  3

 72
65
 73
0
 40
0.0
  0
LTYPE
  5
15
100
AcDbSymbolTableRecord
100
AcDbLinetypeTableRecord
  2
BYLAYER
 70
0
  3

 72
65
 73
0
 40
0.0
  0
LTYPE
  5
16
100
AcDbSymbolTableRecord
100
AcDbLinetypeTableRecord
  2
CONTINUOUS
 70
64
  3
Solid line
 72
65
 73
0
 40
0.0
  0
LTYPE
  5
1F5
100
AcDbSymbolTableRecord
100
AcDbLinetypeTableRecord
  2
CENTER
 70
64
  3
____ _ ____ _ ____ _ ____ _ ____ _ ____ _ ____
 72
65
 73
4
 40
0.6
 49
0.375
 74
0
 49
-0.075
 74
0
 49
0.075
 74
0
 49
-0.075
 74
0
  0
LTYPE
  5
1F6
100
AcDbSymbolTableRecord
100
AcDbLinetypeTableRecord
  2
HIDDEN
 70
64
  3
- - - - - - - - - - - - - - - - - - - -
 72
65
 73
2
 40
0.2
 49
0.1
 74
0
 49
-0.1
 74
0
  0
LTYPE
  5
1F7
100
AcDbSymbolTableRecord
100
AcDbLinetypeTableRecord
  2
PHANTOM
 70
64
  3
_____ _ _ _____ _ _ _____ _ _ _____
 72
65
 73
6
 40
0.8
 49
0.45
 74
0
 49
-0.05
 74
0
 49
0.1
 74
0
 49
-0.05
 74
0
 49
0.1
 74
0
 49
-0.05
 74
0
  0
LTYPE
  5
1F8
100
AcDbSymbolTableRecord
100
AcDbLinetypeTableRecord
  2
DOT
 70
64
  3
. . . . . . . . . . . . . . . . . . . .
 72
65
 73
2
 40
0.2
 49
0.1
 74
0
 49
-0.1
 74
0
  0
LTYPE
  5
1F9
100
AcDbSymbolTableRecord
100
AcDbLinetypeTableRecord
  2
DASHED
 70
64
  3
- - - - - - - - - - - - - - - - - - - -
 72
65
 73
2
 40
0.2
 49
0.1
 74
0
 49
-0.1
 74
0
  0
ENDTAB
  0
TABLE
  2
LAYER
  5
2
100
AcDbSymbolTable
 70
36
  0
LAYER
  5
10
100
AcDbSymbolTableRecord
100
AcDbLayerTableRecord
  2
0
 70
0
 62
7
  6
CONTINUOUS
370
-3
390
F
  0
LAYER
  5
1FA
100
AcDbSymbolTableRecord
100
AcDbLayerTableRecord
  2
DEFAULT_1
 70
0
 62
7
  6
CENTER
370
-3
390
F
  0
LAYER
  5
1FB
100
AcDbSymbolTableRecord
100
AcDbLayerTableRecord
  2
DEFAULT_2
 70
0
 62
7
  6
HIDDEN
370
-3
390
F
  0
LAYER
  5
1FC
100
AcDbSymbolTableRecord
100
AcDbLayerTableRecord
  2
DEFAULT_3
 70
0
 62
7
  6
PHANTOM
370
-3
390
F
  0
LAYER
  5
1FD
100
AcDbSymbolTableRecord
100
AcDbLayerTableRecord
  2
00_COMPONENTS
 70
0
 62
7
  6
CONTINUOUS
370
-3
390
F
  0
LAYER
  5
1FE
100
AcDbSymbolTableRecord
100
AcDbLayerTableRecord
  2
01_1_DEFAULT_DATUMS
 70
0
 62
7
  6
CONTINUOUS
370
-3
390
F
  0
LAYER
  5
1FF
100
AcDbSymbolTableRecord
100
AcDbLayerTableRecord
  2
01_PLANES
 70
0
 62
7
  6
CONTINUOUS
370
-3
390
F
  0
LAYER
  5
200
100
AcDbSymbolTableRecord
100
AcDbLayerTableRecord
  2
02_COORD_SYS
 70
0
 62
7
  6
CONTINUOUS
370
-3
390
F
  0
LAYER
  5
201
100
AcDbSymbolTableRecord
100
AcDbLayerTableRecord
  2
03_AXES
 70
0
 62
7
  6
CONTINUOUS
370
-3
390
F
  0
LAYER
  5
202
100
AcDbSymbolTableRecord
100
AcDbLayerTableRecord
  2
04_POINTS
 70
0
 62
7
  6
CONTINUOUS
370
-3
390
F
  0
LAYER
  5
203
100
AcDbSymbolTableRecord
100
AcDbLayerTableRecord
  2
05_CURVES
 70
0
 62
7
  6
CONTINUOUS
370
-3
390
F
  0
LAYER
  5
204
100
AcDbSymbolTableRecord
100
AcDbLayerTableRecord
  2
06_SURFS
 70
0
 62
7
  6
CONTINUOUS
370
-3
390
F
  0
LAYER
  5
205
100
AcDbSymbolTableRecord
100
AcDbLayerTableRecord
  2
07_COSMETICS
 70
0
 62
7
  6
CONTINUOUS
370
-3
390
F
  0
LAYER
  5
206
100
AcDbSymbolTableRecord
100
AcDbLayerTableRecord
  2
10_NOTES
 70
0
 62
7
  6
CONTINUOUS
370
-3
390
F
  0
LAYER
  5
207
100
AcDbSymbolTableRecord
100
AcDbLayerTableRecord
  2
11_NOTES_PUB
 70
0
 62
7
  6
CONTINUOUS
370
-3
390
F
  0
LAYER
  5
208
100
AcDbSymbolTableRecord
100
AcDbLayerTableRecord
  2
13_REF_GTOL
 70
0
 62
7
  6
CONTINUOUS
370
-3
390
F
  0
LAYER
  5
209
100
AcDbSymbolTableRecord
100
AcDbLayerTableRecord
  2
16_MISC
 70
0
 62
7
  6
CONTINUOUS
370
-3
390
F
  0
LAYER
  5
20A
100
AcDbSymbolTableRecord
100
AcDbLayerTableRecord
  2
17_NO_PRINT
 70
0
 62
7
  6
CONTINUOUS
370
-3
390
F
  0
LAYER
  5
20B
100
AcDbSymbolTableRecord
100
AcDbLayerTableRecord
  2
18_DATUM_CAMS_JOINTS
 70
0
 62
7
  6
CONTINUOUS
370
-3
390
F
  0
LAYER
  5
20C
100
AcDbSymbolTableRecord
100
AcDbLayerTableRecord
  2
19_DATUM_FUNCTIONAL
 70
0
 62
7
  6
CONTINUOUS
370
-3
390
F
  0
LAYER
  5
20D
100
AcDbSymbolTableRecord
100
AcDbLayerTableRecord
  2
20_DATUM_KINEMATIC_SCHEME
 70
0
 62
7
  6
CONTINUOUS
370
-3
390
F
  0
ENDTAB
  0
TABLE
  2
STYLE
  5
3
100
AcDbSymbolTable
 70
1
  0
STYLE
  5
11
100
AcDbSymbolTableRecord
100
AcDbTextStyleTableRecord
  2
STANDARD
 70
0
 40
0.0
 41
1.0
 50
0.0
 71
0
 42
0.2
  3
ARIAL.TTF
  4

  0
STYLE
  5
20E
100
AcDbSymbolTableRecord
100
AcDbTextStyleTableRecord
  2
TEXTSTYLE_1
 70
0
 40
0.0
 41
0.8
 50
0.0
 71
0
 42
0.2
  3
gdt
  4

  0
ENDTAB
  0
TABLE
  2
VIEW
  5
6
100
AcDbSymbolTable
 70
0
  0
ENDTAB
  0
TABLE
  2
UCS
  5
7
100
AcDbSymbolTable
 70
0
  0
ENDTAB
  0
TABLE
  2
APPID
  5
9
100
AcDbSymbolTable
 70
1
  0
APPID
  5
20F
100
AcDbSymbolTableRecord
100
AcDbRegAppTableRecord
  2
ACAD
 70
0
  0
ENDTAB
  0
TABLE
  2
BLOCK_RECORD
  5
1
100
AcDbSymbolTable
 70
0
  0
BLOCK_RECORD
  5
210
100
AcDbSymbolTableRecord
100
AcDbBlockTableRecord
  2
*Model_Space
  0
BLOCK_RECORD
  5
211
100
AcDbSymbolTableRecord
100
AcDbBlockTableRecord
  2
*Paper_Space
  0
BLOCK_RECORD
  5
212
100
AcDbSymbolTableRecord
100
AcDbBlockTableRecord
  2
_FILLED
  0
ENDTAB
  0
TABLE
  2
DIMSTYLE
  5
A
100
AcDbSymbolTable
 70
1
100
AcDbDimStyleTable
 71
0
  0
DIMSTYLE
105
213
100
AcDbSymbolTableRecord
100
AcDbDimStyleTableRecord
  2
STANDARD
 70
0
  3

  4

 40
1.0
 41
1.1105695909
 42
1.0
 43
0.38
 44
1.0
 45
0.0
 46
0.0
 47
0.01
 48
0.01
140
1.5547974272
141
0.09
142
0.0
143
25.4
144
1.0
145
0.0
146
1.0
147
0.625
 71
1
 72
0
 73
0
 74
0
 75
0
 76
0
 77
1
 78
8
 79
2
170
0
171
1
172
0
173
0
174
0
175
0
176
0
177
0
178
0
270
2
179
2
271
2
272
2
273
2
274
2
275
0
280
0
281
0
282
0
283
1
284
8
285
0
286
0
287
3
288
0
340
11
278
46
341
212
342
212
343
212
344
212
  0
ENDTAB
  0
ENDSEC
  0
SECTION
  2
BLOCKS
  0
BLOCK
  5
20
100
AcDbEntity
  8
0
100
AcDbBlockBegin
  2
*Model_Space
 70
0
 10
0.0
 20
0.0
 30
0.0
  3
*Model_Space
  1

  0
ENDBLK
  5
21
100
AcDbEntity
  8
0
100
AcDbBlockEnd
  0
BLOCK
  5
1C
100
AcDbEntity
  8
0
100
AcDbBlockBegin
  2
*Paper_Space
 70
0
 10
0.0
 20
0.0
 30
0.0
  3
*Paper_Space
  1

  0
ENDBLK
  5
1D
100
AcDbEntity
  8
0
100
AcDbBlockEnd
  0
BLOCK
  5
214
100
AcDbEntity
  8
0
100
AcDbBlockBegin
  2
_FILLED
 70
64
 10
0.0
 20
0.0
  3
_FILLED
  1

  0
SOLID
  5
215
100
AcDbEntity
  8
0
  6
BYBLOCK
 62
0
100
AcDbTrace
 10
0.0
 20
0.0
 11
-1.0
 21
0.25
 12
-1.0
 22
-0.25
 13
-1.0
 23
-0.25
  0
ENDBLK
  5
216
100
AcDbEntity
  8
0
  6
BYBLOCK
 62
0
100
AcDbBlockEnd
  0
ENDSEC
  0
SECTION
  2
ENTITIES
  0
LINE
  5
217
100
AcDbEntity
  8
0
100
AcDbLine
 62
7
  6
BYLAYER
 10
10.5513626417
 20
67.93769413
 11
10.5513626417
 21
69.937670228
  0
LINE
  5
218
100
AcDbEntity
  8
0
100
AcDbLine
 62
7
  6
BYLAYER
 10
20.5513626417
 20
67.7324395775
 11
20.5513626417
 21
70.1421938793
  0
LINE
  5
219
100
AcDbEntity
  8
0
100
AcDbLine
 62
7
  6
BYLAYER
 10
20.7408954505
 20
67.532564744
 11
20.7408954505
 21
70.3427996141
  0
LINE
  5
21A
100
AcDbEntity
  8
0
100
AcDbLine
 62
7
  6
BYLAYER
 10
22.3618298329
 20
70.4277491854
 11
22.3618298329
 21
67.4476151726
  0
LINE
  5
21B
100
AcDbEntity
  8
0
100
AcDbLine
 62
7
  6
BYLAYER
 10
22.5513626417
 20
59.8620034383
 11
22.5513626417
 21
72.0737773702
  0
LINE
  5
21C
100
AcDbEntity
  8
0
100
AcDbLine
 62
7
  6
BYLAYER
 10
22.7166330062
 20
59.6647749216
 11
22.7166330062
 21
72.2708924745
  0
LINE
  5
21D
100
AcDbEntity
  8
0
100
AcDbLine
 62
7
  6
BYLAYER
 10
25.2513626417
 20
59.217833698
 11
25.2513626417
 21
72.717833698
  0
LINE
  5
21E
100
AcDbEntity
  8
0
100
AcDbLine
 62
7
  6
BYLAYER
 10
25.7513626417
 20
58.1680983754
 11
25.7513626417
 21
73.7675690207
  0
LINE
  5
21F
100
AcDbEntity
  8
0
100
AcDbLine
 62
7
  6
BYLAYER
 10
25.9513626417
 20
57.967833698
 11
25.9513626417
 21
73.967833698
  0
LINE
  5
220
100
AcDbEntity
  8
0
100
AcDbLine
 62
7
  6
BYLAYER
 10
29.5513626417
 20
73.9678003303
 11
29.5513626417
 21
57.9681424748
  0
LINE
  5
221
100
AcDbEntity
  8
0
100
AcDbLine
 62
7
  6
BYLAYER
 10
29.6513626417
 20
57.968100387
 11
29.6513626417
 21
73.9675670091
  0
LINE
  5
222
100
AcDbEntity
  8
0
100
AcDbLine
 62
7
  6
BYLAYER
 10
32.5513626417
 20
73.967833698
 11
33.5513626417
 21
74.967833698
  0
LINE
  5
223
100
AcDbEntity
  8
0
100
AcDbLine
 62
7
  6
BYLAYER
 10
32.5513626417
 20
57.967833698
 11
33.5513626417
 21
56.967833698
  0
LINE
  5
224
100
AcDbEntity
  8
0
100
AcDbLine
 62
7
  6
BYLAYER
 10
32.5513626417
 20
73.967833698
 11
32.5513626417
 21
57.967833698
  0
LINE
  5
225
100
AcDbEntity
  8
0
100
AcDbLine
 62
7
  6
BYLAYER
 10
33.5513626417
 20
56.967833698
 11
33.5513626417
 21
74.967833698
  0
LINE
  5
226
100
AcDbEntity
  8
0
100
AcDbLine
 62
7
  6
BYLAYER
 10
70.8934727128
 20
52.2614272374
 11
67.8092525706
 21
52.2614272374
  0
LINE
  5
227
100
AcDbEntity
  8
0
100
AcDbLine
 62
7
  6
BYLAYER
 10
75.8092525984
 20
52.2614272374
 11
78.8934726858
 21
52.2614272374
  0
LINE
  5
228
100
AcDbEntity
  8
0
100
AcDbLine
 62
7
  6
BYLAYER
 10
22.7166330062
 20
59.6647749216
 11
25.2513626417
 21
59.217833698
  0
LINE
  5
229
100
AcDbEntity
  8
0
100
AcDbLine
 62
7
  6
BYLAYER
 10
83.7513626417
 20
56.967833698
 11
79.3513626417
 21
56.967833698
  0
LINE
  5
22A
100
AcDbEntity
  8
0
100
AcDbLine
 62
7
  6
BYLAYER
 10
75.3513626417
 20
56.967833698
 11
71.3513626417
 21
56.967833698
  0
LINE
  5
22B
100
AcDbEntity
  8
0
100
AcDbLine
 62
7
  6
BYLAYER
 10
67.3513626417
 20
56.967833698
 11
33.5513626417
 21
56.967833698
  0
LINE
  5
22C
100
AcDbEntity
  8
0
100
AcDbLine
 62
7
  6
BYLAYER
 10
83.9513626417
 20
57.767833698
 11
84.2836471685
 21
57.767833698
  0
LINE
  5
22D
100
AcDbEntity
  8
0
100
AcDbLine
 62
7
  6
BYLAYER
 10
32.5513626417
 20
57.967833698
 11
29.6513626417
 21
57.967833698
  0
LINE
  5
22E
100
AcDbEntity
  8
0
100
AcDbLine
 62
7
  6
BYLAYER
 10
29.5513626417
 20
57.967833698
 11
25.9513626417
 21
57.967833698
  0
LINE
  5
22F
100
AcDbEntity
  8
0
100
AcDbLine
 62
7
  6
BYLAYER
 10
29.6513626417
 20
58.017833698
 11
29.5513626417
 21
58.017833698
  0
LINE
  5
230
100
AcDbEntity
  8
0
100
AcDbLine
 62
7
  6
BYLAYER
 10
70.8934726852
 20
58.8896304678
 11
67.8092525976
 21
58.8896304678
  0
LINE
  5
231
100
AcDbEntity
  8
0
100
AcDbLine
 62
7
  6
BYLAYER
 10
75.8092525704
 20
58.8896304678
 11
78.893472713
 21
58.8896304678
  0
LINE
  5
232
100
AcDbEntity
  8
0
100
AcDbLine
 62
7
  6
BYLAYER
 10
25.7513626417
 20
59.217833698
 11
25.2513626417
 21
59.217833698
  0
LINE
  5
233
100
AcDbEntity
  8
0
100
AcDbLine
 62
7
  6
BYLAYER
 10
70.919081265
 20
59.5396304678
 11
67.7836440185
 21
59.5396304678
  0
LINE
  5
234
100
AcDbEntity
  8
0
100
AcDbLine
 62
7
  6
BYLAYER
 10
75.7836440461
 20
59.5396304678
 11
78.9190812374
 21
59.5396304678
  0
LINE
  5
235
100
AcDbEntity
  8
0
100
AcDbLine
 62
7
  6
BYLAYER
 10
20.7408954505
 20
67.532564744
 11
22.3618298329
 21
67.4476151726
  0
LINE
  5
236
100
AcDbEntity
  8
0
100
AcDbLine
 62
7
  6
BYLAYER
 10
10.5513626417
 20
67.937682179
 11
20.5513626417
 21
67.937682179
  0
LINE
  5
237
100
AcDbEntity
  8
0
100
AcDbLine
 62
7
  6
BYLAYER
 10
10.5513626417
 20
69.937682179
 11
20.5513626417
 21
69.937682179
  0
LINE
  5
238
100
AcDbEntity
  8
0
100
AcDbLine
 62
7
  6
BYLAYER
 10
20.7408954505
 20
70.3427996141
 11
22.3618298329
 21
70.4277491854
  0
LINE
  5
239
100
AcDbEntity
  8
0
100
AcDbLine
 62
7
  6
BYLAYER
 10
70.9190815989
 20
72.3960369283
 11
67.7836436846
 21
72.3960369283
  0
LINE
  5
23A
100
AcDbEntity
  8
0
100
AcDbLine
 62
7
  6
BYLAYER
 10
75.7836436675
 20
72.3960369283
 11
78.919081616
 21
72.3960369283
  0
LINE
  5
23B
100
AcDbEntity
  8
0
100
AcDbLine
 62
7
  6
BYLAYER
 10
25.7513626417
 20
72.717833698
 11
25.2513626417
 21
72.717833698
  0
LINE
  5
23C
100
AcDbEntity
  8
0
100
AcDbLine
 62
7
  6
BYLAYER
 10
70.8934727128
 20
73.0460369283
 11
67.8092525706
 21
73.0460369283
  0
LINE
  5
23D
100
AcDbEntity
  8
0
100
AcDbLine
 62
7
  6
BYLAYER
 10
75.8092525984
 20
73.0460369283
 11
78.8934726857
 21
73.0460369283
  0
LINE
  5
23E
100
AcDbEntity
  8
0
100
AcDbLine
 62
7
  6
BYLAYER
 10
29.6513626417
 20
73.917833698
 11
29.5513626417
 21
73.917833698
  0
LINE
  5
23F
100
AcDbEntity
  8
0
100
AcDbLine
 62
7
  6
BYLAYER
 10
32.5513626417
 20
73.967833698
 11
29.6513626417
 21
73.967833698
  0
LINE
  5
240
100
AcDbEntity
  8
0
100
AcDbLine
 62
7
  6
BYLAYER
 10
29.5513626417
 20
73.967833698
 11
25.9513626417
 21
73.967833698
  0
LINE
  5
241
100
AcDbEntity
  8
0
100
AcDbLine
 62
7
  6
BYLAYER
 10
83.9513626417
 20
74.167833698
 11
84.2836471685
 21
74.167833698
  0
LINE
  5
242
100
AcDbEntity
  8
0
100
AcDbLine
 62
7
  6
BYLAYER
 10
22.7166330062
 20
72.2708924745
 11
25.2513626417
 21
72.717833698
  0
LINE
  5
243
100
AcDbEntity
  8
0
100
AcDbLine
 62
7
  6
BYLAYER
 10
83.7513626417
 20
74.967833698
 11
79.3513626417
 21
74.967833698
  0
LINE
  5
244
100
AcDbEntity
  8
0
100
AcDbLine
 62
7
  6
BYLAYER
 10
75.3513626417
 20
74.967833698
 11
71.3513626417
 21
74.967833698
  0
LINE
  5
245
100
AcDbEntity
  8
0
100
AcDbLine
 62
7
  6
BYLAYER
 10
67.3513626417
 20
74.967833698
 11
33.5513626417
 21
74.967833698
  0
LINE
  5
246
100
AcDbEntity
  8
0
100
AcDbLine
 62
7
  6
BYLAYER
 10
70.8934726852
 20
79.6742401586
 11
67.8092525976
 21
79.6742401586
  0
LINE
  5
247
100
AcDbEntity
  8
0
100
AcDbLine
 62
7
  6
BYLAYER
 10
75.8092525704
 20
79.6742401586
 11
78.893472713
 21
79.6742401586
  0
LINE
  5
248
100
AcDbEntity
  8
0
100
AcDbLine
 62
7
  6
BYLAYER
 10
67.3513626417
 20
77.967833698
 11
67.7985447801
 21
79.6367401586
  0
LINE
  5
249
100
AcDbEntity
  8
0
100
AcDbLine
 62
7
  6
BYLAYER
 10
67.3513626417
 20
53.967833698
 11
67.7985447801
 21
52.2989272374
  0
LINE
  5
24A
100
AcDbEntity
  8
0
100
AcDbLine
 62
7
  6
BYLAYER
 10
67.3513626417
 20
53.9678377464
 11
67.3513626417
 21
77.9678296497
  0
LINE
  5
24B
100
AcDbEntity
  8
0
100
AcDbLine
 62
7
  6
BYLAYER
 10
71.3513626417
 20
77.9678296497
 11
71.3513626417
 21
53.9678377464
  0
LINE
  5
24C
100
AcDbEntity
  8
0
100
AcDbLine
 62
7
  6
BYLAYER
 10
75.3513626417
 20
77.967833698
 11
75.7985447801
 21
79.6367401586
  0
LINE
  5
24D
100
AcDbEntity
  8
0
100
AcDbLine
 62
7
  6
BYLAYER
 10
75.3513626417
 20
53.967833698
 11
75.7985447801
 21
52.2989272374
  0
LINE
  5
24E
100
AcDbEntity
  8
0
100
AcDbLine
 62
7
  6
BYLAYER
 10
71.3513626417
 20
53.967833698
 11
70.9041805034
 21
52.2989272374
  0
LINE
  5
24F
100
AcDbEntity
  8
0
100
AcDbLine
 62
7
  6
BYLAYER
 10
71.3513626417
 20
77.967833698
 11
70.9041805034
 21
79.6367401586
  0
LINE
  5
250
100
AcDbEntity
  8
0
100
AcDbLine
 62
7
  6
BYLAYER
 10
75.3513626417
 20
53.9678377464
 11
75.3513626417
 21
77.9678296497
  0
LINE
  5
251
100
AcDbEntity
  8
0
100
AcDbLine
 62
7
  6
BYLAYER
 10
79.3513626417
 20
77.9678296497
 11
79.3513626417
 21
53.9678377464
  0
LINE
  5
252
100
AcDbEntity
  8
0
100
AcDbLine
 62
7
  6
BYLAYER
 10
79.3513626417
 20
53.967833698
 11
78.9041805034
 21
52.2989272374
  0
LINE
  5
253
100
AcDbEntity
  8
0
100
AcDbLine
 62
7
  6
BYLAYER
 10
83.9513626417
 20
57.167833698
 11
83.7513626417
 21
56.9678336981
  0
LINE
  5
254
100
AcDbEntity
  8
0
100
AcDbLine
 62
7
  6
BYLAYER
 10
83.9513626417
 20
74.767833698
 11
83.7513626417
 21
74.967833698
  0
LINE
  5
255
100
AcDbEntity
  8
0
100
AcDbLine
 62
7
  6
BYLAYER
 10
79.3513626417
 20
77.967833698
 11
78.9041805034
 21
79.6367401586
  0
LINE
  5
256
100
AcDbEntity
  8
0
100
AcDbLine
 62
7
  6
BYLAYER
 10
83.7513626417
 20
74.967833698
 11
83.7513626417
 21
56.967833698
  0
LINE
  5
257
100
AcDbEntity
  8
0
100
AcDbLine
 62
7
  6
BYLAYER
 10
83.9513626417
 20
74.7677830224
 11
83.9513626417
 21
57.1680035234
  0
LINE
  5
258
100
AcDbEntity
  8
0
100
AcDbLine
 62
7
  6
BYLAYER
 10
84.1513626417
 20
74.167833698
 11
84.1513626417
 21
57.767833698
  0
LINE
  5
259
100
AcDbEntity
  8
0
100
AcDbLine
 62
7
  6
BYLAYER
 10
84.3513626417
 20
74.0178565238
 11
84.3513626417
 21
57.9178401839
  0
ARC
  5
25A
100
AcDbEntity
  8
0
100
AcDbCircle
 62
7
  6
BYLAYER
 10
112.6615305827
 20
70.9534283874
 40
44.9010673968
100
AcDbArc
 50
177.3287698883
 51
178.1588498354
  0
ARC
  5
25B
100
AcDbEntity
  8
0
100
AcDbCircle
 62
7
  6
BYLAYER
 10
120.6615305824
 20
70.9534283846
 40
44.9010673967
100
AcDbArc
 50
177.3287698848
 51
178.1588498319
  0
ARC
  5
25C
100
AcDbEntity
  8
0
100
AcDbCircle
 62
7
  6
BYLAYER
 10
26.0411947045
 20
70.9534283875
 40
44.9010673931
100
AcDbArc
 50
1.8411501645
 51
2.6712301117
  0
ARC
  5
25D
100
AcDbEntity
  8
0
100
AcDbCircle
 62
7
  6
BYLAYER
 10
34.0411947051
 20
70.9534283848
 40
44.9010673926
100
AcDbArc
 50
1.841150168
 51
2.6712301152
  0
ARC
  5
25E
100
AcDbEntity
  8
0
100
AcDbCircle
 62
7
  6
BYLAYER
 10
26.0412622146
 20
60.982212102
 40
44.9009987026
100
AcDbArc
 50
357.3288001703
 51
358.1588813697
  0
ARC
  5
25F
100
AcDbEntity
  8
0
100
AcDbCircle
 62
7
  6
BYLAYER
 10
34.041262216
 20
60.9822121012
 40
44.9009987012
100
AcDbArc
 50
357.3288001711
 51
358.1588813706
  0
ARC
  5
260
100
AcDbEntity
  8
0
100
AcDbCircle
 62
7
  6
BYLAYER
 10
112.6614630641
 20
60.9822121018
 40
44.9009986979
100
AcDbArc
 50
181.8411186303
 51
182.6711998298
  0
ARC
  5
261
100
AcDbEntity
  8
0
100
AcDbCircle
 62
7
  6
BYLAYER
 10
120.6614630627
 20
60.9822121011
 40
44.9009986965
100
AcDbArc
 50
181.8411186294
 51
182.6711998289
  0
ARC
  5
262
100
AcDbEntity
  8
0
100
AcDbCircle
 62
7
  6
BYLAYER
 10
68.9562363362
 20
52.6092489674
 40
1.1985623531
100
AcDbArc
 50
195.0054920765
 51
196.8698769094
  0
ARC
  5
263
100
AcDbEntity
  8
0
100
AcDbCircle
 62
7
  6
BYLAYER
 10
69.74648932
 20
79.3264185474
 40
1.1985619622
100
AcDbArc
 50
15.0054912102
 51
16.869876646
  0
ARC
  5
264
100
AcDbEntity
  8
0
100
AcDbCircle
 62
7
  6
BYLAYER
 10
84.1513626417
 20
57.917833698
 40
0.2
100
AcDbArc
 50
311.4096221093
 51
360.0
  0
ARC
  5
265
100
AcDbEntity
  8
0
100
AcDbCircle
 62
7
  6
BYLAYER
 10
84.1513626417
 20
74.017833698
 40
0.2
100
AcDbArc
 50
0.0
 51
48.5903778907
  0
ARC
  5
266
100
AcDbEntity
  8
0
100
AcDbCircle
 62
7
  6
BYLAYER
 10
20.7513626417
 20
67.7322906509
 40
0.2
100
AcDbArc
 50
180.0
 51
267.0
  0
ARC
  5
267
100
AcDbEntity
  8
0
100
AcDbCircle
 62
7
  6
BYLAYER
 10
20.7513626417
 20
70.1430737071
 40
0.2
100
AcDbArc
 50
93.0
 51
180.0
  0
ARC
  5
268
100
AcDbEntity
  8
0
100
AcDbCircle
 62
7
  6
BYLAYER
 10
22.3513626417
 20
70.6274750924
 40
0.2
100
AcDbArc
 50
273.0
 51
360.0
  0
ARC
  5
269
100
AcDbEntity
  8
0
100
AcDbCircle
 62
7
  6
BYLAYER
 10
22.3513626417
 20
67.2478892657
 40
0.2
100
AcDbArc
 50
0.0
 51
87.0
  0
ARC
  5
26A
100
AcDbEntity
  8
0
100
AcDbCircle
 62
7
  6
BYLAYER
 10
25.9513626417
 20
73.767833698
 40
0.2
100
AcDbArc
 50
90.0
 51
180.0
  0
ARC
  5
26B
100
AcDbEntity
  8
0
100
AcDbCircle
 62
7
  6
BYLAYER
 10
25.9513626417
 20
58.167833698
 40
0.2
100
AcDbArc
 50
180.0
 51
270.0
  0
ARC
  5
26C
100
AcDbEntity
  8
0
100
AcDbCircle
 62
7
  6
BYLAYER
 10
22.7513626417
 20
59.8617364722
 40
0.2
100
AcDbArc
 50
180.0
 51
260.0
  0
ARC
  5
26D
100
AcDbEntity
  8
0
100
AcDbCircle
 62
7
  6
BYLAYER
 10
22.7513626417
 20
72.0739309239
 40
0.2
100
AcDbArc
 50
100.0
 51
180.0
  0
SPLINE
  5
26E
100
AcDbEntity
  8
0
100
AcDbSpline
 62
7
  6
BYLAYER
 70
0
 71
3
 72
11
 73
7
 74
0
 42
0.0000001
 43
0.0000001
 44
0.0000000001
 40
0.0
 40
0.0
 40
0.0
 40
0.0
 40
0.247889401
 40
0.4967445174
 40
0.747310414
 40
1.0
 40
1.0
 40
1.0
 40
1.0
 10
67.3513636967
 20
55.5755288091
 30
0.0
 10
67.3513628062
 20
55.8526862454
 30
0.0
 10
67.3721440676
 20
56.4082908529
 30
0.0
 10
67.463518528
 20
57.2394623132
 30
0.0
 10
67.6097741174
 20
58.0680746803
 30
0.0
 10
67.7383890735
 20
58.6161375375
 30
0.0
 10
67.8092525976
 20
58.8896304678
 30
0.0
  0
SPLINE
  5
26F
100
AcDbEntity
  8
0
100
AcDbSpline
 62
7
  6
BYLAYER
 70
0
 71
3
 72
10
 73
6
 74
0
 42
0.0000001
 43
0.0000001
 44
0.0000000001
 40
0.0
 40
0.0
 40
0.0
 40
0.0
 40
0.4999751553
 40
0.7499877106
 40
1.0
 40
1.0
 40
1.0
 40
1.0
 10
67.7836440461
 20
59.5396304678
 30
0.0
 10
67.6487852029
 20
60.6054917861
 30
0.0
 10
67.4850710124
 20
62.2099182944
 30
0.0
 10
67.3707983297
 20
64.3560271489
 30
0.0
 10
67.3513626423
 20
65.4306010085
 30
0.0
 10
67.3513626402
 20
65.9678336088
 30
0.0
  0
SPLINE
  5
270
100
AcDbEntity
  8
0
100
AcDbSpline
 62
7
  6
BYLAYER
 70
0
 71
3
 72
10
 73
6
 74
0
 42
0.0000001
 43
0.0000001
 44
0.0000000001
 40
0.0
 40
0.0
 40
0.0
 40
0.0
 40
0.5031597986
 40
0.7520634306
 40
1.0
 40
1.0
 40
1.0
 40
1.0
 10
70.8934726852
 20
58.8896304678
 30
0.0
 10
71.0345497533
 20
58.3451531607
 30
0.0
 10
71.2083625921
 20
57.5201839084
 30
0.0
 10
71.3305844138
 20
56.4083085824
 30
0.0
 10
71.3513629952
 20
55.8526847696
 30
0.0
 10
71.3513615867
 20
55.5755287892
 30
0.0
  0
SPLINE
  5
271
100
AcDbEntity
  8
0
100
AcDbSpline
 62
7
  6
BYLAYER
 70
0
 71
3
 72
10
 73
6
 74
0
 42
0.0000001
 43
0.0000001
 44
0.0000000001
 40
0.0
 40
0.0
 40
0.0
 40
0.0
 40
0.2500122893
 40
0.5000248477
 40
1.0
 40
1.0
 40
1.0
 40
1.0
 10
67.3513626402
 20
65.9678336088
 30
0.0
 10
67.3513626402
 20
66.5050662179
 30
0.0
 10
67.3707993741
 20
67.579640081
 30
0.0
 10
67.4850709583
 20
69.7257490043
 30
0.0
 10
67.6487848211
 20
71.3301756013
 30
0.0
 10
67.7836436846
 20
72.3960369283
 30
0.0
  0
SPLINE
  5
272
100
AcDbEntity
  8
0
100
AcDbSpline
 62
7
  6
BYLAYER
 70
0
 71
3
 72
10
 73
6
 74
0
 42
0.0000001
 43
0.0000001
 44
0.0000000001
 40
0.0
 40
0.0
 40
0.0
 40
0.0
 40
0.5031597986
 40
0.7520634306
 40
1.0
 40
1.0
 40
1.0
 40
1.0
 10
67.8092525984
 20
73.0460369283
 30
0.0
 10
67.6681755348
 20
73.5905142181
 30
0.0
 10
67.4943627001
 20
74.4154834436
 30
0.0
 10
67.3721408763
 20
75.5273587335
 30
0.0
 10
67.351362291
 20
76.0829825284
 30
0.0
 10
67.3513636967
 20
76.3601384999
 30
0.0
  0
SPLINE
  5
273
100
AcDbEntity
  8
0
100
AcDbSpline
 62
7
  6
BYLAYER
 70
0
 71
3
 72
10
 73
6
 74
0
 42
0.0000001
 43
0.0000001
 44
0.0000000001
 40
0.0
 40
0.0
 40
0.0
 40
0.0
 40
0.4999751549
 40
0.7499877125
 40
1.0
 40
1.0
 40
1.0
 40
1.0
 10
70.9190815989
 20
72.3960369283
 30
0.0
 10
71.0539404631
 20
71.3301755957
 30
0.0
 10
71.2176543242
 20
69.7257489945
 30
0.0
 10
71.3319259076
 20
67.5796400713
 30
0.0
 10
71.3513626433
 20
66.5050662139
 30
0.0
 10
71.3513626433
 20
65.9678336088
 30
0.0
  0
SPLINE
  5
274
100
AcDbEntity
  8
0
100
AcDbSpline
 62
7
  6
BYLAYER
 70
0
 71
3
 72
11
 73
7
 74
0
 42
0.0000001
 43
0.0000001
 44
0.0000000001
 40
0.0
 40
0.0
 40
0.0
 40
0.0
 40
0.2478894009
 40
0.4967445175
 40
0.7473104142
 40
1.0
 40
1.0
 40
1.0
 40
1.0
 10
71.3513615867
 20
76.3601384801
 30
0.0
 10
71.3513624746
 20
76.0829810527
 30
0.0
 10
71.3305812206
 20
75.5273764624
 30
0.0
 10
71.2392067446
 20
74.6962050299
 30
0.0
 10
71.0929511552
 20
73.8675926904
 30
0.0
 10
70.9643362075
 20
73.3195298497
 30
0.0
 10
70.8934726858
 20
73.0460369283
 30
0.0
  0
SPLINE
  5
275
100
AcDbEntity
  8
0
100
AcDbSpline
 62
7
  6
BYLAYER
 70
0
 71
3
 72
10
 73
6
 74
0
 42
0.0000001
 43
0.0000001
 44
0.0000000001
 40
0.0
 40
0.0
 40
0.0
 40
0.0
 40
0.2500122912
 40
0.5000248473
 40
1.0
 40
1.0
 40
1.0
 40
1.0
 10
71.3513626433
 20
65.9678336088
 30
0.0
 10
71.3513626412
 20
65.4306010045
 30
0.0
 10
71.3319269553
 20
64.3560271392
 30
0.0
 10
71.2176542724
 20
62.2099182845
 30
0.0
 10
71.0539400799
 20
60.6054917804
 30
0.0
 10
70.9190812374
 20
59.5396304678
 30
0.0
  0
SPLINE
  5
276
100
AcDbEntity
  8
0
100
AcDbSpline
 62
7
  6
BYLAYER
 70
0
 71
3
 72
10
 73
6
 74
0
 42
0.0000001
 43
0.0000001
 44
0.0000000001
 40
0.0
 40
0.0
 40
0.0
 40
0.0
 40
0.5031597986
 40
0.7520634306
 40
1.0
 40
1.0
 40
1.0
 40
1.0
 10
70.8934726852
 20
79.6742401586
 30
0.0
 10
71.0345497533
 20
79.1297628515
 30
0.0
 10
71.2083625921
 20
78.3047935993
 30
0.0
 10
71.3305844138
 20
77.1929182733
 30
0.0
 10
71.3513629952
 20
76.6372944604
 30
0.0
 10
71.3513615867
 20
76.3601384801
 30
0.0
  0
SPLINE
  5
277
100
AcDbEntity
  8
0
100
AcDbSpline
 62
7
  6
BYLAYER
 70
0
 71
3
 72
11
 73
7
 74
0
 42
0.0000001
 43
0.0000001
 44
0.0000000001
 40
0.0
 40
0.0
 40
0.0
 40
0.0
 40
0.247889401
 40
0.4967445174
 40
0.747310414
 40
1.0
 40
1.0
 40
1.0
 40
1.0
 10
67.3513636967
 20
76.3601384999
 30
0.0
 10
67.3513628062
 20
76.6372959363
 30
0.0
 10
67.3721440676
 20
77.1929005438
 30
0.0
 10
67.463518528
 20
78.0240720041
 30
0.0
 10
67.6097741174
 20
78.8526843712
 30
0.0
 10
67.7383890735
 20
79.4007472283
 30
0.0
 10
67.8092525976
 20
79.6742401586
 30
0.0
  0
SPLINE
  5
278
100
AcDbEntity
  8
0
100
AcDbSpline
 62
7
  6
BYLAYER
 70
0
 71
3
 72
11
 73
7
 74
0
 42
0.0000001
 43
0.0000001
 44
0.0000000001
 40
0.0
 40
0.0
 40
0.0
 40
0.0
 40
0.2478894009
 40
0.4967445175
 40
0.7473104142
 40
1.0
 40
1.0
 40
1.0
 40
1.0
 10
71.3513615867
 20
55.5755287892
 30
0.0
 10
71.3513624746
 20
55.2983713618
 30
0.0
 10
71.3305812206
 20
54.7427667715
 30
0.0
 10
71.2392067446
 20
53.911595339
 30
0.0
 10
71.0929511552
 20
53.0829829995
 30
0.0
 10
70.9643362075
 20
52.5349201588
 30
0.0
 10
70.8934726858
 20
52.2614272374
 30
0.0
  0
SPLINE
  5
279
100
AcDbEntity
  8
0
100
AcDbSpline
 62
7
  6
BYLAYER
 70
0
 71
3
 72
10
 73
6
 74
0
 42
0.0000001
 43
0.0000001
 44
0.0000000001
 40
0.0
 40
0.0
 40
0.0
 40
0.0
 40
0.5031597986
 40
0.7520634306
 40
1.0
 40
1.0
 40
1.0
 40
1.0
 10
67.8092525984
 20
52.2614272374
 30
0.0
 10
67.6681755348
 20
52.8059045272
 30
0.0
 10
67.4943627001
 20
53.6308737527
 30
0.0
 10
67.3721408763
 20
54.7427490426
 30
0.0
 10
67.351362291
 20
55.2983728376
 30
0.0
 10
67.3513636967
 20
55.5755288091
 30
0.0
  0
SPLINE
  5
27A
100
AcDbEntity
  8
0
100
AcDbSpline
 62
7
  6
BYLAYER
 70
0
 71
3
 72
11
 73
7
 74
0
 42
0.0000001
 43
0.0000001
 44
0.0000000001
 40
0.0
 40
0.0
 40
0.0
 40
0.0
 40
0.2478894009
 40
0.4967445175
 40
0.7473104142
 40
1.0
 40
1.0
 40
1.0
 40
1.0
 10
79.3513615868
 20
76.3601384801
 30
0.0
 10
79.3513624746
 20
76.0829810527
 30
0.0
 10
79.3305812206
 20
75.5273764624
 30
0.0
 10
79.2392067446
 20
74.6962050299
 30
0.0
 10
79.0929511552
 20
73.8675926903
 30
0.0
 10
78.9643362075
 20
73.3195298497
 30
0.0
 10
78.8934726857
 20
73.0460369283
 30
0.0
  0
SPLINE
  5
27B
100
AcDbEntity
  8
0
100
AcDbSpline
 62
7
  6
BYLAYER
 70
0
 71
3
 72
11
 73
7
 74
0
 42
0.0000001
 43
0.0000001
 44
0.0000000001
 40
0.0
 40
0.0
 40
0.0
 40
0.0
 40
0.247889401
 40
0.4967445174
 40
0.747310414
 40
1.0
 40
1.0
 40
1.0
 40
1.0
 10
75.3513636967
 20
76.3601384999
 30
0.0
 10
75.3513628062
 20
76.6372959363
 30
0.0
 10
75.3721440676
 20
77.1929005438
 30
0.0
 10
75.463518528
 20
78.0240720041
 30
0.0
 10
75.6097741174
 20
78.8526843712
 30
0.0
 10
75.7383890735
 20
79.4007472283
 30
0.0
 10
75.8092525976
 20
79.6742401586
 30
0.0
  0
SPLINE
  5
27C
100
AcDbEntity
  8
0
100
AcDbSpline
 62
7
  6
BYLAYER
 70
0
 71
3
 72
10
 73
6
 74
0
 42
0.0000001
 43
0.0000001
 44
0.0000000001
 40
0.0
 40
0.0
 40
0.0
 40
0.0
 40
0.5031597986
 40
0.7520634306
 40
1.0
 40
1.0
 40
1.0
 40
1.0
 10
78.8934726852
 20
79.6742401586
 30
0.0
 10
79.0345497533
 20
79.1297628515
 30
0.0
 10
79.2083625922
 20
78.3047935993
 30
0.0
 10
79.3305844138
 20
77.1929182733
 30
0.0
 10
79.3513629952
 20
76.6372944605
 30
0.0
 10
79.3513615868
 20
76.3601384801
 30
0.0
  0
SPLINE
  5
27D
100
AcDbEntity
  8
0
100
AcDbSpline
 62
7
  6
BYLAYER
 70
0
 71
3
 72
10
 73
6
 74
0
 42
0.0000001
 43
0.0000001
 44
0.0000000001
 40
0.0
 40
0.0
 40
0.0
 40
0.0
 40
0.5031597986
 40
0.7520634306
 40
1.0
 40
1.0
 40
1.0
 40
1.0
 10
75.8092525984
 20
52.2614272374
 30
0.0
 10
75.6681755348
 20
52.8059045272
 30
0.0
 10
75.4943627001
 20
53.6308737527
 30
0.0
 10
75.3721408763
 20
54.7427490426
 30
0.0
 10
75.3513622909
 20
55.2983728376
 30
0.0
 10
75.3513636967
 20
55.5755288091
 30
0.0
  0
SPLINE
  5
27E
100
AcDbEntity
  8
0
100
AcDbSpline
 62
7
  6
BYLAYER
 70
0
 71
3
 72
11
 73
7
 74
0
 42
0.0000001
 43
0.0000001
 44
0.0000000001
 40
0.0
 40
0.0
 40
0.0
 40
0.0
 40
0.2478894009
 40
0.4967445175
 40
0.7473104142
 40
1.0
 40
1.0
 40
1.0
 40
1.0
 10
79.3513615868
 20
55.5755287892
 30
0.0
 10
79.3513624746
 20
55.2983713618
 30
0.0
 10
79.3305812206
 20
54.7427667715
 30
0.0
 10
79.2392067446
 20
53.911595339
 30
0.0
 10
79.0929511552
 20
53.0829829995
 30
0.0
 10
78.9643362075
 20
52.5349201588
 30
0.0
 10
78.8934726858
 20
52.2614272374
 30
0.0
  0
SPLINE
  5
27F
100
AcDbEntity
  8
0
100
AcDbSpline
 62
7
  6
BYLAYER
 70
0
 71
3
 72
10
 73
6
 74
0
 42
0.0000001
 43
0.0000001
 44
0.0000000001
 40
0.0
 40
0.0
 40
0.0
 40
0.0
 40
0.4999751553
 40
0.7499877106
 40
1.0
 40
1.0
 40
1.0
 40
1.0
 10
75.7836440461
 20
59.5396304678
 30
0.0
 10
75.6487852029
 20
60.6054917861
 30
0.0
 10
75.4850710124
 20
62.2099182944
 30
0.0
 10
75.3707983297
 20
64.3560271489
 30
0.0
 10
75.3513626423
 20
65.4306010085
 30
0.0
 10
75.3513626402
 20
65.9678336088
 30
0.0
  0
SPLINE
  5
280
100
AcDbEntity
  8
0
100
AcDbSpline
 62
7
  6
BYLAYER
 70
0
 71
3
 72
10
 73
6
 74
0
 42
0.0000001
 43
0.0000001
 44
0.0000000001
 40
0.0
 40
0.0
 40
0.0
 40
0.0
 40
0.2500122893
 40
0.5000248477
 40
1.0
 40
1.0
 40
1.0
 40
1.0
 10
75.3513626402
 20
65.9678336088
 30
0.0
 10
75.3513626402
 20
66.5050662179
 30
0.0
 10
75.3707993741
 20
67.579640081
 30
0.0
 10
75.4850709583
 20
69.7257490043
 30
0.0
 10
75.6487848211
 20
71.3301756013
 30
0.0
 10
75.7836436845
 20
72.3960369283
 30
0.0
  0
SPLINE
  5
281
100
AcDbEntity
  8
0
100
AcDbSpline
 62
7
  6
BYLAYER
 70
0
 71
3
 72
11
 73
7
 74
0
 42
0.0000001
 43
0.0000001
 44
0.0000000001
 40
0.0
 40
0.0
 40
0.0
 40
0.0
 40
0.247889401
 40
0.4967445174
 40
0.747310414
 40
1.0
 40
1.0
 40
1.0
 40
1.0
 10
75.3513636967
 20
55.5755288091
 30
0.0
 10
75.3513628062
 20
55.8526862454
 30
0.0
 10
75.3721440676
 20
56.4082908529
 30
0.0
 10
75.463518528
 20
57.2394623132
 30
0.0
 10
75.6097741174
 20
58.0680746803
 30
0.0
 10
75.7383890735
 20
58.6161375375
 30
0.0
 10
75.8092525976
 20
58.8896304678
 30
0.0
  0
SPLINE
  5
282
100
AcDbEntity
  8
0
100
AcDbSpline
 62
7
  6
BYLAYER
 70
0
 71
3
 72
10
 73
6
 74
0
 42
0.0000001
 43
0.0000001
 44
0.0000000001
 40
0.0
 40
0.0
 40
0.0
 40
0.0
 40
0.5031597986
 40
0.7520634306
 40
1.0
 40
1.0
 40
1.0
 40
1.0
 10
75.8092525984
 20
73.0460369283
 30
0.0
 10
75.6681755348
 20
73.5905142181
 30
0.0
 10
75.4943627001
 20
74.4154834436
 30
0.0
 10
75.3721408763
 20
75.5273587335
 30
0.0
 10
75.3513622909
 20
76.0829825284
 30
0.0
 10
75.3513636967
 20
76.3601384999
 30
0.0
  0
SPLINE
  5
283
100
AcDbEntity
  8
0
100
AcDbSpline
 62
7
  6
BYLAYER
 70
0
 71
3
 72
10
 73
6
 74
0
 42
0.0000001
 43
0.0000001
 44
0.0000000001
 40
0.0
 40
0.0
 40
0.0
 40
0.0
 40
0.4999751549
 40
0.7499877125
 40
1.0
 40
1.0
 40
1.0
 40
1.0
 10
78.9190815989
 20
72.3960369283
 30
0.0
 10
79.0539404631
 20
71.3301755957
 30
0.0
 10
79.2176543242
 20
69.7257489945
 30
0.0
 10
79.3319259076
 20
67.5796400713
 30
0.0
 10
79.3513626433
 20
66.5050662139
 30
0.0
 10
79.3513626433
 20
65.9678336088
 30
0.0
  0
SPLINE
  5
284
100
AcDbEntity
  8
0
100
AcDbSpline
 62
7
  6
BYLAYER
 70
0
 71
3
 72
10
 73
6
 74
0
 42
0.0000001
 43
0.0000001
 44
0.0000000001
 40
0.0
 40
0.0
 40
0.0
 40
0.0
 40
0.2500122912
 40
0.5000248473
 40
1.0
 40
1.0
 40
1.0
 40
1.0
 10
79.3513626433
 20
65.9678336088
 30
0.0
 10
79.3513626412
 20
65.4306010045
 30
0.0
 10
79.3319269553
 20
64.3560271392
 30
0.0
 10
79.2176542724
 20
62.2099182845
 30
0.0
 10
79.0539400799
 20
60.6054917804
 30
0.0
 10
78.9190812374
 20
59.5396304678
 30
0.0
  0
SPLINE
  5
285
100
AcDbEntity
  8
0
100
AcDbSpline
 62
7
  6
BYLAYER
 70
0
 71
3
 72
10
 73
6
 74
0
 42
0.0000001
 43
0.0000001
 44
0.0000000001
 40
0.0
 40
0.0
 40
0.0
 40
0.0
 40
0.5031597986
 40
0.7520634306
 40
1.0
 40
1.0
 40
1.0
 40
1.0
 10
78.8934726852
 20
58.8896304678
 30
0.0
 10
79.0345497533
 20
58.3451531607
 30
0.0
 10
79.2083625922
 20
57.5201839084
 30
0.0
 10
79.3305844138
 20
56.4083085824
 30
0.0
 10
79.3513629952
 20
55.8526847696
 30
0.0
 10
79.3513615868
 20
55.5755287892
 30
0.0
  0
ENDSEC
  0
SECTION
  2
OBJECTS
  0
DICTIONARY
  5
C
100
AcDbDictionary
280
0
281
1
  3
ACAD_GROUP
350
D
  3
ACAD_MLINESTYLE
350
17
  3
ACAD_LAYOUT
350
1A
  3
ACAD_PLOTSETTINGS
350
19
  3
ACAD_PLOTSTYLENAME
350
E
  0
DICTIONARY
  5
D
102
{ACAD_REACTORS
330
C
102
}
100
AcDbDictionary
280
0
281
1
  0
ACDBDICTIONARYWDFLT
  5
E
102
{ACAD_REACTORS
330
C
102
}
100
AcDbDictionary
281
1
  3
Normal
350
F
100
AcDbDictionaryWithDefault
340
F
  0
DICTIONARY
  5
17
102
{ACAD_REACTORS
330
C
102
}
100
AcDbDictionary
280
0
281
1
  3
Standard
350
18
  0
DICTIONARY
  5
19
102
{ACAD_REACTORS
330
C
102
}
100
AcDbDictionary
281
1
  0
DICTIONARY
  5
1A
102
{ACAD_REACTORS
330
C
102
}
100
AcDbDictionary
281
1
  3
Model
350
286
  3
Layout1
350
287
  0
ACDBPLACEHOLDER
  5
F
102
{ACAD_REACTORS
330
E
102
}
  0
MLINESTYLE
  5
18
102
{ACAD_REACTORS
330
17
102
}
100
AcDbMlineStyle
  2
STANDARD
 70
0
  3

 62
256
 51
90.0
 52
90.0
 71
2
 49
0.5
 62
256
  6
BYLAYER
 49
-0.5
 62
256
  6
BYLAYER
  0
LAYOUT
  5
286
102
{ACAD_REACTORS
330
1A
102
}
100
AcDbPlotSettings
  1

  2
none_device
  4

  6

 40
0.0
 41
0.0
 42
0.0
 43
0.0
 44
210.0
 45
297.0
 46
0.0
 47
0.0
 48
0.0
 49
0.0
140
0.0
141
0.0
142
1.0
143
1.0
 70
1024
 72
1
 73
0
 74
0
  7

 75
0
147
1.0
148
0.0
149
0.0
100
AcDbLayout
  1
Model
 70
0
 71
0
 10
0.0
 20
0.0
 11
210.0
 21
297.0
 12
0.0
 22
0.0
 32
0.0
 14
0.0
 24
0.0
 34
0.0
 15
0.0
 25
0.0
 35
0.0
146
0.0
 13
0.0
 23
0.0
 33
0.0
 16
1.0
 26
0.0
 36
0.0
 17
0.0
 27
1.0
 37
0.0
 76
0
330
210
345
0
346
0
  0
LAYOUT
  5
287
102
{ACAD_REACTORS
330
1A
102
}
100
AcDbPlotSettings
  1

  2
none_device
  4

  6

 40
0.0
 41
0.0
 42
0.0
 43
0.0
 44
210.0
 45
297.0
 46
0.0
 47
0.0
 48
0.0
 49
0.0
140
0.0
141
0.0
142
1.0
143
1.0
 70
0
 72
1
 73
0
 74
0
  7

 75
0
147
1.0
148
0.0
149
0.0
100
AcDbLayout
  1
Layout1
 70
0
 71
1
 10
0.0
 20
0.0
 11
210.0
 21
297.0
 12
0.0
 22
0.0
 32
0.0
 14
0.0
 24
0.0
 34
0.0
 15
0.0
 25
0.0
 35
0.0
146
0.0
 13
0.0
 23
0.0
 33
0.0
 16
1.0
 26
0.0
 36
0.0
 17
0.0
 27
1.0
 37
0.0
 76
0
330
211
345
0
346
0
  0
ENDSEC
  0
EOF
