999
DXF file: C:\Users\sesa63760\Dev\_Creo\CAD\MCADID0004986_3D-CAD\drw0001_1.dxf
999
Pro/ENGINEER 2019471 by Parametric Technology Corporation
  0
SECTION
  2
HEADER
  9
$ACADVER
  1
AC1024
  9
$DWGCODEPAGE
  3
ANSI_1252
  9
$EXTMAX
 10
79.0997729387
 20
111.8696788704
 30
0.0
  9
$EXTMIN
 10
0.0
 20
0.0
 30
0.0
  9
$LIMMIN
 10
0.0
 20
0.0
  9
$LIMMAX
 10
79.0997729387
 20
111.8696788704
  9
$VIEWCTR
 10
39.5498864693
 20
55.9348394352
  9
$VIEWSIZE
 40
111.8696788704
  9
$CLAYER
  8
0
  9
$LTSCALE
 40
7.2922457338
  9
$CELTYPE
  6
BYLAYER
  9
$DIMSCALE
 40
1.0
  9
$DIMASZ
 40
0.9416639636
  9
$DIMEXO
 40
1.0
  9
$DIMDLI
 40
5.0382788706
  9
$DIMEXE
 40
1.0
  9
$DIMCEN
 40
1.1932765746
  9
$DIMLFAC
 40
1.0
  9
$DIMBLK
  1
_FILLED
  9
$DIMALT
 70
0
  9
$DIMALTF
 40
0.0393700787
  9
$DIMTXT
 40
1.318329549
  9
$DIMTOL
 70
1
  9
$DIMLIM
 70
0
  9
$DIMTFAC
 40
1.0
  9
$DIMTP
 40
0.01
  9
$DIMTM
 40
0.01
  9
$DIMGAP
 40
0.625
  9
$DIMDSEP
 70
46
  9
$AUNITS
 70
0
  9
$PDMODE
 70
3
  9
$PDSIZE
 40
0.3125
  9
$HANDSEED
  5
362
  9
$TILEMODE
 70
1
  9
$MEASUREMENT
 70
1
  9
$INSUNITS
 70
4
  0
ENDSEC
  0
SECTION
  2
CLASSES
  0
CLASS
  1
ACDBDICTIONARYWDFLT
  2
AcDbDictionaryWithDefault
  3
AutoCAD 2000
 90
0
 91
1
280
0
281
0
  0
CLASS
  1
ACDBPLACEHOLDER
  2
AcDbPlaceHolder
  3
AutoCAD 2000
 90
0
 91
1
280
0
281
0
  0
CLASS
  1
LAYOUT
  2
AcDbLayout
  3
AutoCAD 2000
 90
0
 91
0
280
0
281
0
  0
ENDSEC
  0
SECTION
  2
TABLES
  0
TABLE
  2
VPORT
  5
8
100
AcDbSymbolTable
 70
2
  0
VPORT
  5
1F4
100
AcDbSymbolTableRecord
100
AcDbViewportTableRecord
  2
*ACTIVE
 70
0
 10
0.0
 20
0.0
 11
1.0
 21
1.0
 12
39.5498864693
 22
55.9348394352
 13
0.0
 23
0.0
 14
1.0
 24
1.0
 15
0.0
 25
0.0
 16
0.0
 26
0.0
 36
1.0
 17
0.0
 27
0.0
 37
0.0
 40
111.8696788704
 41
0.7070707071
 42
50.0
 43
0.0
 44
0.0
 50
0.0
 51
0.0
 71
0
 72
100
 73
1
 74
1
 75
0
 76
0
 77
0
 78
0
  0
ENDTAB
  0
TABLE
  2
LTYPE
  5
5
100
AcDbSymbolTable
 70
6
  0
LTYPE
  5
14
100
AcDbSymbolTableRecord
100
AcDbLinetypeTableRecord
  2
BYBLOCK
 70
0
  3

 72
65
 73
0
 40
0.0
  0
LTYPE
  5
15
100
AcDbSymbolTableRecord
100
AcDbLinetypeTableRecord
  2
BYLAYER
 70
0
  3

 72
65
 73
0
 40
0.0
  0
LTYPE
  5
16
100
AcDbSymbolTableRecord
100
AcDbLinetypeTableRecord
  2
CONTINUOUS
 70
64
  3
Solid line
 72
65
 73
0
 40
0.0
  0
LTYPE
  5
1F5
100
AcDbSymbolTableRecord
100
AcDbLinetypeTableRecord
  2
CENTER
 70
64
  3
____ _ ____ _ ____ _ ____ _ ____ _ ____ _ ____
 72
65
 73
4
 40
0.6
 49
0.375
 74
0
 49
-0.075
 74
0
 49
0.075
 74
0
 49
-0.075
 74
0
  0
LTYPE
  5
1F6
100
AcDbSymbolTableRecord
100
AcDbLinetypeTableRecord
  2
HIDDEN
 70
64
  3
- - - - - - - - - - - - - - - - - - - -
 72
65
 73
2
 40
0.2
 49
0.1
 74
0
 49
-0.1
 74
0
  0
LTYPE
  5
1F7
100
AcDbSymbolTableRecord
100
AcDbLinetypeTableRecord
  2
PHANTOM
 70
64
  3
_____ _ _ _____ _ _ _____ _ _ _____
 72
65
 73
6
 40
0.8
 49
0.45
 74
0
 49
-0.05
 74
0
 49
0.1
 74
0
 49
-0.05
 74
0
 49
0.1
 74
0
 49
-0.05
 74
0
  0
LTYPE
  5
1F8
100
AcDbSymbolTableRecord
100
AcDbLinetypeTableRecord
  2
DOT
 70
64
  3
. . . . . . . . . . . . . . . . . . . .
 72
65
 73
2
 40
0.2
 49
0.1
 74
0
 49
-0.1
 74
0
  0
LTYPE
  5
1F9
100
AcDbSymbolTableRecord
100
AcDbLinetypeTableRecord
  2
DASHED
 70
64
  3
- - - - - - - - - - - - - - - - - - - -
 72
65
 73
2
 40
0.2
 49
0.1
 74
0
 49
-0.1
 74
0
  0
ENDTAB
  0
TABLE
  2
LAYER
  5
2
100
AcDbSymbolTable
 70
36
  0
LAYER
  5
10
100
AcDbSymbolTableRecord
100
AcDbLayerTableRecord
  2
0
 70
0
 62
7
  6
CONTINUOUS
370
-3
390
F
  0
LAYER
  5
1FA
100
AcDbSymbolTableRecord
100
AcDbLayerTableRecord
  2
DEFAULT_1
 70
0
 62
7
  6
CENTER
370
-3
390
F
  0
LAYER
  5
1FB
100
AcDbSymbolTableRecord
100
AcDbLayerTableRecord
  2
DEFAULT_2
 70
0
 62
7
  6
HIDDEN
370
-3
390
F
  0
LAYER
  5
1FC
100
AcDbSymbolTableRecord
100
AcDbLayerTableRecord
  2
DEFAULT_3
 70
0
 62
7
  6
PHANTOM
370
-3
390
F
  0
LAYER
  5
1FD
100
AcDbSymbolTableRecord
100
AcDbLayerTableRecord
  2
00_COMPONENTS
 70
0
 62
7
  6
CONTINUOUS
370
-3
390
F
  0
LAYER
  5
1FE
100
AcDbSymbolTableRecord
100
AcDbLayerTableRecord
  2
01_1_DEFAULT_DATUMS
 70
0
 62
7
  6
CONTINUOUS
370
-3
390
F
  0
LAYER
  5
1FF
100
AcDbSymbolTableRecord
100
AcDbLayerTableRecord
  2
01_PLANES
 70
0
 62
7
  6
CONTINUOUS
370
-3
390
F
  0
LAYER
  5
200
100
AcDbSymbolTableRecord
100
AcDbLayerTableRecord
  2
02_COORD_SYS
 70
0
 62
7
  6
CONTINUOUS
370
-3
390
F
  0
LAYER
  5
201
100
AcDbSymbolTableRecord
100
AcDbLayerTableRecord
  2
03_AXES
 70
0
 62
7
  6
CONTINUOUS
370
-3
390
F
  0
LAYER
  5
202
100
AcDbSymbolTableRecord
100
AcDbLayerTableRecord
  2
04_POINTS
 70
0
 62
7
  6
CONTINUOUS
370
-3
390
F
  0
LAYER
  5
203
100
AcDbSymbolTableRecord
100
AcDbLayerTableRecord
  2
05_CURVES
 70
0
 62
7
  6
CONTINUOUS
370
-3
390
F
  0
LAYER
  5
204
100
AcDbSymbolTableRecord
100
AcDbLayerTableRecord
  2
06_SURFS
 70
0
 62
7
  6
CONTINUOUS
370
-3
390
F
  0
LAYER
  5
205
100
AcDbSymbolTableRecord
100
AcDbLayerTableRecord
  2
07_COSMETICS
 70
0
 62
7
  6
CONTINUOUS
370
-3
390
F
  0
LAYER
  5
206
100
AcDbSymbolTableRecord
100
AcDbLayerTableRecord
  2
10_NOTES
 70
0
 62
7
  6
CONTINUOUS
370
-3
390
F
  0
LAYER
  5
207
100
AcDbSymbolTableRecord
100
AcDbLayerTableRecord
  2
11_NOTES_PUB
 70
0
 62
7
  6
CONTINUOUS
370
-3
390
F
  0
LAYER
  5
208
100
AcDbSymbolTableRecord
100
AcDbLayerTableRecord
  2
13_REF_GTOL
 70
0
 62
7
  6
CONTINUOUS
370
-3
390
F
  0
LAYER
  5
209
100
AcDbSymbolTableRecord
100
AcDbLayerTableRecord
  2
16_MISC
 70
0
 62
7
  6
CONTINUOUS
370
-3
390
F
  0
LAYER
  5
20A
100
AcDbSymbolTableRecord
100
AcDbLayerTableRecord
  2
17_NO_PRINT
 70
0
 62
7
  6
CONTINUOUS
370
-3
390
F
  0
LAYER
  5
20B
100
AcDbSymbolTableRecord
100
AcDbLayerTableRecord
  2
18_DATUM_CAMS_JOINTS
 70
0
 62
7
  6
CONTINUOUS
370
-3
390
F
  0
LAYER
  5
20C
100
AcDbSymbolTableRecord
100
AcDbLayerTableRecord
  2
19_DATUM_FUNCTIONAL
 70
0
 62
7
  6
CONTINUOUS
370
-3
390
F
  0
LAYER
  5
20D
100
AcDbSymbolTableRecord
100
AcDbLayerTableRecord
  2
20_DATUM_KINEMATIC_SCHEME
 70
0
 62
7
  6
CONTINUOUS
370
-3
390
F
  0
ENDTAB
  0
TABLE
  2
STYLE
  5
3
100
AcDbSymbolTable
 70
1
  0
STYLE
  5
11
100
AcDbSymbolTableRecord
100
AcDbTextStyleTableRecord
  2
STANDARD
 70
0
 40
0.0
 41
1.0
 50
0.0
 71
0
 42
0.2
  3
ARIAL.TTF
  4

  0
STYLE
  5
20E
100
AcDbSymbolTableRecord
100
AcDbTextStyleTableRecord
  2
TEXTSTYLE_1
 70
0
 40
0.0
 41
0.8
 50
0.0
 71
0
 42
0.2
  3
gdt
  4

  0
ENDTAB
  0
TABLE
  2
VIEW
  5
6
100
AcDbSymbolTable
 70
0
  0
ENDTAB
  0
TABLE
  2
UCS
  5
7
100
AcDbSymbolTable
 70
0
  0
ENDTAB
  0
TABLE
  2
APPID
  5
9
100
AcDbSymbolTable
 70
1
  0
APPID
  5
20F
100
AcDbSymbolTableRecord
100
AcDbRegAppTableRecord
  2
ACAD
 70
0
  0
ENDTAB
  0
TABLE
  2
BLOCK_RECORD
  5
1
100
AcDbSymbolTable
 70
0
  0
BLOCK_RECORD
  5
210
100
AcDbSymbolTableRecord
100
AcDbBlockTableRecord
  2
*Model_Space
  0
BLOCK_RECORD
  5
211
100
AcDbSymbolTableRecord
100
AcDbBlockTableRecord
  2
*Paper_Space
  0
BLOCK_RECORD
  5
212
100
AcDbSymbolTableRecord
100
AcDbBlockTableRecord
  2
_FILLED
  0
ENDTAB
  0
TABLE
  2
DIMSTYLE
  5
A
100
AcDbSymbolTable
 70
1
100
AcDbDimStyleTable
 71
0
  0
DIMSTYLE
105
213
100
AcDbSymbolTableRecord
100
AcDbDimStyleTableRecord
  2
STANDARD
 70
0
  3

  4

 40
1.0
 41
0.9416639636
 42
1.0
 43
0.38
 44
1.0
 45
0.0
 46
0.0
 47
0.01
 48
0.01
140
1.318329549
141
0.09
142
0.0
143
25.4
144
1.0
145
0.0
146
1.0
147
0.625
 71
1
 72
0
 73
0
 74
0
 75
0
 76
0
 77
1
 78
8
 79
2
170
0
171
1
172
0
173
0
174
0
175
0
176
0
177
0
178
0
270
2
179
2
271
2
272
2
273
2
274
2
275
0
280
0
281
0
282
0
283
1
284
8
285
0
286
0
287
3
288
0
340
11
278
46
341
212
342
212
343
212
344
212
  0
ENDTAB
  0
ENDSEC
  0
SECTION
  2
BLOCKS
  0
BLOCK
  5
20
100
AcDbEntity
  8
0
100
AcDbBlockBegin
  2
*Model_Space
 70
0
 10
0.0
 20
0.0
 30
0.0
  3
*Model_Space
  1

  0
ENDBLK
  5
21
100
AcDbEntity
  8
0
100
AcDbBlockEnd
  0
BLOCK
  5
1C
100
AcDbEntity
  8
0
100
AcDbBlockBegin
  2
*Paper_Space
 70
0
 10
0.0
 20
0.0
 30
0.0
  3
*Paper_Space
  1

  0
ENDBLK
  5
1D
100
AcDbEntity
  8
0
100
AcDbBlockEnd
  0
BLOCK
  5
214
100
AcDbEntity
  8
0
100
AcDbBlockBegin
  2
_FILLED
 70
64
 10
0.0
 20
0.0
  3
_FILLED
  1

  0
SOLID
  5
215
100
AcDbEntity
  8
0
  6
BYBLOCK
 62
0
100
AcDbTrace
 10
0.0
 20
0.0
 11
-1.0
 21
0.25
 12
-1.0
 22
-0.25
 13
-1.0
 23
-0.25
  0
ENDBLK
  5
216
100
AcDbEntity
  8
0
  6
BYBLOCK
 62
0
100
AcDbBlockEnd
  0
ENDSEC
  0
SECTION
  2
ENTITIES
  0
LINE
  5
217
100
AcDbEntity
  8
0
100
AcDbLine
 62
7
  6
BYLAYER
 10
9.1764837254
 20
20.5477042533
 11
20.2781064102
 21
14.1383244074
  0
LINE
  5
218
100
AcDbEntity
  8
0
100
AcDbLine
 62
7
  6
BYLAYER
 10
9.1764837254
 20
21.5235286808
 11
20.2781064102
 21
15.1141488348
  0
LINE
  5
219
100
AcDbEntity
  8
0
100
AcDbLine
 62
7
  6
BYLAYER
 10
24.836958982
 20
18.7993425293
 11
13.7353362972
 21
25.2087223753
  0
LINE
  5
21A
100
AcDbEntity
  8
0
100
AcDbLine
 62
7
  6
BYLAYER
 10
15.6497314703
 20
26.2446388269
 11
24.7714469247
 21
20.9783330936
  0
LINE
  5
21B
100
AcDbEntity
  8
0
100
AcDbLine
 62
7
  6
BYLAYER
 10
23.5599049514
 20
23.1365622617
 11
19.3879575731
 21
25.5451827134
  0
LINE
  5
21C
100
AcDbEntity
  8
0
100
AcDbLine
 62
7
  6
BYLAYER
 10
17.6201832602
 20
26.5657845997
 11
16.913073535
 21
26.9740253542
  0
LINE
  5
21D
100
AcDbEntity
  8
0
100
AcDbLine
 62
7
  6
BYLAYER
 10
15.3933153207
 20
29.2027649238
 11
16.3832689359
 21
28.6312278674
  0
LINE
  5
21E
100
AcDbEntity
  8
0
100
AcDbLine
 62
7
  6
BYLAYER
 10
25.5049843903
 20
23.3649221341
 11
26.4949380055
 21
22.7933850778
  0
LINE
  5
21F
100
AcDbEntity
  8
0
100
AcDbLine
 62
7
  6
BYLAYER
 10
26.806050807
 20
23.5068137718
 11
25.8160971917
 21
24.0783508281
  0
LINE
  5
220
100
AcDbEntity
  8
0
100
AcDbLine
 62
7
  6
BYLAYER
 10
15.7048326938
 20
29.9167286741
 11
16.6943817374
 21
29.3446565614
  0
LINE
  5
221
100
AcDbEntity
  8
0
100
AcDbLine
 62
7
  6
BYLAYER
 10
9.1764837254
 20
20.5477042533
 11
9.1764837254
 21
21.5235286808
  0
LINE
  5
222
100
AcDbEntity
  8
0
100
AcDbLine
 62
7
  6
BYLAYER
 10
29.2494196676
 20
22.9593988366
 11
29.5741627137
 21
22.7719125931
  0
LINE
  5
223
100
AcDbEntity
  8
0
100
AcDbLine
 62
7
  6
BYLAYER
 10
20.3709010982
 20
28.1539028041
 11
19.6746265616
 21
28.5558880011
  0
LINE
  5
224
100
AcDbEntity
  8
0
100
AcDbLine
 62
7
  6
BYLAYER
 10
29.5741627137
 20
22.8405174378
 11
30.3519834113
 21
22.3914526078
  0
LINE
  5
225
100
AcDbEntity
  8
0
100
AcDbLine
 62
7
  6
BYLAYER
 10
20.4524472593
 20
29.0174715289
 11
21.1595569844
 21
28.6092307744
  0
LINE
  5
226
100
AcDbEntity
  8
0
100
AcDbLine
 62
7
  6
BYLAYER
 10
20.4524472593
 20
29.4257227375
 11
20.1175375975
 21
29.6190785466
  0
LINE
  5
227
100
AcDbEntity
  8
0
100
AcDbLine
 62
7
  6
BYLAYER
 10
30.2292066671
 20
23.7812357569
 11
30.3519834113
 21
23.7103521742
  0
LINE
  5
228
100
AcDbEntity
  8
0
100
AcDbLine
 62
7
  6
BYLAYER
 10
31.9783157602
 20
23.4659156617
 11
32.9682693754
 21
22.8943786053
  0
LINE
  5
229
100
AcDbEntity
  8
0
100
AcDbLine
 62
7
  6
BYLAYER
 10
24.6950908903
 20
28.6092392728
 11
22.2202068523
 21
30.0380819136
  0
LINE
  5
22A
100
AcDbEntity
  8
0
100
AcDbLine
 62
7
  6
BYLAYER
 10
22.2202068523
 20
30.4463331221
 11
21.5589347591
 21
30.8281101062
  0
LINE
  5
22B
100
AcDbEntity
  8
0
100
AcDbLine
 62
7
  6
BYLAYER
 10
31.6706038287
 20
24.9902673166
 11
32.1197430044
 21
24.7309625589
  0
LINE
  5
22C
100
AcDbEntity
  8
0
100
AcDbLine
 62
7
  6
BYLAYER
 10
50.6458650114
 20
18.3957558126
 11
39.6149532991
 21
24.7643115831
  0
LINE
  5
22D
100
AcDbEntity
  8
0
100
AcDbLine
 62
7
  6
BYLAYER
 10
60.1209645783
 20
98.0043738135
 11
44.2818386247
 21
88.8597047668
  0
LINE
  5
22E
100
AcDbEntity
  8
0
100
AcDbLine
 62
7
  6
BYLAYER
 10
44.2818386247
 20
87.8799018662
 11
43.1504724851
 21
87.22671122
  0
LINE
  5
22F
100
AcDbEntity
  8
0
100
AcDbLine
 62
7
  6
BYLAYER
 10
57.6814684101
 20
94.9221374205
 11
45.7314135612
 21
88.02281122
  0
LINE
  5
230
100
AcDbEntity
  8
0
100
AcDbLine
 62
7
  6
BYLAYER
 10
57.3279135476
 20
94.1464548972
 11
45.3778586987
 21
87.2471286967
  0
LINE
  5
231
100
AcDbEntity
  8
0
100
AcDbLine
 62
7
  6
BYLAYER
 10
51.7772311509
 20
18.0691435582
 11
50.9286848176
 21
18.5590409292
  0
LINE
  5
232
100
AcDbEntity
  8
0
100
AcDbLine
 62
7
  6
BYLAYER
 10
16.9876305082
 20
58.404436919
 11
16.9876305082
 21
51.872417582
  0
LINE
  5
233
100
AcDbEntity
  8
0
100
AcDbLine
 62
7
  6
BYLAYER
 10
18.1189966478
 20
60.0374304658
 11
18.1189966478
 21
59.0576275652
  0
LINE
  5
234
100
AcDbEntity
  8
0
100
AcDbLine
 62
7
  6
BYLAYER
 10
19.1089499686
 20
28.7730839057
 11
19.1089499686
 21
27.4253193288
  0
LINE
  5
235
100
AcDbEntity
  8
0
100
AcDbLine
 62
7
  6
BYLAYER
 10
19.6746265616
 20
28.5558880011
 11
19.6746265616
 21
29.2475685736
  0
LINE
  5
236
100
AcDbEntity
  8
0
100
AcDbLine
 62
7
  6
BYLAYER
 10
60.5099073107
 20
93.2891744024
 11
48.5598524618
 21
86.389848202
  0
LINE
  5
237
100
AcDbEntity
  8
0
100
AcDbLine
 62
7
  6
BYLAYER
 10
46.3389593166
 20
84.5109344905
 11
46.2136546712
 21
84.4385902516
  0
LINE
  5
238
100
AcDbEntity
  8
0
100
AcDbLine
 62
7
  6
BYLAYER
 10
43.1504724851
 20
81.3478938167
 11
31.2004176362
 21
74.4485676163
  0
LINE
  5
239
100
AcDbEntity
  8
0
100
AcDbLine
 62
7
  6
BYLAYER
 10
43.2660874364
 20
27.5155614799
 11
42.7134909714
 21
27.8345959803
  0
LINE
  5
23A
100
AcDbEntity
  8
0
100
AcDbLine
 62
7
  6
BYLAYER
 10
20.2781064102
 20
14.1383244074
 11
20.2781064102
 21
15.1141488348
  0
LINE
  5
23B
100
AcDbEntity
  8
0
100
AcDbLine
 62
7
  6
BYLAYER
 10
20.4524472593
 20
29.0174715289
 11
20.4524472593
 21
29.4257227375
  0
LINE
  5
23C
100
AcDbEntity
  8
0
100
AcDbLine
 62
7
  6
BYLAYER
 10
21.8666466906
 20
30.6504565588
 11
21.8666466906
 21
31.0862162316
  0
LINE
  5
23D
100
AcDbEntity
  8
0
100
AcDbLine
 62
7
  6
BYLAYER
 10
22.2202068523
 20
30.4463331221
 11
22.2202068523
 21
30.0380819136
  0
LINE
  5
23E
100
AcDbEntity
  8
0
100
AcDbLine
 62
7
  6
BYLAYER
 10
22.8566003058
 20
29.6706682939
 11
22.8566003058
 21
31.9165808218
  0
LINE
  5
23F
100
AcDbEntity
  8
0
100
AcDbLine
 62
7
  6
BYLAYER
 10
19.5685715843
 20
59.200536919
 11
19.2150167217
 21
58.4248543957
  0
LINE
  5
240
100
AcDbEntity
  8
0
100
AcDbLine
 62
7
  6
BYLAYER
 10
62.9847913487
 20
91.8603317616
 11
51.0347364998
 21
84.9610055611
  0
LINE
  5
241
100
AcDbEntity
  8
0
100
AcDbLine
 62
7
  6
BYLAYER
 10
31.2004176362
 20
73.4687647157
 11
30.0690514967
 21
72.8155740695
  0
LINE
  5
242
100
AcDbEntity
  8
0
100
AcDbLine
 62
7
  6
BYLAYER
 10
62.6312364862
 20
91.0846492383
 11
50.6811816373
 21
84.1853230378
  0
LINE
  5
243
100
AcDbEntity
  8
0
100
AcDbLine
 62
7
  6
BYLAYER
 10
44.6000474217
 20
80.5110002699
 11
32.6499925728
 21
73.6116740695
  0
LINE
  5
244
100
AcDbEntity
  8
0
100
AcDbLine
 62
7
  6
BYLAYER
 10
44.2464925591
 20
79.7353177467
 11
32.2964377102
 21
72.8359915462
  0
LINE
  5
245
100
AcDbEntity
  8
0
100
AcDbLine
 62
7
  6
BYLAYER
 10
46.5093075637
 20
31.1128222293
 11
44.3954598861
 21
32.3332251458
  0
LINE
  5
246
100
AcDbEntity
  8
0
100
AcDbLine
 62
7
  6
BYLAYER
 10
36.0771378101
 20
37.135701989
 11
35.4783958514
 21
37.4813779999
  0
LINE
  5
247
100
AcDbEntity
  8
0
100
AcDbLine
 62
7
  6
BYLAYER
 10
36.4044783801
 20
37.5182677903
 11
35.4783958514
 21
38.0529296918
  0
LINE
  5
248
100
AcDbEntity
  8
0
100
AcDbLine
 62
7
  6
BYLAYER
 10
45.5193539484
 20
32.2559109777
 11
46.5093075637
 21
31.6843739213
  0
LINE
  5
249
100
AcDbEntity
  8
0
100
AcDbLine
 62
7
  6
BYLAYER
 10
24.6950908903
 20
27.6299860702
 11
24.6950908903
 21
28.6092392728
  0
LINE
  5
24A
100
AcDbEntity
  8
0
100
AcDbLine
 62
7
  6
BYLAYER
 10
32.6499925728
 20
73.6116740695
 11
32.2964377102
 21
72.8359915462
  0
LINE
  5
24B
100
AcDbEntity
  8
0
100
AcDbLine
 62
7
  6
BYLAYER
 10
24.8718945229
 20
56.1387312601
 11
24.5183396603
 21
55.3630487368
  0
LINE
  5
24C
100
AcDbEntity
  8
0
100
AcDbLine
 62
7
  6
BYLAYER
 10
65.8132302493
 20
90.2273687435
 11
53.8631754004
 21
83.328042543
  0
LINE
  5
24D
100
AcDbEntity
  8
0
100
AcDbLine
 62
7
  6
BYLAYER
 10
47.4284863223
 20
78.8780372519
 11
35.4784314734
 21
71.9787110514
  0
LINE
  5
24E
100
AcDbEntity
  8
0
100
AcDbLine
 62
7
  6
BYLAYER
 10
71.1518762906
 20
91.635818043
 11
55.312750337
 21
82.4911489963
  0
LINE
  5
24F
100
AcDbEntity
  8
0
100
AcDbLine
 62
7
  6
BYLAYER
 10
55.312750337
 20
81.5113460957
 11
54.1813841974
 21
80.8581554495
  0
LINE
  5
250
100
AcDbEntity
  8
0
100
AcDbLine
 62
7
  6
BYLAYER
 10
30.0690514967
 20
66.9367566662
 11
18.1189966478
 21
60.0374304658
  0
LINE
  5
251
100
AcDbEntity
  8
0
100
AcDbLine
 62
7
  6
BYLAYER
 10
49.9033703603
 20
77.449194611
 11
37.9533155114
 21
70.5498684106
  0
LINE
  5
252
100
AcDbEntity
  8
0
100
AcDbLine
 62
7
  6
BYLAYER
 10
18.1189966478
 20
59.0576275652
 11
16.9876305082
 21
58.404436919
  0
LINE
  5
253
100
AcDbEntity
  8
0
100
AcDbLine
 62
7
  6
BYLAYER
 10
48.1762940267
 20
33.538834362
 11
48.5245534997
 21
33.3377712101
  0
LINE
  5
254
100
AcDbEntity
  8
0
100
AcDbLine
 62
7
  6
BYLAYER
 10
28.0185422205
 20
45.5038618115
 11
16.9876305082
 21
51.872417582
  0
LINE
  5
255
100
AcDbEntity
  8
0
100
AcDbLine
 62
7
  6
BYLAYER
 10
48.9233760738
 20
23.5986690231
 11
49.4157456433
 21
22.9927945262
  0
LINE
  5
256
100
AcDbEntity
  8
0
100
AcDbLine
 62
7
  6
BYLAYER
 10
22.7505653475
 20
56.3836506231
 11
22.3970104849
 21
57.5675739009
  0
LINE
  5
257
100
AcDbEntity
  8
0
100
AcDbLine
 62
7
  6
BYLAYER
 10
28.0185422205
 20
52.0358811485
 11
28.0185422205
 21
45.5038618115
  0
LINE
  5
258
100
AcDbEntity
  8
0
100
AcDbLine
 62
7
  6
BYLAYER
 10
29.1499083601
 20
53.6688746953
 11
29.1499083601
 21
52.6890717947
  0
LINE
  5
259
100
AcDbEntity
  8
0
100
AcDbLine
 62
7
  6
BYLAYER
 10
29.2206190382
 20
22.9352411161
 11
29.2206190382
 21
20.7306845898
  0
LINE
  5
25A
100
AcDbEntity
  8
0
100
AcDbLine
 62
7
  6
BYLAYER
 10
29.5741627137
 20
22.8405174378
 11
29.5741627137
 21
22.7719125931
  0
LINE
  5
25B
100
AcDbEntity
  8
0
100
AcDbLine
 62
7
  6
BYLAYER
 10
30.0690514967
 20
72.8155740695
 11
30.0690514967
 21
66.9367566662
  0
LINE
  5
25C
100
AcDbEntity
  8
0
100
AcDbLine
 62
7
  6
BYLAYER
 10
31.1650715707
 20
65.3241805961
 11
31.5186264332
 21
66.0998631194
  0
LINE
  5
25D
100
AcDbEntity
  8
0
100
AcDbLine
 62
7
  6
BYLAYER
 10
49.5498154977
 20
76.6735120878
 11
37.5997606488
 21
69.7741858873
  0
LINE
  5
25E
100
AcDbEntity
  8
0
100
AcDbLine
 62
7
  6
BYLAYER
 10
31.5186264332
 20
66.0998631194
 11
19.5685715843
 21
59.200536919
  0
LINE
  5
25F
100
AcDbEntity
  8
0
100
AcDbLine
 62
7
  6
BYLAYER
 10
31.1650715707
 20
65.3241805961
 11
19.2150167217
 21
58.4248543957
  0
LINE
  5
260
100
AcDbEntity
  8
0
100
AcDbLine
 62
7
  6
BYLAYER
 10
52.7318092609
 20
75.816231593
 11
40.781754412
 21
68.9169053925
  0
LINE
  5
261
100
AcDbEntity
  8
0
100
AcDbLine
 62
7
  6
BYLAYER
 10
38.5608612667
 20
67.0379916811
 11
38.4355566213
 21
66.9656474422
  0
LINE
  5
262
100
AcDbEntity
  8
0
100
AcDbLine
 62
7
  6
BYLAYER
 10
34.3470653338
 20
64.4669001014
 11
22.3970104849
 21
57.5675739009
  0
LINE
  5
263
100
AcDbEntity
  8
0
100
AcDbLine
 62
7
  6
BYLAYER
 10
68.1820401743
 20
83.7974244683
 11
69.8790893836
 21
84.7772104376
  0
LINE
  5
264
100
AcDbEntity
  8
0
100
AcDbLine
 62
7
  6
BYLAYER
 10
50.5338945128
 20
35.4844539913
 11
51.3883240404
 21
34.9911600333
  0
LINE
  5
265
100
AcDbEntity
  8
0
100
AcDbLine
 62
7
  6
BYLAYER
 10
37.7254348103
 20
43.2059995882
 11
38.9589456661
 21
42.4938478745
  0
LINE
  5
266
100
AcDbEntity
  8
0
100
AcDbLine
 62
7
  6
BYLAYER
 10
25.9420875842
 20
52.2150637536
 11
25.3541356329
 21
52.5545102917
  0
LINE
  5
267
100
AcDbEntity
  8
0
100
AcDbLine
 62
7
  6
BYLAYER
 10
28.0538882861
 20
53.3218449642
 11
27.7003334235
 21
54.505768242
  0
LINE
  5
268
100
AcDbEntity
  8
0
100
AcDbLine
 62
7
  6
BYLAYER
 10
30.3519834113
 20
23.7103521742
 11
30.3519834113
 21
22.3914526078
  0
LINE
  5
269
100
AcDbEntity
  8
0
100
AcDbLine
 62
7
  6
BYLAYER
 10
31.2004176362
 20
74.4485676163
 11
31.2004176362
 21
73.4687647157
  0
LINE
  5
26A
100
AcDbEntity
  8
0
100
AcDbLine
 62
7
  6
BYLAYER
 10
31.9783157602
 20
23.4659156617
 11
31.9783157602
 21
23.7205201392
  0
LINE
  5
26B
100
AcDbEntity
  8
0
100
AcDbLine
 62
7
  6
BYLAYER
 10
31.9783157602
 20
24.8126137692
 11
31.9783157602
 21
25.2483734419
  0
LINE
  5
26C
100
AcDbEntity
  8
0
100
AcDbLine
 62
7
  6
BYLAYER
 10
32.1197430044
 20
23.836096982
 11
32.1197430044
 21
24.7309625589
  0
LINE
  5
26D
100
AcDbEntity
  8
0
100
AcDbLine
 62
7
  6
BYLAYER
 10
32.9682693754
 20
22.8943786053
 11
32.9682693754
 21
26.0787380321
  0
LINE
  5
26E
100
AcDbEntity
  8
0
100
AcDbLine
 62
7
  6
BYLAYER
 10
45.7314135612
 20
88.02281122
 11
45.3778586987
 21
87.2471286967
  0
LINE
  5
26F
100
AcDbEntity
  8
0
100
AcDbLine
 62
7
  6
BYLAYER
 10
37.9533155114
 20
70.5498684106
 11
37.5997606488
 21
69.7741858873
  0
LINE
  5
270
100
AcDbEntity
  8
0
100
AcDbLine
 62
7
  6
BYLAYER
 10
54.1813841974
 20
74.9793380462
 11
42.2313293485
 21
68.0800118458
  0
LINE
  5
271
100
AcDbEntity
  8
0
100
AcDbLine
 62
7
  6
BYLAYER
 10
42.2313293485
 20
67.1002089452
 11
41.099963209
 21
66.447018299
  0
LINE
  5
272
100
AcDbEntity
  8
0
100
AcDbLine
 62
7
  6
BYLAYER
 10
36.8219493718
 20
63.0380574605
 11
24.8718945229
 21
56.1387312601
  0
LINE
  5
273
100
AcDbEntity
  8
0
100
AcDbLine
 62
7
  6
BYLAYER
 10
69.7023119523
 20
81.6132609577
 11
68.1820401743
 21
80.7355368767
  0
LINE
  5
274
100
AcDbEntity
  8
0
100
AcDbLine
 62
7
  6
BYLAYER
 10
36.4683945093
 20
62.2623749372
 11
24.5183396603
 21
55.3630487368
  0
LINE
  5
275
100
AcDbEntity
  8
0
100
AcDbLine
 62
7
  6
BYLAYER
 10
69.8790893836
 20
81.511200769
 11
68.1820401743
 21
80.5314147998
  0
LINE
  5
276
100
AcDbEntity
  8
0
100
AcDbLine
 62
7
  6
BYLAYER
 10
39.0496214034
 20
45.5442065826
 11
36.4683494666
 21
47.0344709159
  0
LINE
  5
277
100
AcDbEntity
  8
0
100
AcDbLine
 62
7
  6
BYLAYER
 10
28.0185422205
 20
52.0358811485
 11
16.9876305082
 21
58.404436919
  0
LINE
  5
278
100
AcDbEntity
  8
0
100
AcDbLine
 62
7
  6
BYLAYER
 10
39.7567252406
 20
45.9524507365
 11
37.1754533038
 21
47.4427150698
  0
LINE
  5
279
100
AcDbEntity
  8
0
100
AcDbLine
 62
7
  6
BYLAYER
 10
29.1499083601
 20
52.6890717947
 11
28.0538882861
 21
53.3218449642
  0
LINE
  5
27A
100
AcDbEntity
  8
0
100
AcDbLine
 62
7
  6
BYLAYER
 10
24.5183396603
 20
55.3630487368
 11
22.7505653475
 21
56.3836506231
  0
LINE
  5
27B
100
AcDbEntity
  8
0
100
AcDbLine
 62
7
  6
BYLAYER
 10
19.2150167217
 20
58.4248543957
 11
18.1189966478
 21
59.0576275652
  0
LINE
  5
27C
100
AcDbEntity
  8
0
100
AcDbLine
 62
7
  6
BYLAYER
 10
40.2467516119
 20
46.4731209159
 11
37.1754533038
 21
48.2462957063
  0
LINE
  5
27D
100
AcDbEntity
  8
0
100
AcDbLine
 62
7
  6
BYLAYER
 10
36.7254606445
 20
48.5820676031
 11
43.0671960792
 21
44.9207477729
  0
LINE
  5
27E
100
AcDbEntity
  8
0
100
AcDbLine
 62
7
  6
BYLAYER
 10
43.2091727812
 20
45.0744739252
 11
44.1991263964
 21
44.5029368688
  0
LINE
  5
27F
100
AcDbEntity
  8
0
100
AcDbLine
 62
7
  6
BYLAYER
 10
29.1499083601
 20
53.6688746953
 11
27.7003334235
 21
54.505768242
  0
LINE
  5
280
100
AcDbEntity
  8
0
100
AcDbLine
 62
7
  6
BYLAYER
 10
24.8718945229
 20
56.1387312601
 11
22.3970104849
 21
57.5675739009
  0
LINE
  5
281
100
AcDbEntity
  8
0
100
AcDbLine
 62
7
  6
BYLAYER
 10
19.5685715843
 20
59.200536919
 11
18.1189966478
 21
60.0374304658
  0
LINE
  5
282
100
AcDbEntity
  8
0
100
AcDbLine
 62
7
  6
BYLAYER
 10
43.6926832545
 20
45.5580521931
 11
36.4683494666
 21
49.7289288925
  0
LINE
  5
283
100
AcDbEntity
  8
0
100
AcDbLine
 62
7
  6
BYLAYER
 10
35.4783958514
 20
38.0529296918
 11
35.4783958514
 21
37.4813779999
  0
LINE
  5
284
100
AcDbEntity
  8
0
100
AcDbLine
 62
7
  6
BYLAYER
 10
36.4683494666
 20
50.3823311791
 11
36.4683494666
 21
49.7289288925
  0
LINE
  5
285
100
AcDbEntity
  8
0
100
AcDbLine
 62
7
  6
BYLAYER
 10
36.4683494666
 20
37.5929144904
 11
36.4683494666
 21
47.0344709159
  0
LINE
  5
286
100
AcDbEntity
  8
0
100
AcDbLine
 62
7
  6
BYLAYER
 10
26.0262090481
 20
33.9330465526
 11
23.9126081859
 21
29.0609956527
  0
LINE
  5
287
100
AcDbEntity
  8
0
100
AcDbLine
 62
7
  6
BYLAYER
 10
44.2464925591
 20
79.7353177467
 11
44.6000474217
 21
80.5110002699
  0
LINE
  5
288
100
AcDbEntity
  8
0
100
AcDbLine
 62
7
  6
BYLAYER
 10
36.4683945093
 20
62.2623749372
 11
36.8219493718
 21
63.0380574605
  0
LINE
  5
289
100
AcDbEntity
  8
0
100
AcDbLine
 62
7
  6
BYLAYER
 10
39.6503882724
 20
61.4050944425
 11
27.7003334235
 21
54.505768242
  0
LINE
  5
28A
100
AcDbEntity
  8
0
100
AcDbLine
 62
7
  6
BYLAYER
 10
25.4794402783
 20
52.6268545306
 11
25.3541356329
 21
52.5545102917
  0
LINE
  5
28B
100
AcDbEntity
  8
0
100
AcDbLine
 62
7
  6
BYLAYER
 10
41.099963209
 20
60.5682008957
 11
29.1499083601
 21
53.6688746953
  0
LINE
  5
28C
100
AcDbEntity
  8
0
100
AcDbLine
 62
7
  6
BYLAYER
 10
43.7515796356
 20
46.7896278675
 11
38.2361237794
 21
49.9739057527
  0
LINE
  5
28D
100
AcDbEntity
  8
0
100
AcDbLine
 62
7
  6
BYLAYER
 10
38.4834734949
 20
51.5457566345
 11
43.7515796356
 21
48.5042829434
  0
LINE
  5
28E
100
AcDbEntity
  8
0
100
AcDbLine
 62
7
  6
BYLAYER
 10
69.7023119523
 20
34.7460222144
 11
69.8790893836
 21
34.6439620258
  0
LINE
  5
28F
100
AcDbEntity
  8
0
100
AcDbLine
 62
7
  6
BYLAYER
 10
37.1754533038
 20
48.2462957063
 11
37.1754533038
 21
47.4427150698
  0
LINE
  5
290
100
AcDbEntity
  8
0
100
AcDbLine
 62
7
  6
BYLAYER
 10
37.7254348103
 20
39.0620811806
 11
37.7254348103
 21
43.2059995882
  0
LINE
  5
291
100
AcDbEntity
  8
0
100
AcDbLine
 62
7
  6
BYLAYER
 10
38.2361237794
 20
49.9739057527
 11
38.2361237794
 21
51.4029500622
  0
LINE
  5
292
100
AcDbEntity
  8
0
100
AcDbLine
 62
7
  6
BYLAYER
 10
38.9589456661
 20
42.4938478745
 11
38.9589456661
 21
40.4725142241
  0
LINE
  5
293
100
AcDbEntity
  8
0
100
AcDbLine
 62
7
  6
BYLAYER
 10
39.6149532991
 20
30.8088465074
 11
39.6149532991
 21
24.7643115831
  0
LINE
  5
294
100
AcDbEntity
  8
0
100
AcDbLine
 62
7
  6
BYLAYER
 10
51.0347364998
 20
84.9610055611
 11
50.6811816373
 21
84.1853230378
  0
LINE
  5
295
100
AcDbEntity
  8
0
100
AcDbLine
 62
7
  6
BYLAYER
 10
57.3279135476
 20
94.1464548972
 11
57.6814684101
 21
94.9221374205
  0
LINE
  5
296
100
AcDbEntity
  8
0
100
AcDbLine
 62
7
  6
BYLAYER
 10
49.5498154977
 20
76.6735120878
 11
49.9033703603
 21
77.449194611
  0
LINE
  5
297
100
AcDbEntity
  8
0
100
AcDbLine
 62
7
  6
BYLAYER
 10
28.2398564283
 20
45.6316368662
 11
28.0831932261
 21
45.4485434258
  0
LINE
  5
298
100
AcDbEntity
  8
0
100
AcDbLine
 62
7
  6
BYLAYER
 10
28.2355631572
 20
45.6397607819
 11
28.0762751093
 21
45.461528409
  0
LINE
  5
299
100
AcDbEntity
  8
0
100
AcDbLine
 62
7
  6
BYLAYER
 10
29.1499083601
 20
52.6890717947
 11
28.0185422205
 21
52.0358811485
  0
LINE
  5
29A
100
AcDbEntity
  8
0
100
AcDbLine
 62
7
  6
BYLAYER
 10
68.6770128603
 20
73.550314195
 11
71.1518762906
 21
74.9791687336
  0
LINE
  5
29B
100
AcDbEntity
  8
0
100
AcDbLine
 62
7
  6
BYLAYER
 10
43.7515796356
 20
51.0354404365
 11
40.6755515225
 21
52.8113459193
  0
LINE
  5
29C
100
AcDbEntity
  8
0
100
AcDbLine
 62
7
  6
BYLAYER
 10
42.1605076057
 20
53.6686805961
 11
43.7515796356
 21
52.7500955125
  0
LINE
  5
29D
100
AcDbEntity
  8
0
100
AcDbLine
 62
7
  6
BYLAYER
 10
48.8427422777
 20
50.7088333232
 11
49.4084300579
 21
50.3822407195
  0
LINE
  5
29E
100
AcDbEntity
  8
0
100
AcDbLine
 62
7
  6
BYLAYER
 10
35.8319863359
 20
70.7947877736
 11
35.4784314734
 21
71.9787110514
  0
LINE
  5
29F
100
AcDbEntity
  8
0
100
AcDbLine
 62
7
  6
BYLAYER
 10
41.099963209
 20
66.447018299
 11
41.099963209
 21
60.5682008957
  0
LINE
  5
2A0
100
AcDbEntity
  8
0
100
AcDbLine
 62
7
  6
BYLAYER
 10
42.2313293485
 20
68.0800118458
 11
42.2313293485
 21
67.1002089452
  0
LINE
  5
2A1
100
AcDbEntity
  8
0
100
AcDbLine
 62
7
  6
BYLAYER
 10
43.1504724851
 20
87.22671122
 11
43.1504724851
 21
81.3478938167
  0
LINE
  5
2A2
100
AcDbEntity
  8
0
100
AcDbLine
 62
7
  6
BYLAYER
 10
43.7515796356
 20
52.7500955125
 11
43.7515796356
 21
51.0354404365
  0
LINE
  5
2A3
100
AcDbEntity
  8
0
100
AcDbLine
 62
7
  6
BYLAYER
 10
43.7515796356
 20
48.5042829434
 11
43.7515796356
 21
46.7896278675
  0
LINE
  5
2A4
100
AcDbEntity
  8
0
100
AcDbLine
 62
7
  6
BYLAYER
 10
37.2109186369
 20
48.3017946411
 11
37.1754533038
 21
48.2462957063
  0
LINE
  5
2A5
100
AcDbEntity
  8
0
100
AcDbLine
 62
7
  6
BYLAYER
 10
51.3883240404
 20
58.9963310969
 11
28.0185422205
 21
45.5038618115
  0
LINE
  5
2A6
100
AcDbEntity
  8
0
100
AcDbLine
 62
7
  6
BYLAYER
 10
49.4084300579
 20
53.6482503881
 11
48.8427422777
 21
53.9748429917
  0
LINE
  5
2A7
100
AcDbEntity
  8
0
100
AcDbLine
 62
7
  6
BYLAYER
 10
49.0548734289
 20
54.342266963
 11
49.620561209
 21
54.0156743594
  0
LINE
  5
2A8
100
AcDbEntity
  8
0
100
AcDbLine
 62
7
  6
BYLAYER
 10
38.8018419392
 20
60.9151889129
 11
36.4683945093
 21
62.2623749372
  0
LINE
  5
2A9
100
AcDbEntity
  8
0
100
AcDbLine
 62
7
  6
BYLAYER
 10
33.4985190006
 20
63.9769945718
 11
31.1650715707
 21
65.3241805961
  0
LINE
  5
2AA
100
AcDbEntity
  8
0
100
AcDbLine
 62
7
  6
BYLAYER
 10
44.2818386247
 20
88.8597047668
 11
44.2818386247
 21
87.8799018662
  0
LINE
  5
2AB
100
AcDbEntity
  8
0
100
AcDbLine
 62
7
  6
BYLAYER
 10
45.5193539484
 20
55.6078998607
 11
45.5193539484
 21
47.3849790106
  0
LINE
  5
2AC
100
AcDbEntity
  8
0
100
AcDbLine
 62
7
  6
BYLAYER
 10
45.5193539484
 20
32.6916055955
 11
45.5193539484
 21
32.2559109777
  0
LINE
  5
2AD
100
AcDbEntity
  8
0
100
AcDbLine
 62
7
  6
BYLAYER
 10
46.5093075637
 20
31.6843739213
 11
46.5093075637
 21
31.1128222293
  0
LINE
  5
2AE
100
AcDbEntity
  8
0
100
AcDbLine
 62
7
  6
BYLAYER
 10
62.6312364862
 20
91.0846492383
 11
62.9847913487
 21
91.8603317616
  0
LINE
  5
2AF
100
AcDbEntity
  8
0
100
AcDbLine
 62
7
  6
BYLAYER
 10
22.8566003058
 20
31.9165808218
 11
19.1089499686
 21
28.7730839057
  0
LINE
  5
2B0
100
AcDbEntity
  8
0
100
AcDbLine
 62
7
  6
BYLAYER
 10
13.7353362972
 20
25.2087223753
 11
9.1764837254
 21
21.5235286808
  0
LINE
  5
2B1
100
AcDbEntity
  8
0
100
AcDbLine
 62
7
  6
BYLAYER
 10
39.7210798626
 20
50.8312404295
 11
38.2361237794
 21
49.9739057527
  0
LINE
  5
2B2
100
AcDbEntity
  8
0
100
AcDbLine
 62
7
  6
BYLAYER
 10
49.0548734289
 20
54.342266963
 11
50.1155291847
 21
54.9546331938
  0
LINE
  5
2B3
100
AcDbEntity
  8
0
100
AcDbLine
 62
7
  6
BYLAYER
 10
37.1754533038
 20
47.4427150698
 11
36.4683494666
 21
47.0344709159
  0
LINE
  5
2B4
100
AcDbEntity
  8
0
100
AcDbLine
 62
7
  6
BYLAYER
 10
49.620561209
 20
54.0156743594
 11
50.6812169648
 21
54.6280405902
  0
LINE
  5
2B5
100
AcDbEntity
  8
0
100
AcDbLine
 62
7
  6
BYLAYER
 10
50.6812169648
 20
54.6280405902
 11
50.1155291847
 21
54.9546331938
  0
LINE
  5
2B6
100
AcDbEntity
  8
0
100
AcDbLine
 62
7
  6
BYLAYER
 10
50.8312144198
 20
54.6428989555
 11
50.2655266397
 21
54.9694915592
  0
LINE
  5
2B7
100
AcDbEntity
  8
0
100
AcDbLine
 62
7
  6
BYLAYER
 10
41.099963209
 20
60.5682008957
 11
39.6503882724
 21
61.4050944425
  0
LINE
  5
2B8
100
AcDbEntity
  8
0
100
AcDbLine
 62
7
  6
BYLAYER
 10
36.8219493718
 20
63.0380574605
 11
34.3470653338
 21
64.4669001014
  0
LINE
  5
2B9
100
AcDbEntity
  8
0
100
AcDbLine
 62
7
  6
BYLAYER
 10
31.5186264332
 20
66.0998631194
 11
30.0690514967
 21
66.9367566662
  0
LINE
  5
2BA
100
AcDbEntity
  8
0
100
AcDbLine
 62
7
  6
BYLAYER
 10
68.6770128603
 20
47.3270806602
 11
70.9829915729
 21
45.9957533484
  0
LINE
  5
2BB
100
AcDbEntity
  8
0
100
AcDbLine
 62
7
  6
BYLAYER
 10
41.1353092745
 20
67.7329821147
 11
40.781754412
 21
68.9169053925
  0
LINE
  5
2BC
100
AcDbEntity
  8
0
100
AcDbLine
 62
7
  6
BYLAYER
 10
48.8427422777
 20
50.7088333232
 11
48.8427422777
 21
53.9748429917
  0
LINE
  5
2BD
100
AcDbEntity
  8
0
100
AcDbLine
 62
7
  6
BYLAYER
 10
49.4084300579
 20
50.3822407195
 11
49.4084300579
 21
53.6482503881
  0
LINE
  5
2BE
100
AcDbEntity
  8
0
100
AcDbLine
 62
7
  6
BYLAYER
 10
50.3983704252
 20
58.4247845224
 11
50.3983704252
 21
54.8927958989
  0
LINE
  5
2BF
100
AcDbEntity
  8
0
100
AcDbLine
 62
7
  6
BYLAYER
 10
50.6458650114
 20
33.5010505295
 11
50.6458650114
 21
18.3957558126
  0
LINE
  5
2C0
100
AcDbEntity
  8
0
100
AcDbLine
 62
7
  6
BYLAYER
 10
50.893348116
 20
54.5055631112
 11
50.893348116
 21
50.2597505421
  0
LINE
  5
2C1
100
AcDbEntity
  8
0
100
AcDbLine
 62
7
  6
BYLAYER
 10
36.1378781176
 20
28.0952037629
 11
33.6745080776
 21
22.41690166
  0
LINE
  5
2C2
100
AcDbEntity
  8
0
100
AcDbLine
 62
7
  6
BYLAYER
 10
45.5840360075
 20
45.8880406627
 11
47.0909792112
 21
48.0644649355
  0
LINE
  5
2C3
100
AcDbEntity
  8
0
100
AcDbLine
 62
7
  6
BYLAYER
 10
48.8427422777
 20
50.7088333232
 11
43.2091727812
 21
45.0744739252
  0
LINE
  5
2C4
100
AcDbEntity
  8
0
100
AcDbLine
 62
7
  6
BYLAYER
 10
47.0909792112
 20
48.0644649355
 11
49.4084300579
 21
50.3822407195
  0
LINE
  5
2C5
100
AcDbEntity
  8
0
100
AcDbLine
 62
7
  6
BYLAYER
 10
39.0496214034
 20
45.5442065826
 11
39.7567252406
 21
45.9524507365
  0
LINE
  5
2C6
100
AcDbEntity
  8
0
100
AcDbLine
 62
7
  6
BYLAYER
 10
50.893348116
 20
50.2597505421
 11
47.0909792112
 21
48.0644649355
  0
LINE
  5
2C7
100
AcDbEntity
  8
0
100
AcDbLine
 62
7
  6
BYLAYER
 10
40.2467516119
 20
46.4731209159
 11
40.2009768296
 21
46.4482261967
  0
LINE
  5
2C8
100
AcDbEntity
  8
0
100
AcDbLine
 62
7
  6
BYLAYER
 10
39.0235085726
 20
66.6262009041
 11
38.4355566213
 21
66.9656474422
  0
LINE
  5
2C9
100
AcDbEntity
  8
0
100
AcDbLine
 62
7
  6
BYLAYER
 10
41.099963209
 20
66.447018299
 11
30.0690514967
 21
72.8155740695
  0
LINE
  5
2CA
100
AcDbEntity
  8
0
100
AcDbLine
 62
7
  6
BYLAYER
 10
42.2313293485
 20
67.1002089452
 11
41.1353092745
 21
67.7329821147
  0
LINE
  5
2CB
100
AcDbEntity
  8
0
100
AcDbLine
 62
7
  6
BYLAYER
 10
37.5997606488
 20
69.7741858873
 11
35.8319863359
 21
70.7947877736
  0
LINE
  5
2CC
100
AcDbEntity
  8
0
100
AcDbLine
 62
7
  6
BYLAYER
 10
32.2964377102
 20
72.8359915462
 11
31.2004176362
 21
73.4687647157
  0
LINE
  5
2CD
100
AcDbEntity
  8
0
100
AcDbLine
 62
7
  6
BYLAYER
 10
51.3176139511
 20
49.1983036723
 11
50.893348116
 21
50.2597505421
  0
LINE
  5
2CE
100
AcDbEntity
  8
0
100
AcDbLine
 62
7
  6
BYLAYER
 10
51.3176139511
 20
37.8152275111
 11
51.3176139511
 21
49.1983036723
  0
LINE
  5
2CF
100
AcDbEntity
  8
0
100
AcDbLine
 62
7
  6
BYLAYER
 10
51.3883240404
 20
58.9963310969
 11
51.3883240404
 21
34.9911600333
  0
LINE
  5
2D0
100
AcDbEntity
  8
0
100
AcDbLine
 62
7
  6
BYLAYER
 10
51.7772311509
 20
19.0489464588
 11
51.7772311509
 21
18.0691435582
  0
LINE
  5
2D1
100
AcDbEntity
  8
0
100
AcDbLine
 62
7
  6
BYLAYER
 10
54.1813841974
 20
80.8581554495
 11
54.1813841974
 21
74.9793380462
  0
LINE
  5
2D2
100
AcDbEntity
  8
0
100
AcDbLine
 62
7
  6
BYLAYER
 10
44.1991263964
 20
44.5029368688
 11
45.5840360075
 21
45.8880406627
  0
LINE
  5
2D3
100
AcDbEntity
  8
0
100
AcDbLine
 62
7
  6
BYLAYER
 10
36.4683494666
 20
38.8651316143
 11
35.4783958514
 21
38.0529296918
  0
LINE
  5
2D4
100
AcDbEntity
  8
0
100
AcDbLine
 62
7
  6
BYLAYER
 10
51.3176139511
 20
49.1983036723
 11
45.5840360075
 21
45.8880406627
  0
LINE
  5
2D5
100
AcDbEntity
  8
0
100
AcDbLine
 62
7
  6
BYLAYER
 10
20.4524472593
 20
29.4257227375
 11
22.2202068523
 21
30.4463331221
  0
LINE
  5
2D6
100
AcDbEntity
  8
0
100
AcDbLine
 62
7
  6
BYLAYER
 10
22.2202068523
 20
30.0380819136
 11
20.4524472593
 21
29.0174715289
  0
LINE
  5
2D7
100
AcDbEntity
  8
0
100
AcDbLine
 62
7
  6
BYLAYER
 10
15.6497314703
 20
26.2446388269
 11
16.913073535
 21
26.9740253542
  0
LINE
  5
2D8
100
AcDbEntity
  8
0
100
AcDbLine
 62
7
  6
BYLAYER
 10
19.1089499686
 20
27.7116110103
 11
20.1229616845
 21
28.2970474529
  0
LINE
  5
2D9
100
AcDbEntity
  8
0
100
AcDbLine
 62
7
  6
BYLAYER
 10
21.1595569844
 20
28.6092307744
 11
17.6201832602
 21
26.5657845997
  0
LINE
  5
2DA
100
AcDbEntity
  8
0
100
AcDbLine
 62
7
  6
BYLAYER
 10
42.2313293485
 20
68.0800118458
 11
40.781754412
 21
68.9169053925
  0
LINE
  5
2DB
100
AcDbEntity
  8
0
100
AcDbLine
 62
7
  6
BYLAYER
 10
37.9533155114
 20
70.5498684106
 11
35.4784314734
 21
71.9787110514
  0
LINE
  5
2DC
100
AcDbEntity
  8
0
100
AcDbLine
 62
7
  6
BYLAYER
 10
32.6499925728
 20
73.6116740695
 11
31.2004176362
 21
74.4485676163
  0
LINE
  5
2DD
100
AcDbEntity
  8
0
100
AcDbLine
 62
7
  6
BYLAYER
 10
55.312750337
 20
82.4911489963
 11
55.312750337
 21
81.5113460957
  0
LINE
  5
2DE
100
AcDbEntity
  8
0
100
AcDbLine
 62
7
  6
BYLAYER
 10
24.6950908903
 20
28.6092392728
 11
19.3879575731
 21
25.5451827134
  0
LINE
  5
2DF
100
AcDbEntity
  8
0
100
AcDbLine
 62
7
  6
BYLAYER
 10
20.2360278471
 20
25.0555601891
 11
24.6950908903
 21
27.6299860702
  0
LINE
  5
2E0
100
AcDbEntity
  8
0
100
AcDbLine
 62
7
  6
BYLAYER
 10
36.4683494666
 20
38.8676666075
 11
28.2532592345
 21
36.2480889887
  0
LINE
  5
2E1
100
AcDbEntity
  8
0
100
AcDbLine
 62
7
  6
BYLAYER
 10
70.9829915729
 20
45.9957533484
 11
71.1518762906
 21
45.8273309305
  0
LINE
  5
2E2
100
AcDbEntity
  8
0
100
AcDbLine
 62
7
  6
BYLAYER
 10
48.9134073244
 20
85.2059249241
 11
48.5598524618
 21
86.389848202
  0
LINE
  5
2E3
100
AcDbEntity
  8
0
100
AcDbLine
 62
7
  6
BYLAYER
 10
45.393869338
 20
31.7568062203
 11
44.9243206934
 21
31.088794032
  0
LINE
  5
2E4
100
AcDbEntity
  8
0
100
AcDbLine
 62
7
  6
BYLAYER
 10
32.9682693754
 20
26.0787380321
 11
29.2206190382
 21
22.9352411161
  0
LINE
  5
2E5
100
AcDbEntity
  8
0
100
AcDbLine
 62
7
  6
BYLAYER
 10
32.1197430044
 20
23.836096982
 11
30.3519834113
 21
22.3914526078
  0
LINE
  5
2E6
100
AcDbEntity
  8
0
100
AcDbLine
 62
7
  6
BYLAYER
 10
20.2781064102
 20
15.1141488348
 11
24.836958982
 21
18.7993425293
  0
LINE
  5
2E7
100
AcDbEntity
  8
0
100
AcDbLine
 62
7
  6
BYLAYER
 10
26.3016326593
 20
24.7194900431
 11
23.5599049514
 21
23.1365622617
  0
LINE
  5
2E8
100
AcDbEntity
  8
0
100
AcDbLine
 62
7
  6
BYLAYER
 10
54.216730263
 20
82.1441192652
 11
53.8631754004
 21
83.328042543
  0
LINE
  5
2E9
100
AcDbEntity
  8
0
100
AcDbLine
 62
7
  6
BYLAYER
 10
47.2513456373
 20
28.1939613552
 11
48.9455830964
 21
30.6043000618
  0
LINE
  5
2EA
100
AcDbEntity
  8
0
100
AcDbLine
 62
7
  6
BYLAYER
 10
46.3880146301
 20
32.9685987892
 11
45.5193539484
 21
32.2559109777
  0
LINE
  5
2EB
100
AcDbEntity
  8
0
100
AcDbLine
 62
7
  6
BYLAYER
 10
46.5093075637
 20
31.6843739213
 11
48.5245534997
 21
33.3377712101
  0
LINE
  5
2EC
100
AcDbEntity
  8
0
100
AcDbLine
 62
7
  6
BYLAYER
 10
32.1197430044
 20
24.7309625589
 11
30.3519834113
 21
23.7103521742
  0
LINE
  5
2ED
100
AcDbEntity
  8
0
100
AcDbLine
 62
7
  6
BYLAYER
 10
29.5741627137
 20
22.7719125931
 11
29.6335771014
 21
22.8062153011
  0
LINE
  5
2EE
100
AcDbEntity
  8
0
100
AcDbLine
 62
7
  6
BYLAYER
 10
49.1609472476
 20
34.0797504695
 11
48.2829601244
 21
33.5728473934
  0
LINE
  5
2EF
100
AcDbEntity
  8
0
100
AcDbLine
 62
7
  6
BYLAYER
 10
51.3883240404
 20
34.9911600333
 11
48.5245534997
 21
33.3377712101
  0
LINE
  5
2F0
100
AcDbEntity
  8
0
100
AcDbLine
 62
7
  6
BYLAYER
 10
44.9243206934
 20
31.088794032
 11
45.7376168564
 21
31.5583479878
  0
LINE
  5
2F1
100
AcDbEntity
  8
0
100
AcDbLine
 62
7
  6
BYLAYER
 10
68.6770128603
 20
44.664403865
 11
70.9829915729
 21
45.9957533484
  0
LINE
  5
2F2
100
AcDbEntity
  8
0
100
AcDbLine
 62
7
  6
BYLAYER
 10
29.2206190382
 20
21.8737682207
 11
30.2346307541
 21
22.4592046633
  0
LINE
  5
2F3
100
AcDbEntity
  8
0
100
AcDbLine
 62
7
  6
BYLAYER
 10
30.9168925754
 20
22.8531063582
 11
31.9783157602
 21
23.4659156617
  0
LINE
  5
2F4
100
AcDbEntity
  8
0
100
AcDbLine
 62
7
  6
BYLAYER
 10
46.5093075637
 20
31.1128222293
 11
50.6458650114
 21
33.5010505295
  0
LINE
  5
2F5
100
AcDbEntity
  8
0
100
AcDbLine
 62
7
  6
BYLAYER
 10
48.2829601244
 20
33.5728473934
 11
38.3649283041
 21
30.410246199
  0
LINE
  5
2F6
100
AcDbEntity
  8
0
100
AcDbLine
 62
7
  6
BYLAYER
 10
51.8832629276
 20
75.3263260634
 11
49.5498154977
 21
76.6735120878
  0
LINE
  5
2F7
100
AcDbEntity
  8
0
100
AcDbLine
 62
7
  6
BYLAYER
 10
46.579939989
 20
78.3881317223
 11
44.2464925591
 21
79.7353177467
  0
LINE
  5
2F8
100
AcDbEntity
  8
0
100
AcDbLine
 62
7
  6
BYLAYER
 10
54.1813841974
 20
74.9793380462
 11
52.7318092609
 21
75.816231593
  0
LINE
  5
2F9
100
AcDbEntity
  8
0
100
AcDbLine
 62
7
  6
BYLAYER
 10
49.9033703603
 20
77.449194611
 11
47.4284863223
 21
78.8780372519
  0
LINE
  5
2FA
100
AcDbEntity
  8
0
100
AcDbLine
 62
7
  6
BYLAYER
 10
44.6000474217
 20
80.5110002699
 11
43.1504724851
 21
81.3478938167
  0
LINE
  5
2FB
100
AcDbEntity
  8
0
100
AcDbLine
 62
7
  6
BYLAYER
 10
68.1820401743
 20
33.6641760565
 11
68.1820401743
 21
36.930185725
  0
LINE
  5
2FC
100
AcDbEntity
  8
0
100
AcDbLine
 62
7
  6
BYLAYER
 10
68.1820401743
 20
80.5314147998
 11
68.1820401743
 21
83.7974244683
  0
LINE
  5
2FD
100
AcDbEntity
  8
0
100
AcDbLine
 62
7
  6
BYLAYER
 10
49.0390923482
 20
23.7680703517
 11
48.9233760738
 21
23.5986690231
  0
LINE
  5
2FE
100
AcDbEntity
  8
0
100
AcDbLine
 62
7
  6
BYLAYER
 10
49.4157456433
 20
22.9927945262
 11
49.4291712647
 21
23.0124487894
  0
LINE
  5
2FF
100
AcDbEntity
  8
0
100
AcDbLine
 62
7
  6
BYLAYER
 10
47.0378265109
 20
27.9959311261
 11
47.2513456373
 21
28.1939613552
  0
LINE
  5
300
100
AcDbEntity
  8
0
100
AcDbLine
 62
7
  6
BYLAYER
 10
29.2206190382
 20
20.7306845898
 11
32.9682693754
 21
22.8943786053
  0
LINE
  5
301
100
AcDbEntity
  8
0
100
AcDbLine
 62
7
  6
BYLAYER
 10
42.831260636
 20
27.9025899219
 11
42.7134909714
 21
27.8345959803
  0
LINE
  5
302
100
AcDbEntity
  8
0
100
AcDbLine
 62
7
  6
BYLAYER
 10
32.7926685081
 20
21.3635670745
 11
20.2781064102
 21
14.1383244074
  0
LINE
  5
303
100
AcDbEntity
  8
0
100
AcDbLine
 62
7
  6
BYLAYER
 10
46.8016066225
 20
84.0991437135
 11
46.2136546712
 21
84.4385902516
  0
LINE
  5
304
100
AcDbEntity
  8
0
100
AcDbLine
 62
7
  6
BYLAYER
 10
68.6770128603
 20
73.550314195
 11
68.6770128603
 21
44.664403865
  0
LINE
  5
305
100
AcDbEntity
  8
0
100
AcDbLine
 62
7
  6
BYLAYER
 10
69.7023119523
 20
84.6751485493
 11
69.7023119523
 21
81.6132609577
  0
LINE
  5
306
100
AcDbEntity
  8
0
100
AcDbLine
 62
7
  6
BYLAYER
 10
69.7023119523
 20
37.807909806
 11
69.7023119523
 21
34.7460222144
  0
LINE
  5
307
100
AcDbEntity
  8
0
100
AcDbLine
 62
7
  6
BYLAYER
 10
69.8790893836
 20
84.7772104376
 11
69.8790893836
 21
81.511200769
  0
LINE
  5
308
100
AcDbEntity
  8
0
100
AcDbLine
 62
7
  6
BYLAYER
 10
69.8790893836
 20
37.9099716943
 11
69.8790893836
 21
34.6439620258
  0
LINE
  5
309
100
AcDbEntity
  8
0
100
AcDbLine
 62
7
  6
BYLAYER
 10
71.1518762906
 20
29.2550333743
 11
71.1518762906
 21
45.8273309305
  0
LINE
  5
30A
100
AcDbEntity
  8
0
100
AcDbLine
 62
7
  6
BYLAYER
 10
71.1518762906
 20
74.9791687336
 11
71.1518762906
 21
91.635818043
  0
LINE
  5
30B
100
AcDbEntity
  8
0
100
AcDbLine
 62
7
  6
BYLAYER
 10
68.1820401743
 20
36.930185725
 11
69.8790893836
 21
37.9099716943
  0
LINE
  5
30C
100
AcDbEntity
  8
0
100
AcDbLine
 62
7
  6
BYLAYER
 10
54.1813841974
 20
80.8581554495
 11
43.1504724851
 21
87.22671122
  0
LINE
  5
30D
100
AcDbEntity
  8
0
100
AcDbLine
 62
7
  6
BYLAYER
 10
55.312750337
 20
81.5113460957
 11
54.216730263
 21
82.1441192652
  0
LINE
  5
30E
100
AcDbEntity
  8
0
100
AcDbLine
 62
7
  6
BYLAYER
 10
50.6811816373
 20
84.1853230378
 11
48.9134073244
 21
85.2059249241
  0
LINE
  5
30F
100
AcDbEntity
  8
0
100
AcDbLine
 62
7
  6
BYLAYER
 10
45.3778586987
 20
87.2471286967
 11
44.2818386247
 21
87.8799018662
  0
LINE
  5
310
100
AcDbEntity
  8
0
100
AcDbLine
 62
7
  6
BYLAYER
 10
55.312750337
 20
82.4911489963
 11
53.8631754004
 21
83.328042543
  0
LINE
  5
311
100
AcDbEntity
  8
0
100
AcDbLine
 62
7
  6
BYLAYER
 10
51.0347364998
 20
84.9610055611
 11
48.5598524618
 21
86.389848202
  0
LINE
  5
312
100
AcDbEntity
  8
0
100
AcDbLine
 62
7
  6
BYLAYER
 10
45.7314135612
 20
88.02281122
 11
44.2818386247
 21
88.8597047668
  0
LINE
  5
313
100
AcDbEntity
  8
0
100
AcDbLine
 62
7
  6
BYLAYER
 10
49.0835102184
 20
23.6911219627
 11
48.9233760738
 21
23.5986690231
  0
LINE
  5
314
100
AcDbEntity
  8
0
100
AcDbLine
 62
7
  6
BYLAYER
 10
69.7023119523
 20
34.7460222144
 11
68.1820401743
 21
33.8682981335
  0
LINE
  5
315
100
AcDbEntity
  8
0
100
AcDbLine
 62
7
  6
BYLAYER
 10
69.8790893836
 20
34.6439620258
 11
68.1820401743
 21
33.6641760565
  0
LINE
  5
316
100
AcDbEntity
  8
0
100
AcDbLine
 62
7
  6
BYLAYER
 10
50.6458650114
 20
18.3957558126
 11
51.7772311509
 21
19.0489464588
  0
LINE
  5
317
100
AcDbEntity
  8
0
100
AcDbLine
 62
7
  6
BYLAYER
 10
69.7023119523
 20
81.6132609577
 11
69.8790893836
 21
81.511200769
  0
LINE
  5
318
100
AcDbEntity
  8
0
100
AcDbLine
 62
7
  6
BYLAYER
 10
51.7772311509
 20
18.0691435582
 11
71.1518762906
 21
29.2550333743
  0
LINE
  5
319
100
AcDbEntity
  8
0
100
AcDbLine
 62
7
  6
BYLAYER
 10
64.9646839161
 20
89.7374632139
 11
62.6312364862
 21
91.0846492383
  0
LINE
  5
31A
100
AcDbEntity
  8
0
100
AcDbLine
 62
7
  6
BYLAYER
 10
59.6613609775
 20
92.7992688728
 11
57.3279135476
 21
94.1464548972
  0
LINE
  5
31B
100
AcDbEntity
  8
0
100
AcDbLine
 62
7
  6
BYLAYER
 10
65.8132302493
 20
90.2273687435
 11
62.9847913487
 21
91.8603317616
  0
LINE
  5
31C
100
AcDbEntity
  8
0
100
AcDbLine
 62
7
  6
BYLAYER
 10
60.5099073107
 20
93.2891744024
 11
57.6814684101
 21
94.9221374205
  0
LINE
  5
31D
100
AcDbEntity
  8
0
100
AcDbLine
 62
7
  6
BYLAYER
 10
71.1518762906
 20
91.635818043
 11
60.1209645783
 21
98.0043738135
  0
ARC
  5
31E
100
AcDbEntity
  8
0
100
AcDbCircle
 62
7
  6
BYLAYER
 10
51.3171974454
 20
32.6284370055
 40
3.0350965265
100
AcDbArc
 50
218.8433446017
 51
219.8406028246
  0
SPLINE
  5
31F
100
AcDbEntity
  8
0
100
AcDbSpline
 62
7
  6
BYLAYER
 70
0
 71
3
 72
16
 73
12
 74
0
 42
0.0000001
 43
0.0000001
 44
0.0000000001
 40
0.0
 40
0.0
 40
0.0
 40
0.0
 40
0.1149738138
 40
0.2371291572
 40
0.3645735713
 40
0.4950822136
 40
0.6262494345
 40
0.7556352264
 40
0.8808954335
 40
0.9413522677
 40
1.0
 40
1.0
 40
1.0
 40
1.0
 10
47.8352206089
 20
81.7916884234
 30
0.0
 10
47.733144264
 20
81.8588814166
 30
0.0
 10
47.5321374276
 20
82.0122679456
 30
0.0
 10
47.2530852178
 20
82.2821877058
 30
0.0
 10
46.9934301516
 20
82.5926559287
 30
0.0
 10
46.7603558088
 20
82.9351088155
 30
0.0
 10
46.5602290417
 20
83.300164805
 30
0.0
 10
46.3985854479
 20
83.6777428311
 30
0.0
 10
46.2984048603
 20
83.9980688391
 30
0.0
 10
46.2419137964
 20
84.2517062831
 30
0.0
 10
46.2216575175
 20
84.3767688844
 30
0.0
 10
46.2136546712
 20
84.4385902516
 30
0.0
  0
SPLINE
  5
320
100
AcDbEntity
  8
0
100
AcDbSpline
 62
7
  6
BYLAYER
 70
0
 71
3
 72
16
 73
12
 74
0
 42
0.0000001
 43
0.0000001
 44
0.0000000001
 40
0.0
 40
0.0
 40
0.0
 40
0.0
 40
0.1149738013
 40
0.2371291374
 40
0.364573549
 40
0.4950821929
 40
0.6262494184
 40
0.7556352161
 40
0.880895429
 40
0.9413522653
 40
1.0
 40
1.0
 40
1.0
 40
1.0
 10
40.0571231933
 20
64.3187451963
 30
0.0
 10
39.9550468162
 20
64.3859381693
 30
0.0
 10
39.7540399096
 20
64.5393246717
 30
0.0
 10
39.474987599
 20
64.8092444273
 30
0.0
 10
39.2153324295
 20
65.1197126786
 30
0.0
 10
38.9822579888
 20
65.4621656232
 30
0.0
 10
38.7821311352
 20
65.827221693
 30
0.0
 10
38.6204874709
 20
66.2047998142
 30
0.0
 10
38.5203068414
 20
66.5251259084
 30
0.0
 10
38.4638157552
 20
66.7787634221
 30
0.0
 10
38.4435594698
 20
66.9038260578
 30
0.0
 10
38.4355566213
 20
66.9656474422
 30
0.0
  0
SPLINE
  5
321
100
AcDbEntity
  8
0
100
AcDbSpline
 62
7
  6
BYLAYER
 70
0
 71
3
 72
14
 73
10
 74
0
 42
0.0000001
 43
0.0000001
 44
0.0000000001
 40
0.0
 40
0.0
 40
0.0
 40
0.0
 40
0.1229714024
 40
0.2466977089
 40
0.3711528497
 40
0.4962268167
 40
0.6217925038
 40
0.7477099541
 40
1.0
 40
1.0
 40
1.0
 40
1.0
 10
28.0762751093
 20
45.461528409
 30
0.0
 10
27.5339020583
 20
44.8537325549
 30
0.0
 10
26.4551908463
 20
43.6259690409
 30
0.0
 10
24.8705816897
 20
41.7458790789
 30
0.0
 10
23.3100155178
 20
39.8278705933
 30
0.0
 10
21.7686141355
 20
37.8789136546
 30
0.0
 10
20.2419662953
 20
35.9061523378
 30
0.0
 10
18.2189512134
 20
33.2520484645
 30
0.0
 10
16.7125930725
 20
31.2500808474
 30
0.0
 10
15.7048864514
 20
29.9168000256
 30
0.0
  0
SPLINE
  5
322
100
AcDbEntity
  8
0
100
AcDbSpline
 62
7
  6
BYLAYER
 70
0
 71
3
 72
11
 73
7
 74
0
 42
0.0000001
 43
0.0000001
 44
0.0000000001
 40
0.0
 40
0.0
 40
0.0
 40
0.0
 40
0.2562013753
 40
0.5129038708
 40
0.7629999693
 40
1.0
 40
1.0
 40
1.0
 40
1.0
 10
15.7048864796
 20
29.9167999914
 30
0.0
 10
15.6643756972
 20
29.8632460027
 30
0.0
 10
15.5897162118
 20
29.7510156473
 30
0.0
 10
15.4986263779
 20
29.5724895052
 30
0.0
 10
15.4311318208
 20
29.3891104804
 30
0.0
 10
15.4025280846
 20
29.264195512
 30
0.0
 10
15.3933153207
 20
29.2027649237
 30
0.0
  0
SPLINE
  5
323
100
AcDbEntity
  8
0
100
AcDbSpline
 62
7
  6
BYLAYER
 70
0
 71
3
 72
11
 73
7
 74
0
 42
0.0000001
 43
0.0000001
 44
0.0000000001
 40
0.0
 40
0.0
 40
0.0
 40
0.0
 40
0.2368769016
 40
0.4861732863
 40
0.7425114281
 40
1.0
 40
1.0
 40
1.0
 40
1.0
 10
15.3933153207
 20
29.2027649237
 30
0.0
 10
15.3422646933
 20
28.862360017
 30
0.0
 10
15.1882058018
 20
28.1705258899
 30
0.0
 10
14.8287465647
 20
27.1508579222
 30
0.0
 10
14.3458957294
 20
26.1502396326
 30
0.0
 10
13.9502758282
 20
25.5149884983
 30
0.0
 10
13.7353362972
 20
25.2087223753
 30
0.0
  0
SPLINE
  5
324
100
AcDbEntity
  8
0
100
AcDbSpline
 62
7
  6
BYLAYER
 70
0
 71
3
 72
11
 73
7
 74
0
 42
0.0000001
 43
0.0000001
 44
0.0000000001
 40
0.0
 40
0.0
 40
0.0
 40
0.0
 40
0.2177839237
 40
0.4509111717
 40
0.7102971901
 40
1.0
 40
1.0
 40
1.0
 40
1.0
 10
49.5341592121
 20
37.1277419779
 30
0.0
 10
49.4978750987
 20
37.1486901283
 30
0.0
 10
49.4145067716
 20
37.1789444429
 30
0.0
 10
49.2760336864
 20
37.1824493712
 30
0.0
 10
49.1284539969
 20
37.1468101991
 30
0.0
 10
49.0324373098
 20
37.1011322925
 30
0.0
 10
48.9841712883
 20
37.0732660584
 30
0.0
  0
SPLINE
  5
325
100
AcDbEntity
  8
0
100
AcDbSpline
 62
7
  6
BYLAYER
 70
0
 71
3
 72
11
 73
7
 74
0
 42
0.0000001
 43
0.0000001
 44
0.0000000001
 40
0.0
 40
0.0
 40
0.0
 40
0.0
 40
0.2177456295
 40
0.4508837762
 40
0.7104602913
 40
1.0
 40
1.0
 40
1.0
 40
1.0
 10
50.265518247
 20
54.969477022
 30
0.0
 10
50.2556245144
 20
54.9751890402
 30
0.0
 10
50.2328995907
 20
54.9834649896
 30
0.0
 10
50.1951206257
 20
54.9844136736
 30
0.0
 10
50.154877906
 20
54.9746727482
 30
0.0
 10
50.1286849771
 20
54.9622286487
 30
0.0
 10
50.1155291847
 20
54.9546331938
 30
0.0
  0
SPLINE
  5
326
100
AcDbEntity
  8
0
100
AcDbSpline
 62
7
  6
BYLAYER
 70
0
 71
3
 72
11
 73
7
 74
0
 42
0.0000001
 43
0.0000001
 44
0.0000000001
 40
0.0
 40
0.0
 40
0.0
 40
0.0
 40
0.2177442246
 40
0.4508817658
 40
0.7104588047
 40
1.0
 40
1.0
 40
1.0
 40
1.0
 10
50.8312060269
 20
54.6428844185
 30
0.0
 10
50.8411000845
 20
54.6371722056
 30
0.0
 10
50.8596306177
 20
54.621629505
 30
0.0
 10
50.8793425707
 20
54.5893851547
 30
0.0
 10
50.8910285217
 20
54.5496618195
 30
0.0
 10
50.893348116
 20
54.5207547689
 30
0.0
 10
50.893348116
 20
54.5055631112
 30
0.0
  0
SPLINE
  5
327
100
AcDbEntity
  8
0
100
AcDbSpline
 62
7
  6
BYLAYER
 70
0
 71
3
 72
14
 73
10
 74
0
 42
0.0000001
 43
0.0000001
 44
0.0000000001
 40
0.0
 40
0.0
 40
0.0
 40
0.0
 40
0.1031809935
 40
0.2149753635
 40
0.3346612033
 40
0.4611291736
 40
0.5928146556
 40
0.7278772303
 40
1.0
 40
1.0
 40
1.0
 40
1.0
 10
28.2532592345
 20
36.2480889887
 30
0.0
 10
28.1451960612
 20
36.2136304664
 30
0.0
 10
27.9260071352
 20
36.1224249344
 30
0.0
 10
27.6083281712
 20
35.9350902294
 30
0.0
 10
27.2949485978
 20
35.6957373255
 30
0.0
 10
26.9927417819
 20
35.4098224689
 30
0.0
 10
26.7082563777
 20
35.0834929278
 30
0.0
 10
26.3603673317
 20
34.6034245562
 30
0.0
 10
26.145261106
 20
34.2074728628
 30
0.0
 10
26.0262090481
 20
33.9330465526
 30
0.0
  0
SPLINE
  5
328
100
AcDbEntity
  8
0
100
AcDbSpline
 62
7
  6
BYLAYER
 70
0
 71
3
 72
11
 73
7
 74
0
 42
0.0000001
 43
0.0000001
 44
0.0000000001
 40
0.0
 40
0.0
 40
0.0
 40
0.0
 40
0.2897042895
 40
0.5490907647
 40
0.7822174449
 40
1.0
 40
1.0
 40
1.0
 40
1.0
 10
48.2063570674
 20
35.7260448303
 30
0.0
 10
48.2063570674
 20
35.6703096199
 30
0.0
 10
48.2148072984
 20
35.5643131738
 30
0.0
 10
48.2577344804
 20
35.4186797611
 30
0.0
 10
48.3300096395
 20
35.3005068284
 30
0.0
 10
48.3978980417
 20
35.2434336699
 30
0.0
 10
48.4341833645
 20
35.2224848212
 30
0.0
  0
SPLINE
  5
329
100
AcDbEntity
  8
0
100
AcDbSpline
 62
7
  6
BYLAYER
 70
0
 71
3
 72
15
 73
11
 74
0
 42
0.0000001
 43
0.0000001
 44
0.0000000001
 40
0.0
 40
0.0
 40
0.0
 40
0.0
 40
0.1141229605
 40
0.2373462928
 40
0.366971064
 40
0.4999983279
 40
0.633025824
 40
0.762651271
 40
0.8858756957
 40
1.0
 40
1.0
 40
1.0
 40
1.0
 10
48.9841712883
 20
37.0732660584
 30
0.0
 10
48.9309385028
 20
37.0425322788
 30
0.0
 10
48.8257706434
 20
36.9687813521
 30
0.0
 10
48.6810352743
 20
36.8334184382
 30
0.0
 10
48.5476836463
 20
36.6733468347
 30
0.0
 10
48.4306855666
 20
36.494677582
 30
0.0
 10
48.3344532442
 20
36.3040188629
 30
0.0
 10
48.2625034015
 20
36.1084958689
 30
0.0
 10
48.2176434769
 20
35.9154681704
 30
0.0
 10
48.2063570674
 20
35.7875133884
 30
0.0
 10
48.2063570674
 20
35.7260448303
 30
0.0
  0
SPLINE
  5
32A
100
AcDbEntity
  8
0
100
AcDbSpline
 62
7
  6
BYLAYER
 70
0
 71
3
 72
15
 73
11
 74
0
 42
0.0000001
 43
0.0000001
 44
0.0000000001
 40
0.0
 40
0.0
 40
0.0
 40
0.0
 40
0.1226614586
 40
0.2456601207
 40
0.3693680987
 40
0.4941075832
 40
0.6197903851
 40
0.746183057
 40
0.8730163553
 40
1.0
 40
1.0
 40
1.0
 40
1.0
 10
43.2091727812
 20
45.0744739252
 30
0.0
 10
42.4468045264
 20
44.2600015606
 30
0.0
 10
40.9199791074
 20
42.6288003608
 30
0.0
 10
38.6483264614
 20
40.1537683166
 30
0.0
 10
36.4127254753
 20
37.6204940274
 30
0.0
 10
34.2345047492
 20
35.0058235458
 30
0.0
 10
32.0979868293
 20
32.3259630299
 30
0.0
 10
29.9909738376
 20
29.5988489564
 30
0.0
 10
27.9016487134
 20
26.843385522
 30
0.0
 10
26.5124668928
 20
24.999705408
 30
0.0
 10
25.8160971918
 20
24.0783508282
 30
0.0
  0
SPLINE
  5
32B
100
AcDbEntity
  8
0
100
AcDbSpline
 62
7
  6
BYLAYER
 70
0
 71
3
 72
11
 73
7
 74
0
 42
0.0000001
 43
0.0000001
 44
0.0000000001
 40
0.0
 40
0.0
 40
0.0
 40
0.0
 40
0.2562180324
 40
0.5129179713
 40
0.7630033955
 40
1.0
 40
1.0
 40
1.0
 40
1.0
 10
25.8160971918
 20
24.0783508282
 30
0.0
 10
25.7756445428
 20
24.0248286354
 30
0.0
 10
25.7011007064
 20
23.9126735359
 30
0.0
 10
25.6101501549
 20
23.7342936236
 30
0.0
 10
25.5427535985
 20
23.5510848273
 30
0.0
 10
25.5141881329
 20
23.4262925681
 30
0.0
 10
25.5049843903
 20
23.3649221341
 30
0.0
  0
SPLINE
  5
32C
100
AcDbEntity
  8
0
100
AcDbSpline
 62
7
  6
BYLAYER
 70
0
 71
3
 72
9
 73
5
 74
0
 42
0.0000001
 43
0.0000001
 44
0.0000000001
 40
0.0
 40
0.0
 40
0.0
 40
0.0
 40
0.4861782639
 40
1.0
 40
1.0
 40
1.0
 40
1.0
 10
25.5049843903
 20
23.3649221341
 30
0.0
 10
25.4448261121
 20
22.9637875326
 30
0.0
 10
25.2527274584
 20
22.1482470077
 30
0.0
 10
24.9508624447
 20
21.3676654238
 30
0.0
 10
24.7714469247
 20
20.9783330936
 30
0.0
  0
SPLINE
  5
32D
100
AcDbEntity
  8
0
100
AcDbSpline
 62
7
  6
BYLAYER
 70
0
 71
3
 72
11
 73
7
 74
0
 42
0.0000001
 43
0.0000001
 44
0.0000000001
 40
0.0
 40
0.0
 40
0.0
 40
0.0
 40
0.262910527
 40
0.5237140691
 40
0.7722600877
 40
1.0
 40
1.0
 40
1.0
 40
1.0
 10
33.6745080776
 20
22.41690166
 30
0.0
 10
33.6258836232
 20
22.3048176707
 30
0.0
 10
33.5126493839
 20
22.0883120511
 30
0.0
 10
33.3029800535
 20
21.7955935597
 30
0.0
 10
33.0639684638
 20
21.548478771
 30
0.0
 10
32.8843224232
 20
21.4164831712
 30
0.0
 10
32.7926685081
 20
21.3635670745
 30
0.0
  0
SPLINE
  5
32E
100
AcDbEntity
  8
0
100
AcDbSpline
 62
7
  6
BYLAYER
 70
0
 71
3
 72
14
 73
10
 74
0
 42
0.0000001
 43
0.0000001
 44
0.0000000001
 40
0.0
 40
0.0
 40
0.0
 40
0.0
 40
0.1031809935
 40
0.2149753635
 40
0.3346612033
 40
0.4611291736
 40
0.5928146556
 40
0.7278772303
 40
1.0
 40
1.0
 40
1.0
 40
1.0
 10
38.3649283041
 20
30.410246199
 30
0.0
 10
38.2568651308
 20
30.3757876767
 30
0.0
 10
38.0376762048
 20
30.2845821448
 30
0.0
 10
37.7199972408
 20
30.0972474398
 30
0.0
 10
37.4066176673
 20
29.8578945358
 30
0.0
 10
37.1044108514
 20
29.5719796793
 30
0.0
 10
36.8199254473
 20
29.2456501381
 30
0.0
 10
36.4720364013
 20
28.7655817665
 30
0.0
 10
36.2569301755
 20
28.3696300731
 30
0.0
 10
36.1378781176
 20
28.0952037629
 30
0.0
  0
SPLINE
  5
32F
100
AcDbEntity
  8
0
100
AcDbSpline
 62
7
  6
BYLAYER
 70
0
 71
3
 72
11
 73
7
 74
0
 42
0.0000001
 43
0.0000001
 44
0.0000000001
 40
0.0
 40
0.0
 40
0.0
 40
0.0
 40
0.2372518718
 40
0.4999985497
 40
0.7627460178
 40
1.0
 40
1.0
 40
1.0
 40
1.0
 10
49.0548734289
 20
54.342266963
 30
0.0
 10
49.0247552389
 20
54.3248783217
 30
0.0
 10
48.9677592789
 20
54.2769152488
 30
0.0
 10
48.9012627055
 20
54.1860056734
 30
0.0
 10
48.8557814288
 20
54.0829626304
 30
0.0
 10
48.8427422777
 20
54.0096207393
 30
0.0
 10
48.8427422777
 20
53.9748429917
 30
0.0
  0
SPLINE
  5
330
100
AcDbEntity
  8
0
100
AcDbSpline
 62
7
  6
BYLAYER
 70
0
 71
3
 72
11
 73
7
 74
0
 42
0.0000001
 43
0.0000001
 44
0.0000000001
 40
0.0
 40
0.0
 40
0.0
 40
0.0
 40
0.2467594103
 40
0.4999995469
 40
0.7532399177
 40
1.0
 40
1.0
 40
1.0
 40
1.0
 10
48.7128517782
 20
36.8179286162
 30
0.0
 10
48.6929609635
 20
36.7509845977
 30
0.0
 10
48.6439663001
 20
36.617801486
 30
0.0
 10
48.5477137733
 20
36.4271047963
 30
0.0
 10
48.4306965903
 20
36.2483959935
 30
0.0
 10
48.3398567971
 20
36.1393711246
 30
0.0
 10
48.2918282682
 20
36.0886716858
 30
0.0
  0
SPLINE
  5
331
100
AcDbEntity
  8
0
100
AcDbSpline
 62
7
  6
BYLAYER
 70
0
 71
3
 72
15
 73
11
 74
0
 42
0.0000001
 43
0.0000001
 44
0.0000000001
 40
0.0
 40
0.0
 40
0.0
 40
0.0
 40
0.114155658
 40
0.2373279333
 40
0.3669777387
 40
0.5000016213
 40
0.633025278
 40
0.7626744253
 40
0.8858456604
 40
1.0
 40
1.0
 40
1.0
 40
1.0
 10
51.3176139511
 20
37.8152275111
 30
0.0
 10
51.3176139511
 20
37.6447444257
 30
0.0
 10
51.2863878031
 20
37.2899815561
 30
0.0
 10
51.1619054735
 20
36.7547829871
 30
0.0
 10
50.9624919657
 20
36.2126693834
 30
0.0
 10
50.6955997571
 20
35.6840259577
 30
0.0
 10
50.3712301774
 20
35.1885680472
 30
0.0
 10
50.0014564302
 20
34.744814752
 30
0.0
 10
49.6002062485
 20
34.3694126559
 30
0.0
 10
49.3085884456
 20
34.1649906461
 30
0.0
 10
49.1609472476
 20
34.0797504695
 30
0.0
  0
SPLINE
  5
332
100
AcDbEntity
  8
0
100
AcDbSpline
 62
7
  6
BYLAYER
 70
0
 71
3
 72
9
 73
5
 74
0
 42
0.0000001
 43
0.0000001
 44
0.0000000001
 40
0.0
 40
0.0
 40
0.0
 40
0.0
 40
0.5138217361
 40
1.0
 40
1.0
 40
1.0
 40
1.0
 10
15.6497314703
 20
26.2446388269
 30
0.0
 10
15.8291469903
 20
26.6339711571
 30
0.0
 10
16.131012004
 20
27.414552741
 30
0.0
 10
16.3231106577
 20
28.2300932659
 30
0.0
 10
16.3832689359
 20
28.6312278674
 30
0.0
  0
SPLINE
  5
333
100
AcDbEntity
  8
0
100
AcDbSpline
 62
7
  6
BYLAYER
 70
0
 71
3
 72
11
 73
7
 74
0
 42
0.0000001
 43
0.0000001
 44
0.0000000001
 40
0.0
 40
0.0
 40
0.0
 40
0.0
 40
0.2369966045
 40
0.4870820287
 40
0.7437819676
 40
1.0
 40
1.0
 40
1.0
 40
1.0
 10
16.3832689359
 20
28.6312278674
 30
0.0
 10
16.3924726785
 20
28.6925983014
 30
0.0
 10
16.4210381441
 20
28.8173905606
 30
0.0
 10
16.4884347005
 20
29.0005993569
 30
0.0
 10
16.579385252
 20
29.1789792692
 30
0.0
 10
16.6539290884
 20
29.2911343687
 30
0.0
 10
16.6943817374
 20
29.3446565615
 30
0.0
  0
SPLINE
  5
334
100
AcDbEntity
  8
0
100
AcDbSpline
 62
7
  6
BYLAYER
 70
0
 71
3
 72
15
 73
11
 74
0
 42
0.0000001
 43
0.0000001
 44
0.0000000001
 40
0.0
 40
0.0
 40
0.0
 40
0.0
 40
0.2530835233
 40
0.37927415
 40
0.5049561006
 40
0.6299443111
 40
0.6921282751
 40
0.7540821678
 40
0.8773454205
 40
1.0
 40
1.0
 40
1.0
 40
1.0
 10
16.6943817374
 20
29.3446565615
 30
0.0
 10
17.8848823319
 20
30.9197870897
 30
0.0
 10
19.6629849396
 20
33.284849312
 30
0.0
 10
22.0597379372
 20
36.411309373
 30
0.0
 10
23.8734158681
 20
38.7253892967
 30
0.0
 10
25.4083248644
 20
40.6232432674
 30
0.0
 10
26.6530551963
 20
42.1159406775
 30
0.0
 10
27.9059376441
 20
43.5841692235
 30
0.0
 10
29.4974801797
 20
45.3832705033
 30
0.0
 10
30.7924378965
 20
46.7988910491
 30
0.0
 10
31.4417340278
 20
47.5017712732
 30
0.0
  0
SPLINE
  5
335
100
AcDbEntity
  8
0
100
AcDbSpline
 62
7
  6
BYLAYER
 70
0
 71
3
 72
11
 73
7
 74
0
 42
0.0000001
 43
0.0000001
 44
0.0000000001
 40
0.0
 40
0.0
 40
0.0
 40
0.0
 40
0.2896423581
 40
0.5491120121
 40
0.7822364467
 40
1.0
 40
1.0
 40
1.0
 40
1.0
 10
36.5390595559
 20
48.9940751361
 30
0.0
 10
36.5390595559
 20
48.9484834359
 30
0.0
 10
36.5459894726
 20
48.8617573221
 30
0.0
 10
36.5810907442
 20
48.7425985519
 30
0.0
 10
36.6402187384
 20
48.6458845467
 30
0.0
 10
36.695790267
 20
48.5992319026
 30
0.0
 10
36.725468717
 20
48.5820815277
 30
0.0
  0
SPLINE
  5
336
100
AcDbEntity
  8
0
100
AcDbSpline
 62
7
  6
BYLAYER
 70
0
 71
3
 72
11
 73
7
 74
0
 42
0.0000001
 43
0.0000001
 44
0.0000000001
 40
0.0
 40
0.0
 40
0.0
 40
0.0
 40
0.2897042895
 40
0.5490907647
 40
0.7822174449
 40
1.0
 40
1.0
 40
1.0
 40
1.0
 10
49.7619855092
 20
36.6241819688
 30
0.0
 10
49.7619855092
 20
36.6799171792
 30
0.0
 10
49.7535352782
 20
36.7859136253
 30
0.0
 10
49.7106080962
 20
36.931547038
 30
0.0
 10
49.6383329371
 20
37.0497199707
 30
0.0
 10
49.5704445349
 20
37.1067931292
 30
0.0
 10
49.5341592121
 20
37.1277419779
 30
0.0
  0
SPLINE
  5
337
100
AcDbEntity
  8
0
100
AcDbSpline
 62
7
  6
BYLAYER
 70
0
 71
3
 72
15
 73
11
 74
0
 42
0.0000001
 43
0.0000001
 44
0.0000000001
 40
0.0
 40
0.0
 40
0.0
 40
0.0
 40
0.1141229605
 40
0.2373462928
 40
0.366971064
 40
0.4999983279
 40
0.633025824
 40
0.762651271
 40
0.8858756957
 40
1.0
 40
1.0
 40
1.0
 40
1.0
 10
48.9841712883
 20
35.2769607407
 30
0.0
 10
49.0374040738
 20
35.3076945203
 30
0.0
 10
49.1425719332
 20
35.381445447
 30
0.0
 10
49.2873073023
 20
35.5168083609
 30
0.0
 10
49.4206589303
 20
35.6768799644
 30
0.0
 10
49.53765701
 20
35.8555492171
 30
0.0
 10
49.6338893324
 20
36.0462079362
 30
0.0
 10
49.705839175
 20
36.2417309302
 30
0.0
 10
49.7506990997
 20
36.4347586287
 30
0.0
 10
49.7619855092
 20
36.5627134107
 30
0.0
 10
49.7619855092
 20
36.6241819688
 30
0.0
  0
SPLINE
  5
338
100
AcDbEntity
  8
0
100
AcDbSpline
 62
7
  6
BYLAYER
 70
0
 71
3
 72
8
 73
4
 74
0
 42
0.0000001
 43
0.0000001
 44
0.0000000001
 40
0.0
 40
0.0
 40
0.0
 40
0.0
 40
1.0
 40
1.0
 40
1.0
 40
1.0
 10
26.8060508069
 20
23.5068137718
 30
0.0
 10
27.4879836522
 20
24.4090672
 30
0.0
 10
28.1686053276
 20
25.3123111076
 30
0.0
 10
28.8505138729
 20
26.2145829015
 30
0.0
  0
SPLINE
  5
339
100
AcDbEntity
  8
0
100
AcDbSpline
 62
7
  6
BYLAYER
 70
0
 71
3
 72
18
 73
14
 74
0
 42
0.0000001
 43
0.0000001
 44
0.0000000001
 40
0.0
 40
0.0
 40
0.0
 40
0.0
 40
0.1271400901
 40
0.2539281278
 40
0.3801518207
 40
0.4429919656
 40
0.5056218411
 40
0.5680224946
 40
0.6301822958
 40
0.6921280168
 40
0.7539011199
 40
0.8770800059
 40
1.0
 40
1.0
 40
1.0
 40
1.0
 10
28.8505138729
 20
26.2145829015
 30
0.0
 10
29.4610233791
 20
27.0223825852
 30
0.0
 10
30.6824122605
 20
28.6341968273
 30
0.0
 10
32.5282676402
 20
31.0340180285
 30
0.0
 10
34.0856036165
 20
33.0095615712
 30
0.0
 10
35.3462931746
 20
34.5680251577
 30
0.0
 10
36.2984912167
 20
35.722171953
 30
0.0
 10
37.2596556031
 20
36.8617952177
 30
0.0
 10
38.231326964
 20
37.9852819315
 30
0.0
 10
39.212227468
 20
39.0940407889
 30
0.0
 10
40.5287438603
 20
40.5546059936
 30
0.0
 10
42.1907831758
 20
42.3573288405
 30
0.0
 10
43.5301473385
 20
43.7882363921
 30
0.0
 10
44.1991263964
 20
44.5029368688
 30
0.0
  0
SPLINE
  5
33A
100
AcDbEntity
  8
0
100
AcDbSpline
 62
7
  6
BYLAYER
 70
0
 71
3
 72
10
 73
6
 74
0
 42
0.0000001
 43
0.0000001
 44
0.0000000001
 40
0.0
 40
0.0
 40
0.0
 40
0.0
 40
0.5248419349
 40
0.7712769647
 40
1.0
 40
1.0
 40
1.0
 40
1.0
 10
36.7076699284
 20
49.589627847
 30
0.0
 10
36.655291905
 20
49.4937980092
 30
0.0
 10
36.5923707523
 20
49.3441812431
 30
0.0
 10
36.5473492656
 20
49.140641655
 30
0.0
 10
36.5390595559
 20
49.0416681954
 30
0.0
 10
36.5390595559
 20
48.9940751361
 30
0.0
  0
SPLINE
  5
33B
100
AcDbEntity
  8
0
100
AcDbSpline
 62
7
  6
BYLAYER
 70
0
 71
3
 72
11
 73
7
 74
0
 42
0.0000001
 43
0.0000001
 44
0.0000000001
 40
0.0
 40
0.0
 40
0.0
 40
0.0
 40
0.2369966045
 40
0.4870820287
 40
0.7437819676
 40
1.0
 40
1.0
 40
1.0
 40
1.0
 10
26.4949380055
 20
22.7933850778
 30
0.0
 10
26.5041417481
 20
22.8547555118
 30
0.0
 10
26.5327072137
 20
22.979547771
 30
0.0
 10
26.6001037701
 20
23.1627565672
 30
0.0
 10
26.6910543216
 20
23.3411364796
 30
0.0
 10
26.765598158
 20
23.453291579
 30
0.0
 10
26.8060508069
 20
23.5068137718
 30
0.0
  0
SPLINE
  5
33C
100
AcDbEntity
  8
0
100
AcDbSpline
 62
7
  6
BYLAYER
 70
0
 71
3
 72
11
 73
7
 74
0
 42
0.0000001
 43
0.0000001
 44
0.0000000001
 40
0.0
 40
0.0
 40
0.0
 40
0.0
 40
0.2574885719
 40
0.5138267137
 40
0.7631230984
 40
1.0
 40
1.0
 40
1.0
 40
1.0
 10
24.836958982
 20
18.7993425293
 30
0.0
 10
25.051898513
 20
19.1056086523
 30
0.0
 10
25.4475184142
 20
19.7408597866
 30
0.0
 10
25.9303692495
 20
20.7414780762
 30
0.0
 10
26.2898284866
 20
21.761146044
 30
0.0
 10
26.4438873781
 20
22.4529801711
 30
0.0
 10
26.4949380055
 20
22.7933850778
 30
0.0
  0
SPLINE
  5
33D
100
AcDbEntity
  8
0
100
AcDbSpline
 62
7
  6
BYLAYER
 70
0
 71
3
 72
11
 73
7
 74
0
 42
0.0000001
 43
0.0000001
 44
0.0000000001
 40
0.0
 40
0.0
 40
0.0
 40
0.0
 40
0.2177839237
 40
0.4509111717
 40
0.7102971901
 40
1.0
 40
1.0
 40
1.0
 40
1.0
 10
48.4341833645
 20
35.2224848212
 30
0.0
 10
48.4704674779
 20
35.2015366708
 30
0.0
 10
48.553835805
 20
35.1712823562
 30
0.0
 10
48.6923088902
 20
35.1677774279
 30
0.0
 10
48.8398885797
 20
35.2034166
 30
0.0
 10
48.9359052668
 20
35.2490945066
 30
0.0
 10
48.9841712883
 20
35.2769607407
 30
0.0
  0
SPLINE
  5
33E
100
AcDbEntity
  8
0
100
AcDbSpline
 62
7
  6
BYLAYER
 70
0
 71
3
 72
11
 73
7
 74
0
 42
0.0000001
 43
0.0000001
 44
0.0000000001
 40
0.0
 40
0.0
 40
0.0
 40
0.0
 40
0.2372542275
 40
0.5000017852
 40
0.7627483734
 40
1.0
 40
1.0
 40
1.0
 40
1.0
 10
49.4084300579
 20
53.6482503881
 30
0.0
 10
49.4084300579
 20
53.6830281716
 30
0.0
 10
49.4214692302
 20
53.7563701118
 30
0.0
 10
49.4669505471
 20
53.8594131763
 30
0.0
 10
49.5334471219
 20
53.9503227061
 30
0.0
 10
49.5904430502
 20
53.998285736
 30
0.0
 10
49.620561209
 20
54.0156743594
 30
0.0
  0
SPLINE
  5
33F
100
AcDbEntity
  8
0
100
AcDbSpline
 62
7
  6
BYLAYER
 70
0
 71
3
 72
11
 73
7
 74
0
 42
0.0000001
 43
0.0000001
 44
0.0000000001
 40
0.0
 40
0.0
 40
0.0
 40
0.0
 40
0.2895396729
 40
0.5491163863
 40
0.7822545095
 40
1.0
 40
1.0
 40
1.0
 40
1.0
 10
50.6812169648
 20
54.6280405902
 30
0.0
 10
50.6943727554
 20
54.6356360441
 30
0.0
 10
50.7205656977
 20
54.6480801303
 30
0.0
 10
50.7608084201
 20
54.6578210787
 30
0.0
 10
50.7985873854
 20
54.6568723759
 30
0.0
 10
50.8213123038
 20
54.6485964383
 30
0.0
 10
50.8312060269
 20
54.6428844185
 30
0.0
  0
SPLINE
  5
340
100
AcDbEntity
  8
0
100
AcDbSpline
 62
7
  6
BYLAYER
 70
0
 71
3
 72
15
 73
11
 74
0
 42
0.0000001
 43
0.0000001
 44
0.0000000001
 40
0.0
 40
0.0
 40
0.0
 40
0.0
 40
0.1158775449
 40
0.239336563
 40
0.3681738113
 40
0.4998054509
 40
0.6314628522
 40
0.7603534808
 40
0.8839278337
 40
1.0
 40
1.0
 40
1.0
 40
1.0
 10
49.6040431083
 20
22.1456372857
 30
0.0
 10
49.4949716994
 20
22.2173523912
 30
0.0
 10
49.2805870739
 20
22.3824332117
 30
0.0
 10
48.9850197267
 20
22.6746150679
 30
0.0
 10
48.7125401355
 20
23.0115772536
 30
0.0
 10
48.4717052517
 20
23.382805982
 30
0.0
 10
48.2700182798
 20
23.7767426868
 30
0.0
 10
48.1136611676
 20
24.1811270302
 30
0.0
 10
48.0075636759
 20
24.583395671
 30
0.0
 10
47.9713228875
 20
24.8518815003
 30
0.0
 10
47.9634320884
 20
24.9823983557
 30
0.0
  0
SPLINE
  5
341
100
AcDbEntity
  8
0
100
AcDbSpline
 62
7
  6
BYLAYER
 70
0
 71
3
 72
11
 73
7
 74
0
 42
0.0000001
 43
0.0000001
 44
0.0000000001
 40
0.0
 40
0.0
 40
0.0
 40
0.0
 40
0.2177839466
 40
0.4509170841
 40
0.710307871
 40
1.0
 40
1.0
 40
1.0
 40
1.0
 10
49.1070585757
 20
20.6935793598
 30
0.0
 10
49.1944665183
 20
20.7440599689
 30
0.0
 10
49.3580290731
 20
20.8815383562
 30
0.0
 10
49.5321454806
 20
21.1662409058
 30
0.0
 10
49.6355547825
 20
21.5170843548
 30
0.0
 10
49.6559113961
 20
21.7724359929
 30
0.0
 10
49.6559113961
 20
21.9067015706
 30
0.0
  0
SPLINE
  5
342
100
AcDbEntity
  8
0
100
AcDbSpline
 62
7
  6
BYLAYER
 70
0
 71
3
 72
13
 73
9
 74
0
 42
0.0000001
 43
0.0000001
 44
0.0000000001
 40
0.0
 40
0.0
 40
0.0
 40
0.0
 40
0.1157327984
 40
0.2383600571
 40
0.4962157437
 40
0.7560564557
 40
0.8811676188
 40
1.0
 40
1.0
 40
1.0
 40
1.0
 10
44.3004910428
 20
25.2108548159
 30
0.0
 10
44.2002025587
 20
25.279142178
 30
0.0
 10
44.0030236847
 20
25.4338862261
 30
0.0
 10
43.6322916201
 20
25.8000219477
 30
0.0
 10
43.2308932782
 20
26.3437551592
 30
0.0
 10
42.9350678322
 20
26.9541112187
 30
0.0
 10
42.7784555229
 20
27.4593268229
 30
0.0
 10
42.7294844646
 20
27.7110474849
 30
0.0
 10
42.7134909714
 20
27.8345959803
 30
0.0
  0
SPLINE
  5
343
100
AcDbEntity
  8
0
100
AcDbSpline
 62
7
  6
BYLAYER
 70
0
 71
3
 72
11
 73
7
 74
0
 42
0.0000001
 43
0.0000001
 44
0.0000000001
 40
0.0
 40
0.0
 40
0.0
 40
0.0
 40
0.2177839466
 40
0.4509170841
 40
0.710307871
 40
1.0
 40
1.0
 40
1.0
 40
1.0
 10
43.8037356371
 20
23.7553850187
 30
0.0
 10
43.8911435797
 20
23.8058656278
 30
0.0
 10
44.0547061345
 20
23.9433440151
 30
0.0
 10
44.228822542
 20
24.2280465647
 30
0.0
 10
44.3322318439
 20
24.5788900137
 30
0.0
 10
44.3525884575
 20
24.8342416518
 30
0.0
 10
44.3525884575
 20
24.9685072295
 30
0.0
  0
SPLINE
  5
344
100
AcDbEntity
  8
0
100
AcDbSpline
 62
7
  6
BYLAYER
 70
0
 71
3
 72
11
 73
7
 74
0
 42
0.0000001
 43
0.0000001
 44
0.0000000001
 40
0.0
 40
0.0
 40
0.0
 40
0.0
 40
0.2177839466
 40
0.4509170841
 40
0.710307871
 40
1.0
 40
1.0
 40
1.0
 40
1.0
 10
47.3392548232
 20
80.3389672523
 30
0.0
 10
47.4266627658
 20
80.3894478614
 30
0.0
 10
47.5902253206
 20
80.5269262487
 30
0.0
 10
47.764341728
 20
80.8116287983
 30
0.0
 10
47.86775103
 20
81.1624722473
 30
0.0
 10
47.8881076436
 20
81.4178238854
 30
0.0
 10
47.8881076436
 20
81.5520894631
 30
0.0
  0
SPLINE
  5
345
100
AcDbEntity
  8
0
100
AcDbSpline
 62
7
  6
BYLAYER
 70
0
 71
3
 72
11
 73
7
 74
0
 42
0.0000001
 43
0.0000001
 44
0.0000000001
 40
0.0
 40
0.0
 40
0.0
 40
0.0
 40
0.2177839466
 40
0.4509170841
 40
0.710307871
 40
1.0
 40
1.0
 40
1.0
 40
1.0
 10
39.5611567733
 20
62.8660244429
 30
0.0
 10
39.6485647159
 20
62.916505052
 30
0.0
 10
39.8121272708
 20
63.0539834393
 30
0.0
 10
39.9862436782
 20
63.3386859889
 30
0.0
 10
40.0896529801
 20
63.6895294379
 30
0.0
 10
40.1100095938
 20
63.944881076
 30
0.0
 10
40.1100095938
 20
64.0791466537
 30
0.0
  0
SPLINE
  5
346
100
AcDbEntity
  8
0
100
AcDbSpline
 62
7
  6
BYLAYER
 70
0
 71
3
 72
13
 73
9
 74
0
 42
0.0000001
 43
0.0000001
 44
0.0000000001
 40
0.0
 40
0.0
 40
0.0
 40
0.0
 40
0.1150364405
 40
0.2372626293
 40
0.4950722882
 40
0.7554810053
 40
0.8809149866
 40
1.0
 40
1.0
 40
1.0
 40
1.0
 10
26.9764713615
 20
49.9071210359
 30
0.0
 10
26.8743496301
 20
49.974276169
 30
0.0
 10
26.673268477
 20
50.1276593123
 30
0.0
 10
26.2944811074
 20
50.4939134099
 30
0.0
 10
25.8836280959
 20
51.042346132
 30
0.0
 10
25.5807155545
 20
51.6605369242
 30
0.0
 10
25.4203763203
 20
52.1733477151
 30
0.0
 10
25.3703789473
 20
52.4290319465
 30
0.0
 10
25.3541356329
 20
52.5545102917
 30
0.0
  0
SPLINE
  5
347
100
AcDbEntity
  8
0
100
AcDbSpline
 62
7
  6
BYLAYER
 70
0
 71
3
 72
11
 73
7
 74
0
 42
0.0000001
 43
0.0000001
 44
0.0000000001
 40
0.0
 40
0.0
 40
0.0
 40
0.0
 40
0.2177839466
 40
0.4509170841
 40
0.710307871
 40
1.0
 40
1.0
 40
1.0
 40
1.0
 10
26.4797357849
 20
48.4548872924
 30
0.0
 10
26.5671437275
 20
48.5053679015
 30
0.0
 10
26.7307062823
 20
48.6428462888
 30
0.0
 10
26.9048226897
 20
48.9275488384
 30
0.0
 10
27.0082319917
 20
49.2783922873
 30
0.0
 10
27.0285886053
 20
49.5337439255
 30
0.0
 10
27.0285886053
 20
49.6680095032
 30
0.0
  0
SPLINE
  5
348
100
AcDbEntity
  8
0
100
AcDbSpline
 62
7
  6
BYLAYER
 70
0
 71
3
 72
19
 73
15
 74
0
 42
0.0000001
 43
0.0000001
 44
0.0000000001
 40
0.0
 40
0.0
 40
0.0
 40
0.0
 40
0.062391684
 40
0.1288324836
 40
0.2703533745
 40
0.4174431196
 40
0.5617172598
 40
0.6953244085
 40
0.7563177584
 40
0.812797985
 40
0.8647366222
 40
0.9125504304
 40
0.9571578829
 40
1.0
 40
1.0
 40
1.0
 40
1.0
 10
47.8881076436
 20
81.5520894631
 30
0.0
 10
47.8881076436
 20
81.6619577281
 30
0.0
 10
47.8731384513
 20
81.888980987
 30
0.0
 10
47.7897684832
 20
82.35842877
 30
0.0
 10
47.5881263078
 20
82.9544010267
 30
0.0
 10
47.2237167561
 20
83.6278149711
 30
0.0
 10
46.7609150521
 20
84.2203454001
 30
0.0
 10
46.310627922
 20
84.6191309046
 30
0.0
 10
45.9326390654
 20
84.8505110874
 30
0.0
 10
45.658814514
 20
84.9715166868
 30
0.0
 10
45.3916484178
 20
85.0424729191
 30
0.0
 10
45.1363666082
 20
85.0613203856
 30
0.0
 10
44.8986487465
 20
85.0264153081
 30
0.0
 10
44.7546090515
 20
84.9666177086
 30
0.0
 10
44.6892789208
 20
84.9288876729
 30
0.0
  0
SPLINE
  5
349
100
AcDbEntity
  8
0
100
AcDbSpline
 62
7
  6
BYLAYER
 70
0
 71
3
 72
19
 73
15
 74
0
 42
0.0000001
 43
0.0000001
 44
0.0000000001
 40
0.0
 40
0.0
 40
0.0
 40
0.0
 40
0.062391684
 40
0.1288324836
 40
0.2703533745
 40
0.4174431196
 40
0.5617172598
 40
0.6953244085
 40
0.7563177584
 40
0.812797985
 40
0.8647366222
 40
0.9125504304
 40
0.9571578829
 40
1.0
 40
1.0
 40
1.0
 40
1.0
 10
40.1100095938
 20
64.0791466537
 30
0.0
 10
40.1100095938
 20
64.1890149187
 30
0.0
 10
40.0950404015
 20
64.4160381776
 30
0.0
 10
40.0116704333
 20
64.8854859606
 30
0.0
 10
39.8100282579
 20
65.4814582172
 30
0.0
 10
39.4456187063
 20
66.1548721617
 30
0.0
 10
38.9828170023
 20
66.7474025907
 30
0.0
 10
38.5325298722
 20
67.1461880952
 30
0.0
 10
38.1545410155
 20
67.377568278
 30
0.0
 10
37.8807164641
 20
67.4985738774
 30
0.0
 10
37.6135503679
 20
67.5695301096
 30
0.0
 10
37.3582685584
 20
67.5883775761
 30
0.0
 10
37.1205506966
 20
67.5534724987
 30
0.0
 10
36.9765110017
 20
67.4936748991
 30
0.0
 10
36.9111808709
 20
67.4559448634
 30
0.0
  0
SPLINE
  5
34A
100
AcDbEntity
  8
0
100
AcDbSpline
 62
7
  6
BYLAYER
 70
0
 71
3
 72
19
 73
15
 74
0
 42
0.0000001
 43
0.0000001
 44
0.0000000001
 40
0.0
 40
0.0
 40
0.0
 40
0.0
 40
0.062391684
 40
0.1288324836
 40
0.2703533745
 40
0.4174431196
 40
0.5617172598
 40
0.6953244085
 40
0.7563177584
 40
0.812797985
 40
0.8647366222
 40
0.9125504304
 40
0.9571578829
 40
1.0
 40
1.0
 40
1.0
 40
1.0
 10
27.0285886053
 20
49.6680095032
 30
0.0
 10
27.0285886053
 20
49.7778777682
 30
0.0
 10
27.013619413
 20
50.0049010271
 30
0.0
 10
26.9302494448
 20
50.4743488101
 30
0.0
 10
26.7286072695
 20
51.0703210667
 30
0.0
 10
26.3641977178
 20
51.7437350111
 30
0.0
 10
25.9013960138
 20
52.3362654401
 30
0.0
 10
25.4511088837
 20
52.7350509447
 30
0.0
 10
25.0731200271
 20
52.9664311275
 30
0.0
 10
24.7992954757
 20
53.0874367269
 30
0.0
 10
24.5321293794
 20
53.1583929591
 30
0.0
 10
24.2768475699
 20
53.1772404256
 30
0.0
 10
24.0391297082
 20
53.1423353482
 30
0.0
 10
23.8950900132
 20
53.0825377486
 30
0.0
 10
23.8297598825
 20
53.0448077129
 30
0.0
  0
SPLINE
  5
34B
100
AcDbEntity
  8
0
100
AcDbSpline
 62
7
  6
BYLAYER
 70
0
 71
3
 72
19
 73
15
 74
0
 42
0.0000001
 43
0.0000001
 44
0.0000000001
 40
0.0
 40
0.0
 40
0.0
 40
0.0
 40
0.062391684
 40
0.1288324836
 40
0.2703533745
 40
0.4174431196
 40
0.5617172598
 40
0.6953244085
 40
0.7563177584
 40
0.812797985
 40
0.8647366222
 40
0.9125504304
 40
0.9571578829
 40
1.0
 40
1.0
 40
1.0
 40
1.0
 10
44.3525884575
 20
24.9685072295
 30
0.0
 10
44.3525884575
 20
25.0783754945
 30
0.0
 10
44.3376192652
 20
25.3053987534
 30
0.0
 10
44.2542492971
 20
25.7748465364
 30
0.0
 10
44.0526071217
 20
26.370818793
 30
0.0
 10
43.6881975701
 20
27.0442327375
 30
0.0
 10
43.2253958661
 20
27.6367631665
 30
0.0
 10
42.775108736
 20
28.035548671
 30
0.0
 10
42.3971198793
 20
28.2669288538
 30
0.0
 10
42.1232953279
 20
28.3879344532
 30
0.0
 10
41.8561292317
 20
28.4588906854
 30
0.0
 10
41.6008474222
 20
28.4777381519
 30
0.0
 10
41.3631295604
 20
28.4428330745
 30
0.0
 10
41.2190898655
 20
28.3830354749
 30
0.0
 10
41.1537597347
 20
28.3453054392
 30
0.0
  0
SPLINE
  5
34C
100
AcDbEntity
  8
0
100
AcDbSpline
 62
7
  6
BYLAYER
 70
0
 71
3
 72
19
 73
15
 74
0
 42
0.0000001
 43
0.0000001
 44
0.0000000001
 40
0.0
 40
0.0
 40
0.0
 40
0.0
 40
0.062391684
 40
0.1288324836
 40
0.2703533745
 40
0.4174431196
 40
0.5617172598
 40
0.6953244085
 40
0.7563177584
 40
0.812797985
 40
0.8647366222
 40
0.9125504304
 40
0.9571578829
 40
1.0
 40
1.0
 40
1.0
 40
1.0
 10
49.6559113961
 20
21.9067015706
 30
0.0
 10
49.6559113961
 20
22.0165698356
 30
0.0
 10
49.6409422038
 20
22.2435930945
 30
0.0
 10
49.5575722357
 20
22.7130408775
 30
0.0
 10
49.3559300603
 20
23.3090131341
 30
0.0
 10
48.9915205087
 20
23.9824270786
 30
0.0
 10
48.5287188047
 20
24.5749575076
 30
0.0
 10
48.0784316746
 20
24.9737430121
 30
0.0
 10
47.7004428179
 20
25.2051231949
 30
0.0
 10
47.4266182665
 20
25.3261287943
 30
0.0
 10
47.1594521703
 20
25.3970850265
 30
0.0
 10
46.9041703608
 20
25.415932493
 30
0.0
 10
46.666452499
 20
25.3810274156
 30
0.0
 10
46.5224128041
 20
25.321229816
 30
0.0
 10
46.4570826733
 20
25.2834997803
 30
0.0
  0
SPLINE
  5
34D
100
AcDbEntity
  8
0
100
AcDbSpline
 62
7
  6
BYLAYER
 70
0
 71
3
 72
10
 73
6
 74
0
 42
0.0000001
 43
0.0000001
 44
0.0000000001
 40
0.0
 40
0.0
 40
0.0
 40
0.0
 40
0.4623303262
 40
0.7214722774
 40
1.0
 40
1.0
 40
1.0
 40
1.0
 10
48.9455830964
 20
30.6043000618
 30
0.0
 10
49.0079989618
 20
30.6930971636
 30
0.0
 10
49.0759033347
 20
30.8531861295
 30
0.0
 10
49.1186331934
 20
31.0841742801
 30
0.0
 10
49.1255791023
 20
31.2106705291
 30
0.0
 10
49.1255791023
 20
31.2760589666
 30
0.0
  0
SPLINE
  5
34E
100
AcDbEntity
  8
0
100
AcDbSpline
 62
7
  6
BYLAYER
 70
0
 71
3
 72
10
 73
6
 74
0
 42
0.0000001
 43
0.0000001
 44
0.0000000001
 40
0.0
 40
0.0
 40
0.0
 40
0.0
 40
0.2293498688
 40
0.4754179578
 40
1.0
 40
1.0
 40
1.0
 40
1.0
 10
49.1255791023
 20
31.2760589666
 30
0.0
 10
49.1255791023
 20
31.3687747486
 30
0.0
 10
49.1107038832
 20
31.5611459706
 30
0.0
 10
49.029069998
 20
31.9577447388
 30
0.0
 10
48.9143836611
 20
32.2507457968
 30
0.0
 10
48.8187191774
 20
32.4400069559
 30
0.0
  0
SPLINE
  5
34F
100
AcDbEntity
  8
0
100
AcDbSpline
 62
7
  6
BYLAYER
 70
0
 71
3
 72
19
 73
15
 74
0
 42
0.0000001
 43
0.0000001
 44
0.0000000001
 40
0.0
 40
0.0
 40
0.0
 40
0.0
 40
0.062391684
 40
0.1288324836
 40
0.2703533745
 40
0.4174431196
 40
0.5617172598
 40
0.6953244085
 40
0.7563177584
 40
0.812797985
 40
0.8647366222
 40
0.9125504304
 40
0.9571578829
 40
1.0
 40
1.0
 40
1.0
 40
1.0
 10
44.1404261003
 20
83.7157654621
 30
0.0
 10
44.1404261003
 20
83.605897197
 30
0.0
 10
44.1553952926
 20
83.3788739382
 30
0.0
 10
44.2387652608
 20
82.9094261552
 30
0.0
 10
44.4404074362
 20
82.3134538985
 30
0.0
 10
44.8048169878
 20
81.6400399541
 30
0.0
 10
45.2676186918
 20
81.0475095251
 30
0.0
 10
45.7179058219
 20
80.6487240205
 30
0.0
 10
46.0958946786
 20
80.4173438378
 30
0.0
 10
46.36971923
 20
80.2963382384
 30
0.0
 10
46.6368853262
 20
80.2253820061
 30
0.0
 10
46.8921671357
 20
80.2065345396
 30
0.0
 10
47.1298849974
 20
80.241439617
 30
0.0
 10
47.2739246924
 20
80.3012372166
 30
0.0
 10
47.3392548232
 20
80.3389672523
 30
0.0
  0
SPLINE
  5
350
100
AcDbEntity
  8
0
100
AcDbSpline
 62
7
  6
BYLAYER
 70
0
 71
3
 72
11
 73
7
 74
0
 42
0.0000001
 43
0.0000001
 44
0.0000000001
 40
0.0
 40
0.0
 40
0.0
 40
0.0
 40
0.2555322852
 40
0.5127126186
 40
0.7633076577
 40
1.0
 40
1.0
 40
1.0
 40
1.0
 10
48.9532708972
 20
30.7248450849
 30
0.0
 10
48.8668880723
 20
30.8321133913
 30
0.0
 10
48.7077801344
 20
31.0591502514
 30
0.0
 10
48.5151883686
 20
31.4238761119
 30
0.0
 10
48.3740315839
 20
31.8006386943
 30
0.0
 10
48.3165515028
 20
32.0581214911
 30
0.0
 10
48.2992579678
 20
32.1845157169
 30
0.0
  0
SPLINE
  5
351
100
AcDbEntity
  8
0
100
AcDbSpline
 62
7
  6
BYLAYER
 70
0
 71
3
 72
19
 73
15
 74
0
 42
0.0000001
 43
0.0000001
 44
0.0000000001
 40
0.0
 40
0.0
 40
0.0
 40
0.0
 40
0.062391684
 40
0.1288324836
 40
0.2703533745
 40
0.4174431196
 40
0.5617172598
 40
0.6953244085
 40
0.7563177584
 40
0.812797985
 40
0.8647366222
 40
0.9125504304
 40
0.9571578829
 40
1.0
 40
1.0
 40
1.0
 40
1.0
 10
36.3623280505
 20
66.2428226526
 30
0.0
 10
36.3623280505
 20
66.1329543876
 30
0.0
 10
36.3772972428
 20
65.9059311287
 30
0.0
 10
36.4606672109
 20
65.4364833457
 30
0.0
 10
36.6623093863
 20
64.8405110891
 30
0.0
 10
37.026718938
 20
64.1670971447
 30
0.0
 10
37.489520642
 20
63.5745667157
 30
0.0
 10
37.9398077721
 20
63.1757812111
 30
0.0
 10
38.3177966287
 20
62.9444010284
 30
0.0
 10
38.5916211801
 20
62.8233954289
 30
0.0
 10
38.8587872763
 20
62.7524391967
 30
0.0
 10
39.1140690858
 20
62.7335917302
 30
0.0
 10
39.3517869476
 20
62.7684968076
 30
0.0
 10
39.4958266425
 20
62.8282944072
 30
0.0
 10
39.5611567733
 20
62.8660244429
 30
0.0
  0
SPLINE
  5
352
100
AcDbEntity
  8
0
100
AcDbSpline
 62
7
  6
BYLAYER
 70
0
 71
3
 72
11
 73
7
 74
0
 42
0.0000001
 43
0.0000001
 44
0.0000000001
 40
0.0
 40
0.0
 40
0.0
 40
0.0
 40
0.2177839466
 40
0.4509170841
 40
0.710307871
 40
1.0
 40
1.0
 40
1.0
 40
1.0
 10
23.8297598825
 20
53.0448077129
 30
0.0
 10
23.7423519398
 20
52.9943271038
 30
0.0
 10
23.578789385
 20
52.8568487165
 30
0.0
 10
23.4046729776
 20
52.572146167
 30
0.0
 10
23.3012636757
 20
52.221302718
 30
0.0
 10
23.280907062
 20
51.9659510798
 30
0.0
 10
23.280907062
 20
51.8316855021
 30
0.0
  0
SPLINE
  5
353
100
AcDbEntity
  8
0
100
AcDbSpline
 62
7
  6
BYLAYER
 70
0
 71
3
 72
19
 73
15
 74
0
 42
0.0000001
 43
0.0000001
 44
0.0000000001
 40
0.0
 40
0.0
 40
0.0
 40
0.0
 40
0.062391684
 40
0.1288324836
 40
0.2703533745
 40
0.4174431196
 40
0.5617172598
 40
0.6953244085
 40
0.7563177584
 40
0.812797985
 40
0.8647366222
 40
0.9125504304
 40
0.9571578829
 40
1.0
 40
1.0
 40
1.0
 40
1.0
 10
23.280907062
 20
51.8316855021
 30
0.0
 10
23.280907062
 20
51.7218172371
 30
0.0
 10
23.2958762543
 20
51.4947939782
 30
0.0
 10
23.3792462225
 20
51.0253461952
 30
0.0
 10
23.5808883979
 20
50.4293739386
 30
0.0
 10
23.9452979495
 20
49.7559599942
 30
0.0
 10
24.4080996535
 20
49.1634295652
 30
0.0
 10
24.8583867836
 20
48.7646440606
 30
0.0
 10
25.2363756402
 20
48.5332638778
 30
0.0
 10
25.5102001917
 20
48.4122582784
 30
0.0
 10
25.7773662879
 20
48.3413020462
 30
0.0
 10
26.0326480974
 20
48.3224545797
 30
0.0
 10
26.2703659591
 20
48.3573596571
 30
0.0
 10
26.4144056541
 20
48.4171572567
 30
0.0
 10
26.4797357849
 20
48.4548872924
 30
0.0
  0
SPLINE
  5
354
100
AcDbEntity
  8
0
100
AcDbSpline
 62
7
  6
BYLAYER
 70
0
 71
3
 72
9
 73
5
 74
0
 42
0.0000001
 43
0.0000001
 44
0.0000000001
 40
0.0
 40
0.0
 40
0.0
 40
0.0
 40
0.2291964708
 40
1.0
 40
1.0
 40
1.0
 40
1.0
 10
39.0496214034
 20
45.5442065826
 30
0.0
 10
39.0197033518
 20
45.4823234265
 30
0.0
 10
38.9087484433
 20
45.2028047231
 30
0.0
 10
38.8725225321
 20
44.8978127961
 30
0.0
 10
38.8725225321
 20
44.66664945
 30
0.0
  0
SPLINE
  5
355
100
AcDbEntity
  8
0
100
AcDbSpline
 62
7
  6
BYLAYER
 70
0
 71
3
 72
12
 73
8
 74
0
 42
0.0000001
 43
0.0000001
 44
0.0000000001
 40
0.0
 40
0.0
 40
0.0
 40
0.0
 40
0.1109986046
 40
0.229018037
 40
0.4803379224
 40
0.7420459811
 40
1.0
 40
1.0
 40
1.0
 40
1.0
 10
38.8725225321
 20
44.66664945
 30
0.0
 10
38.8725225321
 20
44.5455624277
 30
0.0
 10
38.8885533409
 20
44.2955601052
 30
0.0
 10
38.9781818572
 20
43.778527954
 30
0.0
 10
39.1954243633
 20
43.1208497666
 30
0.0
 10
39.5891825671
 20
42.3739833466
 30
0.0
 10
39.9333061788
 20
41.919324927
 30
0.0
 10
40.122833331
 20
41.7113230196
 30
0.0
  0
SPLINE
  5
356
100
AcDbEntity
  8
0
100
AcDbSpline
 62
7
  6
BYLAYER
 70
0
 71
3
 72
9
 73
5
 74
0
 42
0.0000001
 43
0.0000001
 44
0.0000000001
 40
0.0
 40
0.0
 40
0.0
 40
0.0
 40
0.4843638753
 40
1.0
 40
1.0
 40
1.0
 40
1.0
 10
40.2009637174
 20
46.4482489064
 30
0.0
 10
40.1068180353
 20
46.393883699
 30
0.0
 10
39.930238622
 20
46.2482478015
 30
0.0
 10
39.8070998613
 20
46.05664671
 30
0.0
 10
39.7567252406
 20
45.9524507365
 30
0.0
  0
SPLINE
  5
357
100
AcDbEntity
  8
0
100
AcDbSpline
 62
7
  6
BYLAYER
 70
0
 71
3
 72
11
 73
7
 74
0
 42
0.0000001
 43
0.0000001
 44
0.0000000001
 40
0.0
 40
0.0
 40
0.0
 40
0.0
 40
0.2177839466
 40
0.4509170841
 40
0.710307871
 40
1.0
 40
1.0
 40
1.0
 40
1.0
 10
44.6892789208
 20
84.9288876729
 30
0.0
 10
44.6018709782
 20
84.8784070637
 30
0.0
 10
44.4383084233
 20
84.7409286765
 30
0.0
 10
44.2641920159
 20
84.4562261269
 30
0.0
 10
44.160782714
 20
84.1053826779
 30
0.0
 10
44.1404261003
 20
83.8500310398
 30
0.0
 10
44.1404261003
 20
83.7157654621
 30
0.0
  0
SPLINE
  5
358
100
AcDbEntity
  8
0
100
AcDbSpline
 62
7
  6
BYLAYER
 70
0
 71
3
 72
11
 73
7
 74
0
 42
0.0000001
 43
0.0000001
 44
0.0000000001
 40
0.0
 40
0.0
 40
0.0
 40
0.0
 40
0.2177839466
 40
0.4509170841
 40
0.710307871
 40
1.0
 40
1.0
 40
1.0
 40
1.0
 10
46.4570826733
 20
25.2834997803
 30
0.0
 10
46.3696747307
 20
25.2330191712
 30
0.0
 10
46.2061121759
 20
25.095540784
 30
0.0
 10
46.0319957684
 20
24.8108382344
 30
0.0
 10
45.9285864665
 20
24.4599947854
 30
0.0
 10
45.9082298529
 20
24.2046431473
 30
0.0
 10
45.9082298529
 20
24.0703775695
 30
0.0
  0
SPLINE
  5
359
100
AcDbEntity
  8
0
100
AcDbSpline
 62
7
  6
BYLAYER
 70
0
 71
3
 72
11
 73
7
 74
0
 42
0.0000001
 43
0.0000001
 44
0.0000000001
 40
0.0
 40
0.0
 40
0.0
 40
0.0
 40
0.2177839466
 40
0.4509170841
 40
0.710307871
 40
1.0
 40
1.0
 40
1.0
 40
1.0
 10
41.1537597347
 20
28.3453054392
 30
0.0
 10
41.0663517921
 20
28.2948248301
 30
0.0
 10
40.9027892373
 20
28.1573464429
 30
0.0
 10
40.7286728298
 20
27.8726438933
 30
0.0
 10
40.6252635279
 20
27.5218004443
 30
0.0
 10
40.6049069143
 20
27.2664488062
 30
0.0
 10
40.6049069143
 20
27.1321832284
 30
0.0
  0
SPLINE
  5
35A
100
AcDbEntity
  8
0
100
AcDbSpline
 62
7
  6
BYLAYER
 70
0
 71
3
 72
19
 73
15
 74
0
 42
0.0000001
 43
0.0000001
 44
0.0000000001
 40
0.0
 40
0.0
 40
0.0
 40
0.0
 40
0.062391684
 40
0.1288324836
 40
0.2703533745
 40
0.4174431196
 40
0.5617172598
 40
0.6953244085
 40
0.7563177584
 40
0.812797985
 40
0.8647366222
 40
0.9125504304
 40
0.9571578829
 40
1.0
 40
1.0
 40
1.0
 40
1.0
 10
40.6049069143
 20
27.1321832284
 30
0.0
 10
40.6049069143
 20
27.0223149634
 30
0.0
 10
40.6198761066
 20
26.7952917045
 30
0.0
 10
40.7032460747
 20
26.3258439215
 30
0.0
 10
40.9048882501
 20
25.7298716649
 30
0.0
 10
41.2692978018
 20
25.0564577205
 30
0.0
 10
41.7320995057
 20
24.4639272915
 30
0.0
 10
42.1823866358
 20
24.0651417869
 30
0.0
 10
42.5603754925
 20
23.8337616042
 30
0.0
 10
42.8342000439
 20
23.7127560047
 30
0.0
 10
43.1013661401
 20
23.6417997725
 30
0.0
 10
43.3566479496
 20
23.622952306
 30
0.0
 10
43.5943658114
 20
23.6578573834
 30
0.0
 10
43.7384055063
 20
23.717654983
 30
0.0
 10
43.8037356371
 20
23.7553850187
 30
0.0
  0
SPLINE
  5
35B
100
AcDbEntity
  8
0
100
AcDbSpline
 62
7
  6
BYLAYER
 70
0
 71
3
 72
19
 73
15
 74
0
 42
0.0000001
 43
0.0000001
 44
0.0000000001
 40
0.0
 40
0.0
 40
0.0
 40
0.0
 40
0.062391684
 40
0.1288324836
 40
0.2703533745
 40
0.4174431196
 40
0.5617172598
 40
0.6953244085
 40
0.7563177584
 40
0.812797985
 40
0.8647366222
 40
0.9125504304
 40
0.9571578829
 40
1.0
 40
1.0
 40
1.0
 40
1.0
 10
45.9082298529
 20
24.0703775695
 30
0.0
 10
45.9082298529
 20
23.9605093045
 30
0.0
 10
45.9231990452
 20
23.7334860456
 30
0.0
 10
46.0065690133
 20
23.2640382626
 30
0.0
 10
46.2082111887
 20
22.668066006
 30
0.0
 10
46.5726207404
 20
21.9946520616
 30
0.0
 10
47.0354224443
 20
21.4021216326
 30
0.0
 10
47.4857095744
 20
21.003336128
 30
0.0
 10
47.8636984311
 20
20.7719559453
 30
0.0
 10
48.1375229825
 20
20.6509503458
 30
0.0
 10
48.4046890787
 20
20.5799941136
 30
0.0
 10
48.6599708882
 20
20.5611466471
 30
0.0
 10
48.89768875
 20
20.5960517245
 30
0.0
 10
49.0417284449
 20
20.6558493241
 30
0.0
 10
49.1070585757
 20
20.6935793598
 30
0.0
  0
SPLINE
  5
35C
100
AcDbEntity
  8
0
100
AcDbSpline
 62
7
  6
BYLAYER
 70
0
 71
3
 72
10
 73
6
 74
0
 42
0.0000001
 43
0.0000001
 44
0.0000000001
 40
0.0
 40
0.0
 40
0.0
 40
0.0
 40
0.4623303262
 40
0.7214722774
 40
1.0
 40
1.0
 40
1.0
 40
1.0
 10
44.9243206934
 20
31.088794032
 30
0.0
 10
44.861904828
 20
30.9999969302
 30
0.0
 10
44.7940004552
 20
30.8399079642
 30
0.0
 10
44.7512705965
 20
30.6089198137
 30
0.0
 10
44.7443246876
 20
30.4824235647
 30
0.0
 10
44.7443246876
 20
30.4170351272
 30
0.0
  0
SPLINE
  5
35D
100
AcDbEntity
  8
0
100
AcDbSpline
 62
7
  6
BYLAYER
 70
0
 71
3
 72
17
 73
13
 74
0
 42
0.0000001
 43
0.0000001
 44
0.0000000001
 40
0.0
 40
0.0
 40
0.0
 40
0.0
 40
0.128695261
 40
0.2702806982
 40
0.4174383696
 40
0.5617791113
 40
0.6954455151
 40
0.8127085557
 40
0.8646725106
 40
0.9125083966
 40
0.9571297708
 40
1.0
 40
1.0
 40
1.0
 40
1.0
 10
44.7443246876
 20
30.4170351272
 30
0.0
 10
44.7443246876
 20
30.2546242641
 30
0.0
 10
44.7897553876
 20
29.9131449493
 30
0.0
 10
44.9593497347
 20
29.4117619101
 30
0.0
 10
45.220652275
 20
28.9287758259
 30
0.0
 10
45.5526832329
 20
28.5037877334
 30
0.0
 10
45.9283007735
 20
28.1711371831
 30
0.0
 10
46.2682707147
 20
27.9852103638
 30
0.0
 10
46.5342309031
 20
27.9144858925
 30
0.0
 10
46.7172632788
 20
27.9009961224
 30
0.0
 10
46.8877087462
 20
27.9259721412
 30
0.0
 10
46.9909842615
 20
27.9688615344
 30
0.0
 10
47.037827573
 20
27.9959292872
 30
0.0
  0
SPLINE
  5
35E
100
AcDbEntity
  8
0
100
AcDbSpline
 62
7
  6
BYLAYER
 70
0
 71
3
 72
11
 73
7
 74
0
 42
0.0000001
 43
0.0000001
 44
0.0000000001
 40
0.0
 40
0.0
 40
0.0
 40
0.0
 40
0.2177839466
 40
0.4509170841
 40
0.710307871
 40
1.0
 40
1.0
 40
1.0
 40
1.0
 10
36.9111808709
 20
67.4559448634
 30
0.0
 10
36.8237729283
 20
67.4054642543
 30
0.0
 10
36.6602103735
 20
67.2679858671
 30
0.0
 10
36.4860939661
 20
66.9832833175
 30
0.0
 10
36.3826846641
 20
66.6324398685
 30
0.0
 10
36.3623280505
 20
66.3770882304
 30
0.0
 10
36.3623280505
 20
66.2428226526
 30
0.0
  0
ELLIPSE
  5
35F
100
AcDbEntity
  8
0
100
AcDbEllipse
 62
7
  6
BYLAYER
 10
39.8950553354
 20
42.807540592
 30
0.0
 11
2.5497412345
 21
3.8386140097
 31
0.0
 40
0.5307908634
 41
0.7668465885
 42
0.7886383852
  0
ENDSEC
  0
SECTION
  2
OBJECTS
  0
DICTIONARY
  5
C
100
AcDbDictionary
280
0
281
1
  3
ACAD_GROUP
350
D
  3
ACAD_MLINESTYLE
350
17
  3
ACAD_LAYOUT
350
1A
  3
ACAD_PLOTSETTINGS
350
19
  3
ACAD_PLOTSTYLENAME
350
E
  0
DICTIONARY
  5
D
102
{ACAD_REACTORS
330
C
102
}
100
AcDbDictionary
280
0
281
1
  0
ACDBDICTIONARYWDFLT
  5
E
102
{ACAD_REACTORS
330
C
102
}
100
AcDbDictionary
281
1
  3
Normal
350
F
100
AcDbDictionaryWithDefault
340
F
  0
DICTIONARY
  5
17
102
{ACAD_REACTORS
330
C
102
}
100
AcDbDictionary
280
0
281
1
  3
Standard
350
18
  0
DICTIONARY
  5
19
102
{ACAD_REACTORS
330
C
102
}
100
AcDbDictionary
281
1
  0
DICTIONARY
  5
1A
102
{ACAD_REACTORS
330
C
102
}
100
AcDbDictionary
281
1
  3
Model
350
360
  3
Layout1
350
361
  0
ACDBPLACEHOLDER
  5
F
102
{ACAD_REACTORS
330
E
102
}
  0
MLINESTYLE
  5
18
102
{ACAD_REACTORS
330
17
102
}
100
AcDbMlineStyle
  2
STANDARD
 70
0
  3

 62
256
 51
90.0
 52
90.0
 71
2
 49
0.5
 62
256
  6
BYLAYER
 49
-0.5
 62
256
  6
BYLAYER
  0
LAYOUT
  5
360
102
{ACAD_REACTORS
330
1A
102
}
100
AcDbPlotSettings
  1

  2
none_device
  4

  6

 40
0.0
 41
0.0
 42
0.0
 43
0.0
 44
210.0
 45
297.0
 46
0.0
 47
0.0
 48
0.0
 49
0.0
140
0.0
141
0.0
142
1.0
143
1.0
 70
1024
 72
1
 73
0
 74
0
  7

 75
0
147
1.0
148
0.0
149
0.0
100
AcDbLayout
  1
Model
 70
0
 71
0
 10
0.0
 20
0.0
 11
210.0
 21
297.0
 12
0.0
 22
0.0
 32
0.0
 14
0.0
 24
0.0
 34
0.0
 15
0.0
 25
0.0
 35
0.0
146
0.0
 13
0.0
 23
0.0
 33
0.0
 16
1.0
 26
0.0
 36
0.0
 17
0.0
 27
1.0
 37
0.0
 76
0
330
210
345
0
346
0
  0
LAYOUT
  5
361
102
{ACAD_REACTORS
330
1A
102
}
100
AcDbPlotSettings
  1

  2
none_device
  4

  6

 40
0.0
 41
0.0
 42
0.0
 43
0.0
 44
210.0
 45
297.0
 46
0.0
 47
0.0
 48
0.0
 49
0.0
140
0.0
141
0.0
142
1.0
143
1.0
 70
0
 72
1
 73
0
 74
0
  7

 75
0
147
1.0
148
0.0
149
0.0
100
AcDbLayout
  1
Layout1
 70
0
 71
1
 10
0.0
 20
0.0
 11
210.0
 21
297.0
 12
0.0
 22
0.0
 32
0.0
 14
0.0
 24
0.0
 34
0.0
 15
0.0
 25
0.0
 35
0.0
146
0.0
 13
0.0
 23
0.0
 33
0.0
 16
1.0
 26
0.0
 36
0.0
 17
0.0
 27
1.0
 37
0.0
 76
0
330
211
345
0
346
0
  0
ENDSEC
  0
EOF
