999
DXF file: C:\Users\sesa63760\Dev\_Creo\CAD\MCADUE0002363_3D-CAD\drw0001_1.dxf
999
Pro/ENGINEER 2019471 by Parametric Technology Corporation
  0
SECTION
  2
HEADER
  9
$ACADVER
  1
AC1024
  9
$DWGCODEPAGE
  3
ANSI_1252
  9
$EXTMAX
 10
506.7655936355
 20
716.7113395702
 30
0.0
  9
$EXTMIN
 10
0.0
 20
0.0
 30
0.0
  9
$LIMMIN
 10
0.0
 20
0.0
  9
$LIMMAX
 10
506.7655936355
 20
716.7113395702
  9
$VIEWCTR
 10
253.3827968177
 20
358.3556697851
  9
$VIEWSIZE
 40
716.7113395702
  9
$CLAYER
  8
0
  9
$LTSCALE
 40
46.7189613942
  9
$CELTYPE
  6
BYLAYER
  9
$DIMSCALE
 40
1.0
  9
$DIMASZ
 40
6.0329237338
  9
$DIMEXO
 40
1.0
  9
$DIMDLI
 40
32.2785551451
  9
$DIMEXE
 40
1.0
  9
$DIMCEN
 40
7.6449209554
  9
$DIMLFAC
 40
1.0
  9
$DIMBLK
  1
_FILLED
  9
$DIMALT
 70
0
  9
$DIMALTF
 40
0.0393700787
  9
$DIMTXT
 40
8.4460932273
  9
$DIMTOL
 70
1
  9
$DIMLIM
 70
0
  9
$DIMTFAC
 40
1.0
  9
$DIMTP
 40
0.01
  9
$DIMTM
 40
0.01
  9
$DIMGAP
 40
0.625
  9
$DIMDSEP
 70
46
  9
$AUNITS
 70
0
  9
$PDMODE
 70
3
  9
$PDSIZE
 40
0.3125
  9
$HANDSEED
  5
378
  9
$TILEMODE
 70
1
  9
$MEASUREMENT
 70
1
  9
$INSUNITS
 70
4
  0
ENDSEC
  0
SECTION
  2
CLASSES
  0
CLASS
  1
ACDBDICTIONARYWDFLT
  2
AcDbDictionaryWithDefault
  3
AutoCAD 2000
 90
0
 91
1
280
0
281
0
  0
CLASS
  1
ACDBPLACEHOLDER
  2
AcDbPlaceHolder
  3
AutoCAD 2000
 90
0
 91
1
280
0
281
0
  0
CLASS
  1
LAYOUT
  2
AcDbLayout
  3
AutoCAD 2000
 90
0
 91
0
280
0
281
0
  0
ENDSEC
  0
SECTION
  2
TABLES
  0
TABLE
  2
VPORT
  5
8
100
AcDbSymbolTable
 70
2
  0
VPORT
  5
1F4
100
AcDbSymbolTableRecord
100
AcDbViewportTableRecord
  2
*ACTIVE
 70
0
 10
0.0
 20
0.0
 11
1.0
 21
1.0
 12
253.3827968177
 22
358.3556697851
 13
0.0
 23
0.0
 14
1.0
 24
1.0
 15
0.0
 25
0.0
 16
0.0
 26
0.0
 36
1.0
 17
0.0
 27
0.0
 37
0.0
 40
716.7113395702
 41
0.7070707071
 42
50.0
 43
0.0
 44
0.0
 50
0.0
 51
0.0
 71
0
 72
100
 73
1
 74
1
 75
0
 76
0
 77
0
 78
0
  0
ENDTAB
  0
TABLE
  2
LTYPE
  5
5
100
AcDbSymbolTable
 70
6
  0
LTYPE
  5
14
100
AcDbSymbolTableRecord
100
AcDbLinetypeTableRecord
  2
BYBLOCK
 70
0
  3

 72
65
 73
0
 40
0.0
  0
LTYPE
  5
15
100
AcDbSymbolTableRecord
100
AcDbLinetypeTableRecord
  2
BYLAYER
 70
0
  3

 72
65
 73
0
 40
0.0
  0
LTYPE
  5
16
100
AcDbSymbolTableRecord
100
AcDbLinetypeTableRecord
  2
CONTINUOUS
 70
64
  3
Solid line
 72
65
 73
0
 40
0.0
  0
LTYPE
  5
1F5
100
AcDbSymbolTableRecord
100
AcDbLinetypeTableRecord
  2
CENTER
 70
64
  3
____ _ ____ _ ____ _ ____ _ ____ _ ____ _ ____
 72
65
 73
4
 40
0.6
 49
0.375
 74
0
 49
-0.075
 74
0
 49
0.075
 74
0
 49
-0.075
 74
0
  0
LTYPE
  5
1F6
100
AcDbSymbolTableRecord
100
AcDbLinetypeTableRecord
  2
HIDDEN
 70
64
  3
- - - - - - - - - - - - - - - - - - - -
 72
65
 73
2
 40
0.2
 49
0.1
 74
0
 49
-0.1
 74
0
  0
LTYPE
  5
1F7
100
AcDbSymbolTableRecord
100
AcDbLinetypeTableRecord
  2
PHANTOM
 70
64
  3
_____ _ _ _____ _ _ _____ _ _ _____
 72
65
 73
6
 40
0.8
 49
0.45
 74
0
 49
-0.05
 74
0
 49
0.1
 74
0
 49
-0.05
 74
0
 49
0.1
 74
0
 49
-0.05
 74
0
  0
LTYPE
  5
1F8
100
AcDbSymbolTableRecord
100
AcDbLinetypeTableRecord
  2
DOT
 70
64
  3
. . . . . . . . . . . . . . . . . . . .
 72
65
 73
2
 40
0.2
 49
0.1
 74
0
 49
-0.1
 74
0
  0
LTYPE
  5
1F9
100
AcDbSymbolTableRecord
100
AcDbLinetypeTableRecord
  2
DASHED
 70
64
  3
- - - - - - - - - - - - - - - - - - - -
 72
65
 73
2
 40
0.2
 49
0.1
 74
0
 49
-0.1
 74
0
  0
ENDTAB
  0
TABLE
  2
LAYER
  5
2
100
AcDbSymbolTable
 70
36
  0
LAYER
  5
10
100
AcDbSymbolTableRecord
100
AcDbLayerTableRecord
  2
0
 70
0
 62
7
  6
CONTINUOUS
370
-3
390
F
  0
LAYER
  5
1FA
100
AcDbSymbolTableRecord
100
AcDbLayerTableRecord
  2
DEFAULT_1
 70
0
 62
7
  6
CENTER
370
-3
390
F
  0
LAYER
  5
1FB
100
AcDbSymbolTableRecord
100
AcDbLayerTableRecord
  2
DEFAULT_2
 70
0
 62
8
  6
HIDDEN
370
-3
390
F
  0
LAYER
  5
1FC
100
AcDbSymbolTableRecord
100
AcDbLayerTableRecord
  2
DEFAULT_3
 70
0
 62
7
  6
PHANTOM
370
-3
390
F
  0
LAYER
  5
1FD
100
AcDbSymbolTableRecord
100
AcDbLayerTableRecord
  2
00_COMPONENTS
 70
0
 62
7
  6
CONTINUOUS
370
-3
390
F
  0
LAYER
  5
1FE
100
AcDbSymbolTableRecord
100
AcDbLayerTableRecord
  2
01_1_DEFAULT_DATUMS
 70
0
 62
7
  6
CONTINUOUS
370
-3
390
F
  0
LAYER
  5
1FF
100
AcDbSymbolTableRecord
100
AcDbLayerTableRecord
  2
01_PLANES
 70
0
 62
7
  6
CONTINUOUS
370
-3
390
F
  0
LAYER
  5
200
100
AcDbSymbolTableRecord
100
AcDbLayerTableRecord
  2
02_COORD_SYS
 70
0
 62
7
  6
CONTINUOUS
370
-3
390
F
  0
LAYER
  5
201
100
AcDbSymbolTableRecord
100
AcDbLayerTableRecord
  2
03_AXES
 70
0
 62
7
  6
CONTINUOUS
370
-3
390
F
  0
LAYER
  5
202
100
AcDbSymbolTableRecord
100
AcDbLayerTableRecord
  2
04_POINTS
 70
0
 62
7
  6
CONTINUOUS
370
-3
390
F
  0
LAYER
  5
203
100
AcDbSymbolTableRecord
100
AcDbLayerTableRecord
  2
05_CURVES
 70
0
 62
7
  6
CONTINUOUS
370
-3
390
F
  0
LAYER
  5
204
100
AcDbSymbolTableRecord
100
AcDbLayerTableRecord
  2
06_SURFS
 70
0
 62
7
  6
CONTINUOUS
370
-3
390
F
  0
LAYER
  5
205
100
AcDbSymbolTableRecord
100
AcDbLayerTableRecord
  2
07_COSMETICS
 70
0
 62
7
  6
CONTINUOUS
370
-3
390
F
  0
LAYER
  5
206
100
AcDbSymbolTableRecord
100
AcDbLayerTableRecord
  2
10_NOTES
 70
0
 62
7
  6
CONTINUOUS
370
-3
390
F
  0
LAYER
  5
207
100
AcDbSymbolTableRecord
100
AcDbLayerTableRecord
  2
11_NOTES_PUB
 70
0
 62
7
  6
CONTINUOUS
370
-3
390
F
  0
LAYER
  5
208
100
AcDbSymbolTableRecord
100
AcDbLayerTableRecord
  2
13_REF_GTOL
 70
0
 62
7
  6
CONTINUOUS
370
-3
390
F
  0
LAYER
  5
209
100
AcDbSymbolTableRecord
100
AcDbLayerTableRecord
  2
16_MISC
 70
0
 62
7
  6
CONTINUOUS
370
-3
390
F
  0
LAYER
  5
20A
100
AcDbSymbolTableRecord
100
AcDbLayerTableRecord
  2
17_NO_PRINT
 70
0
 62
7
  6
CONTINUOUS
370
-3
390
F
  0
LAYER
  5
20B
100
AcDbSymbolTableRecord
100
AcDbLayerTableRecord
  2
18_DATUM_CAMS_JOINTS
 70
0
 62
7
  6
CONTINUOUS
370
-3
390
F
  0
LAYER
  5
20C
100
AcDbSymbolTableRecord
100
AcDbLayerTableRecord
  2
19_DATUM_FUNCTIONAL
 70
0
 62
7
  6
CONTINUOUS
370
-3
390
F
  0
LAYER
  5
20D
100
AcDbSymbolTableRecord
100
AcDbLayerTableRecord
  2
20_DATUM_KINEMATIC_SCHEME
 70
0
 62
7
  6
CONTINUOUS
370
-3
390
F
  0
ENDTAB
  0
TABLE
  2
STYLE
  5
3
100
AcDbSymbolTable
 70
1
  0
STYLE
  5
11
100
AcDbSymbolTableRecord
100
AcDbTextStyleTableRecord
  2
STANDARD
 70
0
 40
0.0
 41
0.8
 50
0.0
 71
0
 42
0.2
  3
txt
  4

  0
STYLE
  5
20E
100
AcDbSymbolTableRecord
100
AcDbTextStyleTableRecord
  2
TEXTSTYLE_1
 70
0
 40
0.0
 41
0.8
 50
0.0
 71
0
 42
0.2
  3
gdt
  4

  0
ENDTAB
  0
TABLE
  2
VIEW
  5
6
100
AcDbSymbolTable
 70
0
  0
ENDTAB
  0
TABLE
  2
UCS
  5
7
100
AcDbSymbolTable
 70
0
  0
ENDTAB
  0
TABLE
  2
APPID
  5
9
100
AcDbSymbolTable
 70
1
  0
APPID
  5
20F
100
AcDbSymbolTableRecord
100
AcDbRegAppTableRecord
  2
ACAD
 70
0
  0
ENDTAB
  0
TABLE
  2
BLOCK_RECORD
  5
1
100
AcDbSymbolTable
 70
0
  0
BLOCK_RECORD
  5
210
100
AcDbSymbolTableRecord
100
AcDbBlockTableRecord
  2
*Model_Space
  0
BLOCK_RECORD
  5
211
100
AcDbSymbolTableRecord
100
AcDbBlockTableRecord
  2
*Paper_Space
  0
BLOCK_RECORD
  5
212
100
AcDbSymbolTableRecord
100
AcDbBlockTableRecord
  2
_FILLED
  0
ENDTAB
  0
TABLE
  2
DIMSTYLE
  5
A
100
AcDbSymbolTable
 70
1
100
AcDbDimStyleTable
 71
0
  0
DIMSTYLE
105
213
100
AcDbSymbolTableRecord
100
AcDbDimStyleTableRecord
  2
STANDARD
 70
0
  3

  4

 40
1.0
 41
6.0329237338
 42
1.0
 43
0.38
 44
1.0
 45
0.0
 46
0.0
 47
0.01
 48
0.01
140
8.4460932273
141
0.09
142
0.0
143
25.4
144
1.0
145
0.0
146
1.0
147
0.625
 71
1
 72
0
 73
0
 74
0
 75
0
 76
0
 77
1
 78
8
 79
2
170
0
171
1
172
0
173
0
174
0
175
0
176
0
177
0
178
0
270
2
179
2
271
2
272
2
273
2
274
2
275
0
280
0
281
0
282
0
283
1
284
8
285
0
286
0
287
3
288
0
340
11
278
46
341
212
342
212
343
212
344
212
  0
ENDTAB
  0
ENDSEC
  0
SECTION
  2
BLOCKS
  0
BLOCK
  5
20
100
AcDbEntity
  8
0
100
AcDbBlockBegin
  2
*Model_Space
 70
0
 10
0.0
 20
0.0
 30
0.0
  3
*Model_Space
  1

  0
ENDBLK
  5
21
100
AcDbEntity
  8
0
100
AcDbBlockEnd
  0
BLOCK
  5
1C
100
AcDbEntity
  8
0
100
AcDbBlockBegin
  2
*Paper_Space
 70
0
 10
0.0
 20
0.0
 30
0.0
  3
*Paper_Space
  1

  0
ENDBLK
  5
1D
100
AcDbEntity
  8
0
100
AcDbBlockEnd
  0
BLOCK
  5
214
100
AcDbEntity
  8
0
100
AcDbBlockBegin
  2
_FILLED
 70
64
 10
0.0
 20
0.0
  3
_FILLED
  1

  0
SOLID
  5
215
100
AcDbEntity
  8
0
  6
BYBLOCK
 62
0
100
AcDbTrace
 10
0.0
 20
0.0
 11
-1.0
 21
0.25
 12
-1.0
 22
-0.25
 13
-1.0
 23
-0.25
  0
ENDBLK
  5
216
100
AcDbEntity
  8
0
  6
BYBLOCK
 62
0
100
AcDbBlockEnd
  0
ENDSEC
  0
SECTION
  2
ENTITIES
  0
LINE
  5
217
100
AcDbEntity
  8
0
100
AcDbLine
 62
7
  6
CONTINUOUS
 10
58.5932742681
 20
421.8237687379
 11
58.5932742681
 21
416.9247542351
  0
LINE
  5
218
100
AcDbEntity
  8
0
100
AcDbLine
 62
7
  6
CONTINUOUS
 10
73.823874733
 20
395.6960582338
 11
73.823874733
 21
400.5950727366
  0
LINE
  5
219
100
AcDbEntity
  8
0
100
AcDbLine
 62
7
  6
CONTINUOUS
 10
74.2377924876
 20
443.9678598562
 11
115.9569188832
 21
468.0542649346
  0
LINE
  5
21A
100
AcDbEntity
  8
0
100
AcDbLine
 62
7
  6
CONTINUOUS
 10
75.2378100969
 20
443.8688240496
 11
116.9568923207
 21
467.9552036255
  0
LINE
  5
21B
100
AcDbEntity
  8
0
100
AcDbLine
 62
7
  6
CONTINUOUS
 10
325.5549368853
 20
250.3623496246
 11
73.823874733
 21
395.6960582338
  0
LINE
  5
21C
100
AcDbEntity
  8
0
100
AcDbLine
 62
7
  6
CONTINUOUS
 10
440.3986505133
 20
322.7207261119
 11
439.3986546767
 21
322.6216777349
  0
LINE
  5
21D
100
AcDbEntity
  8
0
100
AcDbLine
 62
7
  6
CONTINUOUS
 10
73.823874733
 20
400.5950727366
 11
325.5549368853
 21
255.2613641274
  0
LINE
  5
21E
100
AcDbEntity
  8
0
100
AcDbLine
 62
7
  6
CONTINUOUS
 10
326.9691224733
 20
257.7108700207
 11
75.2381044932
 21
403.0445531276
  0
LINE
  5
21F
100
AcDbEntity
  8
0
100
AcDbLine
 62
7
  6
CONTINUOUS
 10
187.6676146108
 20
467.9553735929
 11
439.3986325909
 21
322.6216904859
  0
LINE
  5
220
100
AcDbEntity
  8
0
100
AcDbLine
 62
7
  6
CONTINUOUS
 10
188.6675755574
 20
468.0544421133
 11
440.3986377097
 21
322.7207335041
  0
LINE
  5
221
100
AcDbEntity
  8
0
100
AcDbLine
 62
7
  6
CONTINUOUS
 10
325.5549368853
 20
255.2613641274
 11
325.5549368853
 21
250.3623496246
  0
LINE
  5
222
100
AcDbEntity
  8
0
100
AcDbLine
 62
7
  6
CONTINUOUS
 10
75.2377880107
 20
443.8688112982
 11
74.2377924876
 21
443.9678598562
  0
LINE
  5
223
100
AcDbEntity
  8
0
100
AcDbLine
 62
7
  6
CONTINUOUS
 10
115.956910243
 20
468.0542599461
 11
116.9569144063
 21
467.9552163766
  0
LINE
  5
224
100
AcDbEntity
  8
0
100
AcDbLine
 62
7
  6
CONTINUOUS
 10
187.6675925244
 20
467.9553863442
 11
188.6675755574
 21
468.0544421133
  0
LINE
  5
225
100
AcDbEntity
  8
0
100
AcDbLine
 62
7
  6
CONTINUOUS
 10
399.094042128
 20
250.3625263909
 11
399.094042128
 21
255.2615408936
  0
LINE
  5
226
100
AcDbEntity
  8
0
100
AcDbLine
 62
7
  6
CONTINUOUS
 10
439.3989269872
 20
281.797419564
 11
397.6798447634
 21
257.711039988
  0
LINE
  5
227
100
AcDbEntity
  8
0
100
AcDbLine
 62
7
  6
CONTINUOUS
 10
399.094042128
 20
255.2615408936
 11
440.8131685237
 21
279.3479459721
  0
LINE
  5
228
100
AcDbEntity
  8
0
100
AcDbLine
 62
7
  6
CONTINUOUS
 10
440.8131685237
 20
274.4489314693
 11
399.094042128
 21
250.3625263909
  0
LINE
  5
229
100
AcDbEntity
  8
0
100
AcDbLine
 62
7
  6
CONTINUOUS
 10
440.8131685237
 20
279.3479459721
 11
440.8131685237
 21
274.4489314693
  0
LINE
  5
22A
100
AcDbEntity
  8
0
100
AcDbLine
 62
7
  6
CONTINUOUS
 10
456.043462816
 20
300.5764652071
 11
456.043462816
 21
295.6774507043
  0
ARC
  5
22B
100
AcDbEntity
  8
0
100
AcDbCircle
 62
7
  6
CONTINUOUS
 10
350.5315323847
 20
293.6340621838
 40
49.9627003929
100
AcDbArc
 50
240.0062958615
 51
241.4461437357
  0
ARC
  5
22C
100
AcDbEntity
  8
0
100
AcDbCircle
 62
7
  6
CONTINUOUS
 10
374.1174310475
 20
293.6335455445
 40
49.9621076383
100
AcDbArc
 50
298.5542447912
 51
299.9941171315
  0
ARC
  5
22D
100
AcDbEntity
  8
0
100
AcDbCircle
 62
7
  6
CONTINUOUS
 10
416.2489800426
 20
282.5211257362
 40
46.3029341009
100
AcDbArc
 50
59.0558299108
 51
60.0025925987
  0
ARC
  5
22E
100
AcDbEntity
  8
0
100
AcDbCircle
 62
7
  6
CONTINUOUS
 10
98.3874602469
 20
403.7689311038
 40
46.3023510886
100
AcDbArc
 50
119.9978204526
 51
120.9446086366
  0
ARC
  5
22F
100
AcDbEntity
  8
0
100
AcDbCircle
 62
7
  6
CONTINUOUS
 10
109.2938582061
 20
414.262428863
 40
21.4548512565
100
AcDbArc
 50
119.9816361753
 51
124.0280691498
  0
ARC
  5
230
100
AcDbEntity
  8
0
100
AcDbCircle
 62
7
  6
CONTINUOUS
 10
356.0751522824
 20
271.7864055355
 40
21.4548512564
100
AcDbArc
 50
119.9816361753
 51
124.0280691498
  0
ARC
  5
231
100
AcDbEntity
  8
0
100
AcDbCircle
 62
7
  6
CONTINUOUS
 10
77.3195963152
 20
422.08914819
 40
18.7542891085
100
AcDbArc
 50
194.5907774288
 51
197.3012632937
  0
ARC
  5
232
100
AcDbEntity
  8
0
100
AcDbCircle
 62
7
  6
CONTINUOUS
 10
437.317145262
 20
300.8418431244
 40
18.7542843627
100
AcDbArc
 50
342.6987958908
 51
345.4092293926
  0
ARC
  5
233
100
AcDbEntity
  8
0
100
AcDbCircle
 62
7
  6
CONTINUOUS
 10
110.6314867642
 20
415.6211372097
 40
17.0579250818
100
AcDbArc
 50
119.9790088291
 51
123.038505247
  0
ARC
  5
234
100
AcDbEntity
  8
0
100
AcDbCircle
 62
7
  6
CONTINUOUS
 10
357.4127808405
 20
273.145113882
 40
17.0579250819
100
AcDbArc
 50
119.9790088291
 51
123.038505247
  0
ARC
  5
235
100
AcDbEntity
  8
0
100
AcDbCircle
 62
7
  6
CONTINUOUS
 10
357.2024835826
 20
273.8964062129
 40
16.6557015066
100
AcDbArc
 50
119.9420302011
 51
124.1219016508
  0
ARC
  5
236
100
AcDbEntity
  8
0
100
AcDbCircle
 62
7
  6
CONTINUOUS
 10
110.4211895063
 20
416.3724295405
 40
16.6557015067
100
AcDbArc
 50
119.9420302011
 51
124.1219016508
  0
ARC
  5
237
100
AcDbEntity
  8
0
100
AcDbCircle
 62
7
  6
CONTINUOUS
 10
261.4281557922
 20
382.6396641274
 40
8.2362052649
100
AcDbArc
 50
119.9348339805
 51
125.4089150709
  0
ARC
  5
238
100
AcDbEntity
  8
0
100
AcDbCircle
 62
7
  6
CONTINUOUS
 10
296.0765323244
 20
362.635867156
 40
8.2362052649
100
AcDbArc
 50
119.9348339804
 51
125.4089150709
  0
ARC
  5
239
100
AcDbEntity
  8
0
100
AcDbCircle
 62
7
  6
CONTINUOUS
 10
226.77977926
 20
402.6434610989
 40
8.2362052649
100
AcDbArc
 50
119.9348339804
 51
125.4089150709
  0
ARC
  5
23A
100
AcDbEntity
  8
0
100
AcDbCircle
 62
7
  6
CONTINUOUS
 10
330.7249088566
 20
342.6320701845
 40
8.2362052649
100
AcDbArc
 50
119.9348339804
 51
125.4089150709
  0
ARC
  5
23B
100
AcDbEntity
  8
0
100
AcDbCircle
 62
7
  6
CONTINUOUS
 10
235.6978626795
 20
405.9021333365
 40
3.189398726
100
AcDbArc
 50
6.4950767558
 51
7.0852801903
  0
ARC
  5
23C
100
AcDbEntity
  8
0
100
AcDbCircle
 62
7
  6
CONTINUOUS
 10
304.9946157453
 20
365.8945393937
 40
3.1893987246
100
AcDbArc
 50
6.4950767556
 51
7.0852801904
  0
ARC
  5
23D
100
AcDbEntity
  8
0
100
AcDbCircle
 62
7
  6
CONTINUOUS
 10
339.6429922815
 20
345.8907424227
 40
3.1893987205
100
AcDbArc
 50
6.4950767557
 51
7.0852801913
  0
ARC
  5
23E
100
AcDbEntity
  8
0
100
AcDbCircle
 62
7
  6
CONTINUOUS
 10
270.3462392205
 20
385.8983363661
 40
3.1893987172
100
AcDbArc
 50
6.4950767552
 51
7.0852801914
  0
SPLINE
  5
23F
100
AcDbEntity
  8
0
100
AcDbSpline
 62
7
  6
CONTINUOUS
 70
0
 71
3
 72
11
 73
7
 74
0
 42
0.0000001
 43
0.0000001
 44
0.0000000001
 40
0.0
 40
0.0
 40
0.0
 40
0.0
 40
0.2177827477
 40
0.4509152641
 40
0.7103063952
 40
1.0
 40
1.0
 40
1.0
 40
1.0
 10
329.336910512
 20
321.1925394704
 30
0.0
 10
329.3368558681
 20
320.7926138047
 30
0.0
 10
329.1891508536
 20
319.9590325673
 30
0.0
 10
328.5571802393
 20
318.7975807265
 30
0.0
 10
327.5581840201
 20
317.747715027
 30
0.0
 10
326.7223191597
 20
317.1719998762
 30
0.0
 10
326.2616109034
 20
316.9060114281
 30
0.0
  0
SPLINE
  5
240
100
AcDbEntity
  8
0
100
AcDbSpline
 62
7
  6
CONTINUOUS
 70
0
 71
3
 72
11
 73
7
 74
0
 42
0.0000001
 43
0.0000001
 44
0.0000000001
 40
0.0
 40
0.0
 40
0.0
 40
0.0
 40
0.2177687453
 40
0.4509037898
 40
0.7103742564
 40
1.0
 40
1.0
 40
1.0
 40
1.0
 10
342.8322908091
 20
346.2994772599
 30
0.0
 10
342.8321319192
 20
345.9376654319
 30
0.0
 10
342.6989624592
 20
345.1834454575
 30
0.0
 10
342.1268687328
 20
344.1325512487
 30
0.0
 10
341.2229086316
 20
343.1828228712
 30
0.0
 10
340.4667370859
 20
342.6617874608
 30
0.0
 10
340.0500061945
 20
342.4211892047
 30
0.0
  0
SPLINE
  5
241
100
AcDbEntity
  8
0
100
AcDbSpline
 62
7
  6
CONTINUOUS
 70
0
 71
3
 72
11
 73
7
 74
0
 42
0.0000001
 43
0.0000001
 44
0.0000000001
 40
0.0
 40
0.0
 40
0.0
 40
0.0
 40
0.217779011
 40
0.4509222696
 40
0.7102587576
 40
1.0
 40
1.0
 40
1.0
 40
1.0
 10
347.8323782925
 20
346.7077276114
 30
0.0
 10
347.8324747526
 20
346.1554577676
 30
0.0
 10
347.6282371964
 20
345.00430045
 30
0.0
 10
346.7556883352
 20
343.4005076147
 30
0.0
 10
345.3762474516
 20
341.9505174285
 30
0.0
 10
344.2218767826
 20
341.1556151039
 30
0.0
 10
343.5855548203
 20
340.7882366406
 30
0.0
  0
SPLINE
  5
242
100
AcDbEntity
  8
0
100
AcDbSpline
 62
7
  6
CONTINUOUS
 70
0
 71
3
 72
11
 73
7
 74
0
 42
0.0000001
 43
0.0000001
 44
0.0000000001
 40
0.0
 40
0.0
 40
0.0
 40
0.0
 40
0.2177687453
 40
0.4509037898
 40
0.7103742564
 40
1.0
 40
1.0
 40
1.0
 40
1.0
 10
238.8871612125
 20
406.3108681743
 30
0.0
 10
238.8870023226
 20
405.9490563464
 30
0.0
 10
238.7538328626
 20
405.194836372
 30
0.0
 10
238.1817391361
 20
404.1439421632
 30
0.0
 10
237.277779035
 20
403.1942137857
 30
0.0
 10
236.5216074893
 20
402.6731783753
 30
0.0
 10
236.1048765979
 20
402.4325801191
 30
0.0
  0
SPLINE
  5
243
100
AcDbEntity
  8
0
100
AcDbSpline
 62
7
  6
CONTINUOUS
 70
0
 71
3
 72
11
 73
7
 74
0
 42
0.0000001
 43
0.0000001
 44
0.0000000001
 40
0.0
 40
0.0
 40
0.0
 40
0.0
 40
0.217779011
 40
0.4509222696
 40
0.7102587576
 40
1.0
 40
1.0
 40
1.0
 40
1.0
 10
243.8872486959
 20
406.7191185259
 30
0.0
 10
243.887345156
 20
406.1668486821
 30
0.0
 10
243.6831075998
 20
405.0156913645
 30
0.0
 10
242.8105587386
 20
403.4118985292
 30
0.0
 10
241.431117855
 20
401.9619083429
 30
0.0
 10
240.276747186
 20
401.1670060184
 30
0.0
 10
239.6404252236
 20
400.7996275551
 30
0.0
  0
SPLINE
  5
244
100
AcDbEntity
  8
0
100
AcDbSpline
 62
7
  6
CONTINUOUS
 70
0
 71
3
 72
11
 73
7
 74
0
 42
0.0000001
 43
0.0000001
 44
0.0000000001
 40
0.0
 40
0.0
 40
0.0
 40
0.0
 40
0.2177827477
 40
0.4509152641
 40
0.7103063952
 40
1.0
 40
1.0
 40
1.0
 40
1.0
 10
262.5150414856
 20
359.7712907726
 30
0.0
 10
262.5149868417
 20
359.3713651069
 30
0.0
 10
262.3672818273
 20
358.5377838695
 30
0.0
 10
261.7353112129
 20
357.3763320286
 30
0.0
 10
260.7363149937
 20
356.3264663292
 30
0.0
 10
259.9004501333
 20
355.7507511783
 30
0.0
 10
259.439741877
 20
355.4847627303
 30
0.0
  0
SPLINE
  5
245
100
AcDbEntity
  8
0
100
AcDbSpline
 62
7
  6
CONTINUOUS
 70
0
 71
3
 72
11
 73
7
 74
0
 42
0.0000001
 43
0.0000001
 44
0.0000000001
 40
0.0
 40
0.0
 40
0.0
 40
0.0
 40
0.2177827477
 40
0.4509152641
 40
0.7103063952
 40
1.0
 40
1.0
 40
1.0
 40
1.0
 10
195.6931724592
 20
398.3500420748
 30
0.0
 10
195.6931178153
 20
397.9501164091
 30
0.0
 10
195.5454128009
 20
397.1165351716
 30
0.0
 10
194.9134421865
 20
395.9550833308
 30
0.0
 10
193.9144459673
 20
394.9052176314
 30
0.0
 10
193.0785811069
 20
394.3295024805
 30
0.0
 10
192.6178728506
 20
394.0635140324
 30
0.0
  0
SPLINE
  5
246
100
AcDbEntity
  8
0
100
AcDbSpline
 62
7
  6
CONTINUOUS
 70
0
 71
3
 72
11
 73
7
 74
0
 42
0.0000001
 43
0.0000001
 44
0.0000000001
 40
0.0
 40
0.0
 40
0.0
 40
0.0
 40
0.2177827477
 40
0.4509152641
 40
0.7103063952
 40
1.0
 40
1.0
 40
1.0
 40
1.0
 10
328.569331791
 20
294.4526544828
 30
0.0
 10
328.569271943
 20
294.0146406585
 30
0.0
 10
328.4074997842
 20
293.1016707318
 30
0.0
 10
327.7153414923
 20
291.8296044299
 30
0.0
 10
326.6212027761
 20
290.679751521
 30
0.0
 10
325.7057317385
 20
290.0492063558
 30
0.0
 10
325.2011465054
 20
289.7578856746
 30
0.0
  0
SPLINE
  5
247
100
AcDbEntity
  8
0
100
AcDbSpline
 62
7
  6
CONTINUOUS
 70
0
 71
3
 72
11
 73
7
 74
0
 42
0.0000001
 43
0.0000001
 44
0.0000000001
 40
0.0
 40
0.0
 40
0.0
 40
0.0
 40
0.2177827477
 40
0.4509152641
 40
0.7103063952
 40
1.0
 40
1.0
 40
1.0
 40
1.0
 10
150.3776810539
 20
397.3293246219
 30
0.0
 10
150.3776212059
 20
396.8913107976
 30
0.0
 10
150.2158490472
 20
395.9783408709
 30
0.0
 10
149.5236907553
 20
394.706274569
 30
0.0
 10
148.429552039
 20
393.5564216601
 30
0.0
 10
147.5140810014
 20
392.9258764949
 30
0.0
 10
147.0094957683
 20
392.6345558137
 30
0.0
  0
SPLINE
  5
248
100
AcDbEntity
  8
0
100
AcDbSpline
 62
7
  6
CONTINUOUS
 70
0
 71
3
 72
11
 73
7
 74
0
 42
0.0000001
 43
0.0000001
 44
0.0000000001
 40
0.0
 40
0.0
 40
0.0
 40
0.0
 40
0.2177648073
 40
0.4508950352
 40
0.7103684932
 40
1.0
 40
1.0
 40
1.0
 40
1.0
 10
350.4107201864
 20
308.3329562108
 30
0.0
 10
350.4105794965
 20
307.9787672115
 30
0.0
 10
350.2802443371
 20
307.2404329519
 30
0.0
 10
349.7202232377
 20
306.2116513341
 30
0.0
 10
348.8352670479
 20
305.2819273252
 30
0.0
 10
348.0950020642
 20
304.7718547223
 30
0.0
 10
347.6870355753
 20
304.5363165661
 30
0.0
  0
SPLINE
  5
249
100
AcDbEntity
  8
0
100
AcDbSpline
 62
7
  6
CONTINUOUS
 70
0
 71
3
 72
11
 73
7
 74
0
 42
0.0000001
 43
0.0000001
 44
0.0000000001
 40
0.0
 40
0.0
 40
0.0
 40
0.0
 40
0.2177827477
 40
0.4509152641
 40
0.7103063952
 40
1.0
 40
1.0
 40
1.0
 40
1.0
 10
307.0629541698
 20
334.0521232378
 30
0.0
 10
307.062899526
 20
333.6521975721
 30
0.0
 10
306.9151945115
 20
332.8186163347
 30
0.0
 10
306.2832238972
 20
331.6571644939
 30
0.0
 10
305.2842276779
 20
330.6072987944
 30
0.0
 10
304.4483628175
 20
330.0315836435
 30
0.0
 10
303.9876545612
 20
329.7655951955
 30
0.0
  0
SPLINE
  5
24A
100
AcDbEntity
  8
0
100
AcDbSpline
 62
7
  6
CONTINUOUS
 70
0
 71
3
 72
11
 73
7
 74
0
 42
0.0000001
 43
0.0000001
 44
0.0000000001
 40
0.0
 40
0.0
 40
0.0
 40
0.0
 40
0.2177827477
 40
0.4509152641
 40
0.7103063952
 40
1.0
 40
1.0
 40
1.0
 40
1.0
 10
284.7889978277
 20
346.9117070052
 30
0.0
 10
284.7889431839
 20
346.5117813395
 30
0.0
 10
284.6412381694
 20
345.6782001021
 30
0.0
 10
284.009267555
 20
344.5167482612
 30
0.0
 10
283.0102713358
 20
343.4668825618
 30
0.0
 10
282.1744064754
 20
342.8911674109
 30
0.0
 10
281.7136982191
 20
342.6251789629
 30
0.0
  0
SPLINE
  5
24B
100
AcDbEntity
  8
0
100
AcDbSpline
 62
7
  6
CONTINUOUS
 70
0
 71
3
 72
11
 73
7
 74
0
 42
0.0000001
 43
0.0000001
 44
0.0000000001
 40
0.0
 40
0.0
 40
0.0
 40
0.0
 40
0.2177648073
 40
0.4508950352
 40
0.7103684932
 40
1.0
 40
1.0
 40
1.0
 40
1.0
 10
172.2190694494
 20
411.2096263499
 30
0.0
 10
172.2189287595
 20
410.8554373506
 30
0.0
 10
172.0885936
 20
410.117103091
 30
0.0
 10
171.5285725007
 20
409.0883214732
 30
0.0
 10
170.6436163109
 20
408.1585974643
 30
0.0
 10
169.9033513272
 20
407.6485248615
 30
0.0
 10
169.4953848383
 20
407.4129867053
 30
0.0
  0
SPLINE
  5
24C
100
AcDbEntity
  8
0
100
AcDbSpline
 62
7
  6
CONTINUOUS
 70
0
 71
3
 72
11
 73
7
 74
0
 42
0.0000001
 43
0.0000001
 44
0.0000000001
 40
0.0
 40
0.0
 40
0.0
 40
0.0
 40
0.2177827477
 40
0.4509152641
 40
0.7103063952
 40
1.0
 40
1.0
 40
1.0
 40
1.0
 10
217.9671288013
 20
385.4904583074
 30
0.0
 10
217.9670741575
 20
385.0905326417
 30
0.0
 10
217.819369143
 20
384.2569514042
 30
0.0
 10
217.1873985286
 20
383.0954995634
 30
0.0
 10
216.1884023094
 20
382.045633864
 30
0.0
 10
215.352537449
 20
381.4699187131
 30
0.0
 10
214.8918291927
 20
381.2039302651
 30
0.0
  0
SPLINE
  5
24D
100
AcDbEntity
  8
0
100
AcDbSpline
 62
7
  6
CONTINUOUS
 70
0
 71
3
 72
11
 73
7
 74
0
 42
0.0000001
 43
0.0000001
 44
0.0000000001
 40
0.0
 40
0.0
 40
0.0
 40
0.0
 40
0.2177827477
 40
0.4509152641
 40
0.7103063952
 40
1.0
 40
1.0
 40
1.0
 40
1.0
 10
240.2410851435
 20
372.63087454
 30
0.0
 10
240.2410304996
 20
372.2309488743
 30
0.0
 10
240.0933254851
 20
371.3973676369
 30
0.0
 10
239.4613548708
 20
370.235915796
 30
0.0
 10
238.4623586516
 20
369.1860500966
 30
0.0
 10
237.6264937912
 20
368.6103349457
 30
0.0
 10
237.1657855349
 20
368.3443464977
 30
0.0
  0
SPLINE
  5
24E
100
AcDbEntity
  8
0
100
AcDbSpline
 62
7
  6
CONTINUOUS
 70
0
 71
3
 72
11
 73
7
 74
0
 42
0.0000001
 43
0.0000001
 44
0.0000000001
 40
0.0
 40
0.0
 40
0.0
 40
0.0
 40
0.2177827477
 40
0.4509152641
 40
0.7103063952
 40
1.0
 40
1.0
 40
1.0
 40
1.0
 10
416.2504931703
 20
305.0671602973
 30
0.0
 10
416.2504333222
 20
304.629146473
 30
0.0
 10
416.0886611635
 20
303.7161765463
 30
0.0
 10
415.3965028716
 20
302.4441102444
 30
0.0
 10
414.3023641553
 20
301.2942573355
 30
0.0
 10
413.3868931177
 20
300.6637121703
 30
0.0
 10
412.8823078847
 20
300.3723914891
 30
0.0
  0
SPLINE
  5
24F
100
AcDbEntity
  8
0
100
AcDbSpline
 62
7
  6
CONTINUOUS
 70
0
 71
3
 72
11
 73
7
 74
0
 42
0.0000001
 43
0.0000001
 44
0.0000000001
 40
0.0
 40
0.0
 40
0.0
 40
0.0
 40
0.2177713702
 40
0.4509290507
 40
0.7102263481
 40
1.0
 40
1.0
 40
1.0
 40
1.0
 10
423.2504103452
 20
305.4754113812
 30
0.0
 10
423.2504284548
 20
304.7708127414
 30
0.0
 10
422.9901994225
 20
303.3020225191
 30
0.0
 10
421.8767185301
 20
301.2559788607
 30
0.0
 10
420.1169412565
 20
299.405806926
 30
0.0
 10
418.6440295216
 20
298.3917362247
 30
0.0
 10
417.8320759607
 20
297.922957416
 30
0.0
  0
SPLINE
  5
250
100
AcDbEntity
  8
0
100
AcDbSpline
 62
7
  6
CONTINUOUS
 70
0
 71
3
 72
11
 73
7
 74
0
 42
0.0000001
 43
0.0000001
 44
0.0000000001
 40
0.0
 40
0.0
 40
0.0
 40
0.0
 40
0.2177827477
 40
0.4509152641
 40
0.7103063952
 40
1.0
 40
1.0
 40
1.0
 40
1.0
 10
169.469199094
 20
447.5431836249
 30
0.0
 10
169.4691392459
 20
447.1051698006
 30
0.0
 10
169.3073670872
 20
446.1921998739
 30
0.0
 10
168.6152087953
 20
444.920133572
 30
0.0
 10
167.521070079
 20
443.7702806631
 30
0.0
 10
166.6055990414
 20
443.1397354979
 30
0.0
 10
166.1010138084
 20
442.8484148166
 30
0.0
  0
SPLINE
  5
251
100
AcDbEntity
  8
0
100
AcDbSpline
 62
7
  6
CONTINUOUS
 70
0
 71
3
 72
11
 73
7
 74
0
 42
0.0000001
 43
0.0000001
 44
0.0000000001
 40
0.0
 40
0.0
 40
0.0
 40
0.0
 40
0.2177713702
 40
0.4509290507
 40
0.7102263481
 40
1.0
 40
1.0
 40
1.0
 40
1.0
 10
176.4691162689
 20
447.9514347088
 30
0.0
 10
176.4691343785
 20
447.246836069
 30
0.0
 10
176.2089053462
 20
445.7780458467
 30
0.0
 10
175.0954244538
 20
443.7320021883
 30
0.0
 10
173.3356471802
 20
441.8818302536
 30
0.0
 10
171.8627354453
 20
440.8677595523
 30
0.0
 10
171.0507818844
 20
440.3989807436
 30
0.0
  0
SPLINE
  5
252
100
AcDbEntity
  8
0
100
AcDbSpline
 62
7
  6
CONTINUOUS
 70
0
 71
3
 72
11
 73
7
 74
0
 42
0.0000001
 43
0.0000001
 44
0.0000000001
 40
0.0
 40
0.0
 40
0.0
 40
0.0
 40
0.2177827477
 40
0.4509152641
 40
0.7103063952
 40
1.0
 40
1.0
 40
1.0
 40
1.0
 10
239.4735064225
 20
345.8909895524
 30
0.0
 10
239.4734465744
 20
345.452975728
 30
0.0
 10
239.3116744157
 20
344.5400058013
 30
0.0
 10
238.6195161238
 20
343.2679394995
 30
0.0
 10
237.5253774075
 20
342.1180865906
 30
0.0
 10
236.60990637
 20
341.4875414253
 30
0.0
 10
236.1053211369
 20
341.1962207441
 30
0.0
  0
SPLINE
  5
253
100
AcDbEntity
  8
0
100
AcDbSpline
 62
7
  6
CONTINUOUS
 70
0
 71
3
 72
11
 73
7
 74
0
 42
0.0000001
 43
0.0000001
 44
0.0000000001
 40
0.0
 40
0.0
 40
0.0
 40
0.0
 40
0.2177827477
 40
0.4509152641
 40
0.7103063952
 40
1.0
 40
1.0
 40
1.0
 40
1.0
 10
379.4807874626
 20
326.2956795324
 30
0.0
 10
379.4807276146
 20
325.857665708
 30
0.0
 10
379.3189554559
 20
324.9446957813
 30
0.0
 10
378.626797164
 20
323.6726294795
 30
0.0
 10
377.5326584477
 20
322.5227765706
 30
0.0
 10
376.6171874101
 20
321.8922314053
 30
0.0
 10
376.112602177
 20
321.6009107241
 30
0.0
  0
SPLINE
  5
254
100
AcDbEntity
  8
0
100
AcDbSpline
 62
7
  6
CONTINUOUS
 70
0
 71
3
 72
11
 73
7
 74
0
 42
0.0000001
 43
0.0000001
 44
0.0000000001
 40
0.0
 40
0.0
 40
0.0
 40
0.0
 40
0.2177713702
 40
0.4509290507
 40
0.7102263481
 40
1.0
 40
1.0
 40
1.0
 40
1.0
 10
386.4807046376
 20
326.7039306163
 30
0.0
 10
386.4807227471
 20
325.9993319765
 30
0.0
 10
386.2204937149
 20
324.5305417542
 30
0.0
 10
385.1070128224
 20
322.4844980958
 30
0.0
 10
383.3472355488
 20
320.634326161
 30
0.0
 10
381.874323814
 20
319.6202554598
 30
0.0
 10
381.062370253
 20
319.151476651
 30
0.0
  0
SPLINE
  5
255
100
AcDbEntity
  8
0
100
AcDbSpline
 62
7
  6
CONTINUOUS
 70
0
 71
3
 72
11
 73
7
 74
0
 42
0.0000001
 43
0.0000001
 44
0.0000000001
 40
0.0
 40
0.0
 40
0.0
 40
0.0
 40
0.2177827477
 40
0.4509152641
 40
0.7103063952
 40
1.0
 40
1.0
 40
1.0
 40
1.0
 10
206.2389048016
 20
426.3146643898
 30
0.0
 10
206.2388449536
 20
425.8766505655
 30
0.0
 10
206.0770727949
 20
424.9636806388
 30
0.0
 10
205.384914503
 20
423.6916143369
 30
0.0
 10
204.2907757867
 20
422.541761428
 30
0.0
 10
203.3753047491
 20
421.9112162628
 30
0.0
 10
202.870719516
 20
421.6198955816
 30
0.0
  0
SPLINE
  5
256
100
AcDbEntity
  8
0
100
AcDbSpline
 62
7
  6
CONTINUOUS
 70
0
 71
3
 72
11
 73
7
 74
0
 42
0.0000001
 43
0.0000001
 44
0.0000000001
 40
0.0
 40
0.0
 40
0.0
 40
0.0
 40
0.2177713702
 40
0.4509290507
 40
0.7102263481
 40
1.0
 40
1.0
 40
1.0
 40
1.0
 10
213.2388219765
 20
426.7229154738
 30
0.0
 10
213.2388400861
 20
426.0183168339
 30
0.0
 10
212.9786110539
 20
424.5495266117
 30
0.0
 10
211.8651301614
 20
422.5034829532
 30
0.0
 10
210.1053528878
 20
420.6533110185
 30
0.0
 10
208.632441153
 20
419.6392403173
 30
0.0
 10
207.820487592
 20
419.1704615085
 30
0.0
  0
SPLINE
  5
257
100
AcDbEntity
  8
0
100
AcDbSpline
 62
7
  6
CONTINUOUS
 70
0
 71
3
 72
11
 73
7
 74
0
 42
0.0000001
 43
0.0000001
 44
0.0000000001
 40
0.0
 40
0.0
 40
0.0
 40
0.0
 40
0.2177827477
 40
0.4509152641
 40
0.7103063952
 40
1.0
 40
1.0
 40
1.0
 40
1.0
 10
298.8707233348
 20
311.5987661727
 30
0.0
 10
298.8706634868
 20
311.1607523483
 30
0.0
 10
298.7088913281
 20
310.2477824216
 30
0.0
 10
298.0167330362
 20
308.9757161198
 30
0.0
 10
296.9225943199
 20
307.8258632109
 30
0.0
 10
296.0071232823
 20
307.1953180456
 30
0.0
 10
295.5025380492
 20
306.9039973644
 30
0.0
  0
SPLINE
  5
258
100
AcDbEntity
  8
0
100
AcDbSpline
 62
7
  6
CONTINUOUS
 70
0
 71
3
 72
11
 73
7
 74
0
 42
0.0000001
 43
0.0000001
 44
0.0000000001
 40
0.0
 40
0.0
 40
0.0
 40
0.0
 40
0.2177827477
 40
0.4509152641
 40
0.7103063952
 40
1.0
 40
1.0
 40
1.0
 40
1.0
 10
180.0762895101
 20
380.1832129321
 30
0.0
 10
180.0762296621
 20
379.7451991077
 30
0.0
 10
179.9144575034
 20
378.832229181
 30
0.0
 10
179.2222992115
 20
377.5601628792
 30
0.0
 10
178.1281604952
 20
376.4103099703
 30
0.0
 10
177.2126894576
 20
375.779764805
 30
0.0
 10
176.7081042245
 20
375.4884441238
 30
0.0
  0
SPLINE
  5
259
100
AcDbEntity
  8
0
100
AcDbSpline
 62
7
  6
CONTINUOUS
 70
0
 71
3
 72
11
 73
7
 74
0
 42
0.0000001
 43
0.0000001
 44
0.0000000001
 40
0.0
 40
0.0
 40
0.0
 40
0.0
 40
0.2177717605
 40
0.4509297722
 40
0.7102267929
 40
1.0
 40
1.0
 40
1.0
 40
1.0
 10
381.3241762304
 20
280.5725109343
 30
0.0
 10
381.324194481
 20
279.8488677585
 30
0.0
 10
381.0569338327
 20
278.3403774896
 30
0.0
 10
379.9133538384
 20
276.2390359525
 30
0.0
 10
378.1060172184
 20
274.3388594031
 30
0.0
 10
376.5932975995
 20
273.2973843867
 30
0.0
 10
375.7594005904
 20
272.8159365979
 30
0.0
  0
SPLINE
  5
25A
100
AcDbEntity
  8
0
100
AcDbSpline
 62
7
  6
CONTINUOUS
 70
0
 71
3
 72
11
 73
7
 74
0
 42
0.0000001
 43
0.0000001
 44
0.0000000001
 40
0.0
 40
0.0
 40
0.0
 40
0.0
 40
0.2177724353
 40
0.4509309023
 40
0.710227729
 40
1.0
 40
1.0
 40
1.0
 40
1.0
 10
386.3241386375
 20
280.9807621183
 30
0.0
 10
386.3241594696
 20
280.0666835381
 30
0.0
 10
385.986580715
 20
278.161213842
 30
0.0
 10
384.542035387
 20
275.5068933318
 30
0.0
 10
382.2590958135
 20
273.106664874
 30
0.0
 10
380.3482895852
 20
271.7911267493
 30
0.0
 10
379.2949492162
 20
271.1829840338
 30
0.0
  0
SPLINE
  5
25B
100
AcDbEntity
  8
0
100
AcDbSpline
 62
7
  6
CONTINUOUS
 70
0
 71
3
 72
11
 73
7
 74
0
 42
0.0000001
 43
0.0000001
 44
0.0000000001
 40
0.0
 40
0.0
 40
0.0
 40
0.0
 40
0.2177827477
 40
0.4509152641
 40
0.7103063952
 40
1.0
 40
1.0
 40
1.0
 40
1.0
 10
269.1721148786
 20
328.7448778625
 30
0.0
 10
269.1720550306
 20
328.3068640382
 30
0.0
 10
269.0102828719
 20
327.3938941115
 30
0.0
 10
268.31812458
 20
326.1218278096
 30
0.0
 10
267.2239858637
 20
324.9719749007
 30
0.0
 10
266.3085148261
 20
324.3414297355
 30
0.0
 10
265.803929593
 20
324.0501090543
 30
0.0
  0
SPLINE
  5
25C
100
AcDbEntity
  8
0
100
AcDbSpline
 62
7
  6
CONTINUOUS
 70
0
 71
3
 72
11
 73
7
 74
0
 42
0.0000001
 43
0.0000001
 44
0.0000000001
 40
0.0
 40
0.0
 40
0.0
 40
0.0
 40
0.2177687453
 40
0.4509037898
 40
0.7103742564
 40
1.0
 40
1.0
 40
1.0
 40
1.0
 10
308.1839142769
 20
366.3032742313
 30
0.0
 10
308.183755387
 20
365.9414624034
 30
0.0
 10
308.050585927
 20
365.187242429
 30
0.0
 10
307.4784922005
 20
364.1363482202
 30
0.0
 10
306.5745320994
 20
363.1866198427
 30
0.0
 10
305.8183605537
 20
362.6655844323
 30
0.0
 10
305.4016296623
 20
362.4249861761
 30
0.0
  0
SPLINE
  5
25D
100
AcDbEntity
  8
0
100
AcDbSpline
 62
7
  6
CONTINUOUS
 70
0
 71
3
 72
11
 73
7
 74
0
 42
0.0000001
 43
0.0000001
 44
0.0000000001
 40
0.0
 40
0.0
 40
0.0
 40
0.0
 40
0.217779011
 40
0.4509222696
 40
0.7102587576
 40
1.0
 40
1.0
 40
1.0
 40
1.0
 10
313.1840017603
 20
366.7115245829
 30
0.0
 10
313.1840982204
 20
366.1592547391
 30
0.0
 10
312.9798606642
 20
365.0080974215
 30
0.0
 10
312.107311803
 20
363.4043045862
 30
0.0
 10
310.7278709194
 20
361.9543144
 30
0.0
 10
309.5735002504
 20
361.1594120754
 30
0.0
 10
308.9371782881
 20
360.7920336121
 30
0.0
  0
SPLINE
  5
25E
100
AcDbEntity
  8
0
100
AcDbSpline
 62
7
  6
CONTINUOUS
 70
0
 71
3
 72
11
 73
7
 74
0
 42
0.0000001
 43
0.0000001
 44
0.0000000001
 40
0.0
 40
0.0
 40
0.0
 40
0.0
 40
0.2177717605
 40
0.4509297722
 40
0.7102267929
 40
1.0
 40
1.0
 40
1.0
 40
1.0
 10
134.5428821541
 20
423.0485342619
 30
0.0
 10
134.5429004047
 20
422.3248910861
 30
0.0
 10
134.2756397564
 20
420.8164008172
 30
0.0
 10
133.1320597621
 20
418.7150592801
 30
0.0
 10
131.3247231421
 20
416.8148827307
 30
0.0
 10
129.8120035233
 20
415.7734077143
 30
0.0
 10
128.9781065141
 20
415.2919599255
 30
0.0
  0
SPLINE
  5
25F
100
AcDbEntity
  8
0
100
AcDbSpline
 62
7
  6
CONTINUOUS
 70
0
 71
3
 72
11
 73
7
 74
0
 42
0.0000001
 43
0.0000001
 44
0.0000000001
 40
0.0
 40
0.0
 40
0.0
 40
0.0
 40
0.289811107
 40
0.5490483164
 40
0.7822302728
 40
1.0
 40
1.0
 40
1.0
 40
1.0
 10
73.823874733
 20
395.6960582338
 30
0.0
 10
71.5412778632
 20
397.0138863378
 30
0.0
 10
67.4008897249
 20
399.8637789571
 30
0.0
 10
62.4552774196
 20
405.0650442517
 30
0.0
 10
59.3243960427
 20
410.8152960353
 30
0.0
 10
58.5934704733
 20
414.9442370704
 30
0.0
 10
58.5934704301
 20
416.9247542353
 30
0.0
  0
SPLINE
  5
260
100
AcDbEntity
  8
0
100
AcDbSpline
 62
7
  6
CONTINUOUS
 70
0
 71
3
 72
13
 73
9
 74
0
 42
0.0000001
 43
0.0000001
 44
0.0000000001
 40
0.0
 40
0.0
 40
0.0
 40
0.0
 40
0.1150277169
 40
0.2384403806
 40
0.4999995012
 40
0.7615588929
 40
0.8849718743
 40
1.0
 40
1.0
 40
1.0
 40
1.0
 10
397.9988471847
 20
249.7485804318
 30
0.0
 10
395.5128177029
 20
248.3954081448
 30
0.0
 10
390.1244959066
 20
246.010353222
 30
0.0
 10
378.2846695882
 20
242.5680917236
 30
0.0
 10
362.3245413458
 20
240.890845766
 30
0.0
 10
346.3643984823
 20
242.568019908
 30
0.0
 10
334.524530481
 20
246.0102251376
 30
0.0
 10
329.1361780039
 20
248.3952542436
 30
0.0
 10
326.6501305077
 20
249.7484144737
 30
0.0
  0
SPLINE
  5
261
100
AcDbEntity
  8
0
100
AcDbSpline
 62
7
  6
CONTINUOUS
 70
0
 71
3
 72
11
 73
7
 74
0
 42
0.0000001
 43
0.0000001
 44
0.0000000001
 40
0.0
 40
0.0
 40
0.0
 40
0.0
 40
0.2177724353
 40
0.4509309023
 40
0.710227729
 40
1.0
 40
1.0
 40
1.0
 40
1.0
 10
139.5428445612
 20
423.4567854459
 30
0.0
 10
139.5428653933
 20
422.5427068656
 30
0.0
 10
139.2052866387
 20
420.6372371696
 30
0.0
 10
137.7607413107
 20
417.9829166594
 30
0.0
 10
135.4778017372
 20
415.5826882016
 30
0.0
 10
133.5669955089
 20
414.2671500769
 30
0.0
 10
132.5136551399
 20
413.6590073614
 30
0.0
  0
SPLINE
  5
262
100
AcDbEntity
  8
0
100
AcDbSpline
 62
7
  6
CONTINUOUS
 70
0
 71
3
 72
11
 73
7
 74
0
 42
0.0000001
 43
0.0000001
 44
0.0000000001
 40
0.0
 40
0.0
 40
0.0
 40
0.0
 40
0.2177827477
 40
0.4509152641
 40
0.7103063952
 40
1.0
 40
1.0
 40
1.0
 40
1.0
 10
209.7748979663
 20
363.0371012422
 30
0.0
 10
209.7748381183
 20
362.5990874179
 30
0.0
 10
209.6130659596
 20
361.6861174912
 30
0.0
 10
208.9209076676
 20
360.4140511893
 30
0.0
 10
207.8267689514
 20
359.2641982804
 30
0.0
 10
206.9112979138
 20
358.6336531152
 30
0.0
 10
206.4067126807
 20
358.342332434
 30
0.0
  0
SPLINE
  5
263
100
AcDbEntity
  8
0
100
AcDbSpline
 62
7
  6
CONTINUOUS
 70
0
 71
3
 72
11
 73
7
 74
0
 42
0.0000001
 43
0.0000001
 44
0.0000000001
 40
0.0
 40
0.0
 40
0.0
 40
0.0
 40
0.2177687453
 40
0.4509037898
 40
0.7103742564
 40
1.0
 40
1.0
 40
1.0
 40
1.0
 10
273.5355377447
 20
386.3070712028
 30
0.0
 10
273.5353788548
 20
385.9452593749
 30
0.0
 10
273.4022093948
 20
385.1910394005
 30
0.0
 10
272.8301156683
 20
384.1401451917
 30
0.0
 10
271.9261555672
 20
383.1904168142
 30
0.0
 10
271.1699840215
 20
382.6693814038
 30
0.0
 10
270.7532531301
 20
382.4287831476
 30
0.0
  0
SPLINE
  5
264
100
AcDbEntity
  8
0
100
AcDbSpline
 62
7
  6
CONTINUOUS
 70
0
 71
3
 72
11
 73
7
 74
0
 42
0.0000001
 43
0.0000001
 44
0.0000000001
 40
0.0
 40
0.0
 40
0.0
 40
0.0
 40
0.217779011
 40
0.4509222696
 40
0.7102587576
 40
1.0
 40
1.0
 40
1.0
 40
1.0
 10
278.5356252281
 20
386.7153215544
 30
0.0
 10
278.5357216882
 20
386.1630517106
 30
0.0
 10
278.331484132
 20
385.011894393
 30
0.0
 10
277.4589352708
 20
383.4081015577
 30
0.0
 10
276.0794943872
 20
381.9581113714
 30
0.0
 10
274.9251237182
 20
381.1632090469
 30
0.0
 10
274.2888017558
 20
380.7958305836
 30
0.0
  0
SPLINE
  5
265
100
AcDbEntity
  8
0
100
AcDbSpline
 62
7
  6
CONTINUOUS
 70
0
 71
3
 72
9
 73
5
 74
0
 42
0.0000001
 43
0.0000001
 44
0.0000000001
 40
0.0
 40
0.0
 40
0.0
 40
0.0
 40
0.4491565434
 40
1.0
 40
1.0
 40
1.0
 40
1.0
 10
216.3564006565
 20
336.2972514435
 30
0.0
 10
216.3564156916
 20
335.9078684409
 30
0.0
 10
216.0163016462
 20
335.0387351853
 30
0.0
 10
215.3057279462
 20
334.4948156985
 30
0.0
 10
214.8921677489
 20
334.2560480325
 30
0.0
  0
SPLINE
  5
266
100
AcDbEntity
  8
0
100
AcDbSpline
 62
7
  6
CONTINUOUS
 70
0
 71
3
 72
13
 73
9
 74
0
 42
0.0000001
 43
0.0000001
 44
0.0000000001
 40
0.0
 40
0.0
 40
0.0
 40
0.0
 40
0.2698956012
 40
0.5613257437
 40
0.6954661216
 40
0.8131446799
 40
0.9128555334
 40
1.0
 40
1.0
 40
1.0
 40
1.0
 10
201.8098724024
 20
447.9515400821
 30
0.0
 10
201.0363752521
 20
447.5049639599
 30
0.0
 10
199.1873685577
 20
447.0044680976
 30
0.0
 10
196.8494780065
 20
447.1229334228
 30
0.0
 10
195.1327399047
 20
447.694839203
 30
0.0
 10
194.1287851288
 20
448.3068852005
 30
0.0
 10
193.4485303999
 20
449.0803057384
 30
0.0
 10
193.2745533786
 20
449.7043600264
 30
0.0
 10
193.2745422433
 20
449.9927442163
 30
0.0
  0
SPLINE
  5
267
100
AcDbEntity
  8
0
100
AcDbSpline
 62
7
  6
CONTINUOUS
 70
0
 71
3
 72
13
 73
9
 74
0
 42
0.0000001
 43
0.0000001
 44
0.0000000001
 40
0.0
 40
0.0
 40
0.0
 40
0.0
 40
0.2698956012
 40
0.5613257437
 40
0.6954661216
 40
0.8131446799
 40
0.9128555334
 40
1.0
 40
1.0
 40
1.0
 40
1.0
 10
109.8859908489
 20
447.9513191243
 30
0.0
 10
109.1124936986
 20
447.504743002
 30
0.0
 10
107.2634870043
 20
447.0042471397
 30
0.0
 10
104.925596453
 20
447.1227124649
 30
0.0
 10
103.2088583513
 20
447.6946182452
 30
0.0
 10
102.2049035754
 20
448.3066642427
 30
0.0
 10
101.5246488464
 20
449.0800847806
 30
0.0
 10
101.3506718252
 20
449.7041390686
 30
0.0
 10
101.3506606899
 20
449.9925232584
 30
0.0
  0
SPLINE
  5
268
100
AcDbEntity
  8
0
100
AcDbSpline
 62
7
  6
CONTINUOUS
 70
0
 71
3
 72
13
 73
9
 74
0
 42
0.0000001
 43
0.0000001
 44
0.0000000001
 40
0.0
 40
0.0
 40
0.0
 40
0.0
 40
0.2698956012
 40
0.5613257437
 40
0.6954661216
 40
0.8131446799
 40
0.9128555334
 40
1.0
 40
1.0
 40
1.0
 40
1.0
 10
109.8863735646
 20
394.8798000788
 30
0.0
 10
109.1128764143
 20
394.4332239566
 30
0.0
 10
107.2638697199
 20
393.9327280943
 30
0.0
 10
104.9259791687
 20
394.0511934195
 30
0.0
 10
103.2092410669
 20
394.6230991997
 30
0.0
 10
102.205286291
 20
395.2351451972
 30
0.0
 10
101.5250315621
 20
396.0085657351
 30
0.0
 10
101.3510545408
 20
396.6326200231
 30
0.0
 10
101.3510434055
 20
396.921004213
 30
0.0
  0
SPLINE
  5
269
100
AcDbEntity
  8
0
100
AcDbSpline
 62
7
  6
CONTINUOUS
 70
0
 71
3
 72
13
 73
9
 74
0
 42
0.0000001
 43
0.0000001
 44
0.0000000001
 40
0.0
 40
0.0
 40
0.0
 40
0.0
 40
0.2698956012
 40
0.5613257437
 40
0.6954661216
 40
0.8131446799
 40
0.9128555334
 40
1.0
 40
1.0
 40
1.0
 40
1.0
 10
319.8979619332
 20
273.6322959863
 30
0.0
 10
319.1244647829
 20
273.185719864
 30
0.0
 10
317.2754580886
 20
272.6852240017
 30
0.0
 10
314.9375675374
 20
272.803689327
 30
0.0
 10
313.2208294356
 20
273.3755951072
 30
0.0
 10
312.2168746597
 20
273.9876411047
 30
0.0
 10
311.5366199307
 20
274.7610616426
 30
0.0
 10
311.3626429095
 20
275.3851159306
 30
0.0
 10
311.3626317742
 20
275.6735001204
 30
0.0
  0
SPLINE
  5
26A
100
AcDbEntity
  8
0
100
AcDbSpline
 62
7
  6
CONTINUOUS
 70
0
 71
3
 72
13
 73
9
 74
0
 42
0.0000001
 43
0.0000001
 44
0.0000000001
 40
0.0
 40
0.0
 40
0.0
 40
0.0
 40
0.2698956012
 40
0.5613257437
 40
0.6954661216
 40
0.8131446799
 40
0.9128555334
 40
1.0
 40
1.0
 40
1.0
 40
1.0
 10
411.8218434867
 20
273.6325169441
 30
0.0
 10
411.0483463364
 20
273.1859408219
 30
0.0
 10
409.199339642
 20
272.6854449596
 30
0.0
 10
406.8614490908
 20
272.8039102848
 30
0.0
 10
405.144710989
 20
273.375816065
 30
0.0
 10
404.1407562131
 20
273.9878620625
 30
0.0
 10
403.4605014842
 20
274.7612826004
 30
0.0
 10
403.2865244629
 20
275.3853368884
 30
0.0
 10
403.2865133276
 20
275.6737210783
 30
0.0
  0
SPLINE
  5
26B
100
AcDbEntity
  8
0
100
AcDbSpline
 62
7
  6
CONTINUOUS
 70
0
 71
3
 72
13
 73
9
 74
0
 42
0.0000001
 43
0.0000001
 44
0.0000000001
 40
0.0
 40
0.0
 40
0.0
 40
0.0
 40
0.2698956012
 40
0.5613257437
 40
0.6954661216
 40
0.8131446799
 40
0.9128555334
 40
1.0
 40
1.0
 40
1.0
 40
1.0
 10
411.821460771
 20
326.7040359896
 30
0.0
 10
411.0479636207
 20
326.2574598673
 30
0.0
 10
409.1989569264
 20
325.756964005
 30
0.0
 10
406.8610663752
 20
325.8754293302
 30
0.0
 10
405.1443282734
 20
326.4473351105
 30
0.0
 10
404.1403734975
 20
327.059381108
 30
0.0
 10
403.4601187685
 20
327.8328016459
 30
0.0
 10
403.2861417473
 20
328.4568559339
 30
0.0
 10
403.286130612
 20
328.7452401237
 30
0.0
  0
SPLINE
  5
26C
100
AcDbEntity
  8
0
100
AcDbSpline
 62
7
  6
CONTINUOUS
 70
0
 71
3
 72
13
 73
9
 74
0
 42
0.0000001
 43
0.0000001
 44
0.0000000001
 40
0.0
 40
0.0
 40
0.0
 40
0.0
 40
0.2698956012
 40
0.5613257437
 40
0.6954661216
 40
0.8131446799
 40
0.9128555334
 40
1.0
 40
1.0
 40
1.0
 40
1.0
 10
306.8156665867
 20
387.3277880358
 30
0.0
 10
306.0421694364
 20
386.8812119136
 30
0.0
 10
304.1931627421
 20
386.3807160513
 30
0.0
 10
301.8552721908
 20
386.4991813765
 30
0.0
 10
300.138534089
 20
387.0710871568
 30
0.0
 10
299.1345793131
 20
387.6831331542
 30
0.0
 10
298.4543245842
 20
388.4565536922
 30
0.0
 10
298.280347563
 20
389.0806079801
 30
0.0
 10
298.2803364276
 20
389.36899217
 30
0.0
  0
SPLINE
  5
26D
100
AcDbEntity
  8
0
100
AcDbSpline
 62
7
  6
CONTINUOUS
 70
0
 71
3
 72
13
 73
9
 74
0
 42
0.0000001
 43
0.0000001
 44
0.0000000001
 40
0.0
 40
0.0
 40
0.0
 40
0.0
 40
0.2698956012
 40
0.5613257437
 40
0.6954661216
 40
0.8131446799
 40
0.9128555334
 40
1.0
 40
1.0
 40
1.0
 40
1.0
 10
214.8921677489
 20
334.2560480325
 30
0.0
 10
214.1186705986
 20
333.8094719103
 30
0.0
 10
212.2696639043
 20
333.308976048
 30
0.0
 10
209.931773353
 20
333.4274413732
 30
0.0
 10
208.2150352512
 20
333.9993471535
 30
0.0
 10
207.2110804753
 20
334.6113931509
 30
0.0
 10
206.5308257464
 20
335.3848136889
 30
0.0
 10
206.3568487252
 20
336.0088679768
 30
0.0
 10
206.3568375898
 20
336.2972521667
 30
0.0
  0
SPLINE
  5
26E
100
AcDbEntity
  8
0
100
AcDbSpline
 62
7
  6
CONTINUOUS
 70
0
 71
3
 72
16
 73
12
 74
0
 42
0.0000001
 43
0.0000001
 44
0.0000000001
 40
0.0
 40
0.0
 40
0.0
 40
0.0
 40
0.1287501123
 40
0.2703968177
 40
0.4176171811
 40
0.5620242244
 40
0.6957534474
 40
0.8130672784
 40
0.9124731962
 40
0.9571218708
 40
1.0
 40
1.0
 40
1.0
 40
1.0
 10
274.2888017558
 20
380.7958305836
 30
0.0
 10
273.2154125951
 20
380.1761127619
 30
0.0
 10
270.7851679822
 20
379.1733865419
 30
0.0
 10
266.824407224
 20
378.3810309026
 30
0.0
 10
262.6349505115
 20
378.2652665137
 30
0.0
 10
258.5599787433
 20
378.8368854487
 30
0.0
 10
254.9251525147
 20
380.0535163584
 30
0.0
 10
252.0127727212
 20
381.8210168574
 30
0.0
 10
250.3164174379
 20
383.7693758032
 30
0.0
 10
249.6460890605
 20
385.4563465324
 30
0.0
 10
249.5358683503
 20
386.3025457863
 30
0.0
 10
249.5357962544
 20
386.7153214939
 30
0.0
  0
SPLINE
  5
26F
100
AcDbEntity
  8
0
100
AcDbSpline
 62
7
  6
CONTINUOUS
 70
0
 71
3
 72
15
 73
11
 74
0
 42
0.0000001
 43
0.0000001
 44
0.0000000001
 40
0.0
 40
0.0
 40
0.0
 40
0.0
 40
0.1288320654
 40
0.2705723687
 40
0.4178906197
 40
0.562389031
 40
0.6962036827
 40
0.8135940917
 40
0.9130655393
 40
1.0
 40
1.0
 40
1.0
 40
1.0
 10
206.4067126807
 20
358.342332434
 30
0.0
 10
205.5554162276
 20
357.8508391314
 30
0.0
 10
203.6279877407
 20
357.0555588564
 30
0.0
 10
200.48668716
 20
356.4271635421
 30
0.0
 10
197.1639879945
 20
356.3352323165
 30
0.0
 10
193.932196818
 20
356.789196139
 30
0.0
 10
191.049263687
 20
357.7523636268
 30
0.0
 10
188.739938417
 20
359.1593984063
 30
0.0
 10
187.175518833
 20
360.9384908806
 30
0.0
 10
186.7749130851
 20
362.3737894676
 30
0.0
 10
186.7750037167
 20
363.0371009797
 30
0.0
  0
SPLINE
  5
270
100
AcDbEntity
  8
0
100
AcDbSpline
 62
7
  6
CONTINUOUS
 70
0
 71
3
 72
17
 73
13
 74
0
 42
0.0000001
 43
0.0000001
 44
0.0000000001
 40
0.0
 40
0.0
 40
0.0
 40
0.0
 40
0.1286901644
 40
0.2702748605
 40
0.4174297726
 40
0.5617773189
 40
0.6954489936
 40
0.8127149545
 40
0.8646780852
 40
0.9125120312
 40
0.9571415859
 40
1.0
 40
1.0
 40
1.0
 40
1.0
 10
132.5136551399
 20
413.6590073614
 30
0.0
 10
130.7370629256
 20
412.633297491
 30
0.0
 10
126.7146600587
 20
410.9736501959
 30
0.0
 10
120.1589366929
 20
409.6621282864
 30
0.0
 10
113.2250217651
 20
409.4699790894
 30
0.0
 10
106.4787508647
 20
410.4179513355
 30
0.0
 10
100.4672039642
 20
412.4260495729
 30
0.0
 10
96.2860880201
 20
414.9709068956
 30
0.0
 10
93.8324851376
 20
417.4335091123
 30
0.0
 10
92.5290733747
 20
419.350734273
 30
0.0
 10
91.7257374829
 20
421.3729928691
 30
0.0
 10
91.5432144817
 20
422.7735865043
 30
0.0
 10
91.5431989114
 20
423.4567854939
 30
0.0
  0
SPLINE
  5
271
100
AcDbEntity
  8
0
100
AcDbSpline
 62
7
  6
CONTINUOUS
 70
0
 71
3
 72
16
 73
12
 74
0
 42
0.0000001
 43
0.0000001
 44
0.0000000001
 40
0.0
 40
0.0
 40
0.0
 40
0.0
 40
0.1287501123
 40
0.2703968177
 40
0.4176171811
 40
0.5620242244
 40
0.6957534474
 40
0.8130672784
 40
0.9124731962
 40
0.9571218708
 40
1.0
 40
1.0
 40
1.0
 40
1.0
 10
308.9371782881
 20
360.7920336121
 30
0.0
 10
307.8637891273
 20
360.1723157904
 30
0.0
 10
305.4335445144
 20
359.1695895704
 30
0.0
 10
301.4727837562
 20
358.3772339311
 30
0.0
 10
297.2833270437
 20
358.2614695422
 30
0.0
 10
293.2083552755
 20
358.8330884772
 30
0.0
 10
289.5735290469
 20
360.0497193869
 30
0.0
 10
286.6611492534
 20
361.8172198859
 30
0.0
 10
284.9647939701
 20
363.7655788317
 30
0.0
 10
284.2944655927
 20
365.4525495609
 30
0.0
 10
284.1842448825
 20
366.2987488148
 30
0.0
 10
284.1841727866
 20
366.7115245224
 30
0.0
  0
SPLINE
  5
272
100
AcDbEntity
  8
0
100
AcDbSpline
 62
7
  6
CONTINUOUS
 70
0
 71
3
 72
15
 73
11
 74
0
 42
0.0000001
 43
0.0000001
 44
0.0000000001
 40
0.0
 40
0.0
 40
0.0
 40
0.0
 40
0.1288320654
 40
0.2705723687
 40
0.4178906197
 40
0.562389031
 40
0.6962036827
 40
0.8135940917
 40
0.9130655393
 40
1.0
 40
1.0
 40
1.0
 40
1.0
 10
265.803929593
 20
324.0501090543
 30
0.0
 10
264.9526331399
 20
323.5586157517
 30
0.0
 10
263.025204653
 20
322.7633354767
 30
0.0
 10
259.8839040724
 20
322.1349401624
 30
0.0
 10
256.5612049068
 20
322.0430089368
 30
0.0
 10
253.3294137303
 20
322.4969727593
 30
0.0
 10
250.4464805993
 20
323.4601402471
 30
0.0
 10
248.1371553293
 20
324.8671750266
 30
0.0
 10
246.5727357453
 20
326.6462675009
 30
0.0
 10
246.1721299975
 20
328.0815660879
 30
0.0
 10
246.172220629
 20
328.7448776
 30
0.0
  0
SPLINE
  5
273
100
AcDbEntity
  8
0
100
AcDbSpline
 62
7
  6
CONTINUOUS
 70
0
 71
3
 72
17
 73
13
 74
0
 42
0.0000001
 43
0.0000001
 44
0.0000000001
 40
0.0
 40
0.0
 40
0.0
 40
0.0
 40
0.1286901644
 40
0.2702748605
 40
0.4174297726
 40
0.5617773189
 40
0.6954489936
 40
0.8127149545
 40
0.8646780852
 40
0.9125120312
 40
0.9571415859
 40
1.0
 40
1.0
 40
1.0
 40
1.0
 10
379.2949492162
 20
271.1829840338
 30
0.0
 10
377.5183570019
 20
270.1572741634
 30
0.0
 10
373.495954135
 20
268.4976268683
 30
0.0
 10
366.9402307692
 20
267.1861049588
 30
0.0
 10
360.0063158414
 20
266.9939557618
 30
0.0
 10
353.260044941
 20
267.9419280079
 30
0.0
 10
347.2484980405
 20
269.9500262453
 30
0.0
 10
343.0673820964
 20
272.494883568
 30
0.0
 10
340.6137792139
 20
274.9574857848
 30
0.0
 10
339.310367451
 20
276.8747109454
 30
0.0
 10
338.5070315592
 20
278.8969695415
 30
0.0
 10
338.324508558
 20
280.2975631767
 30
0.0
 10
338.3244929877
 20
280.9807621663
 30
0.0
  0
SPLINE
  5
274
100
AcDbEntity
  8
0
100
AcDbSpline
 62
7
  6
CONTINUOUS
 70
0
 71
3
 72
15
 73
11
 74
0
 42
0.0000001
 43
0.0000001
 44
0.0000000001
 40
0.0
 40
0.0
 40
0.0
 40
0.0
 40
0.1288320654
 40
0.2705723687
 40
0.4178906197
 40
0.562389031
 40
0.6962036827
 40
0.8135940917
 40
0.9130655393
 40
1.0
 40
1.0
 40
1.0
 40
1.0
 10
176.7081042245
 20
375.4884441238
 30
0.0
 10
175.8568077714
 20
374.9969508213
 30
0.0
 10
173.9293792845
 20
374.2016705462
 30
0.0
 10
170.7880787039
 20
373.573275232
 30
0.0
 10
167.4653795383
 20
373.4813440063
 30
0.0
 10
164.2335883618
 20
373.9353078288
 30
0.0
 10
161.3506552308
 20
374.8984753166
 30
0.0
 10
159.0413299608
 20
376.3055100961
 30
0.0
 10
157.4769103768
 20
378.0846025704
 30
0.0
 10
157.076304629
 20
379.5199011574
 30
0.0
 10
157.0763952605
 20
380.1832126695
 30
0.0
  0
SPLINE
  5
275
100
AcDbEntity
  8
0
100
AcDbSpline
 62
7
  6
CONTINUOUS
 70
0
 71
3
 72
15
 73
11
 74
0
 42
0.0000001
 43
0.0000001
 44
0.0000000001
 40
0.0
 40
0.0
 40
0.0
 40
0.0
 40
0.1288320654
 40
0.2705723687
 40
0.4178906197
 40
0.562389031
 40
0.6962036827
 40
0.8135940917
 40
0.9130655393
 40
1.0
 40
1.0
 40
1.0
 40
1.0
 10
295.5025380492
 20
306.9039973644
 30
0.0
 10
294.6512415961
 20
306.4125040619
 30
0.0
 10
292.7238131092
 20
305.6172237868
 30
0.0
 10
289.5825125286
 20
304.9888284725
 30
0.0
 10
286.259813363
 20
304.8968972469
 30
0.0
 10
283.0280221865
 20
305.3508610694
 30
0.0
 10
280.1450890555
 20
306.3140285572
 30
0.0
 10
277.8357637855
 20
307.7210633367
 30
0.0
 10
276.2713442015
 20
309.500155811
 30
0.0
 10
275.8707384536
 20
310.935454398
 30
0.0
 10
275.8708290852
 20
311.5987659101
 30
0.0
  0
SPLINE
  5
276
100
AcDbEntity
  8
0
100
AcDbSpline
 62
7
  6
CONTINUOUS
 70
0
 71
3
 72
16
 73
12
 74
0
 42
0.0000001
 43
0.0000001
 44
0.0000000001
 40
0.0
 40
0.0
 40
0.0
 40
0.0
 40
0.1287479156
 40
0.2703938809
 40
0.4176107916
 40
0.5620190964
 40
0.6957499462
 40
0.8130684491
 40
0.9124747131
 40
0.9571233054
 40
1.0
 40
1.0
 40
1.0
 40
1.0
 10
207.820487592
 20
419.1704615085
 30
0.0
 10
206.4510116029
 20
418.3797988972
 30
0.0
 10
203.3503732979
 20
417.1005006396
 30
0.0
 10
198.297084468
 20
416.0894596561
 30
0.0
 10
192.9519341544
 20
415.9417156199
 30
0.0
 10
187.7528320916
 20
416.6710929716
 30
0.0
 10
183.1152273724
 20
418.2234405182
 30
0.0
 10
179.3992721981
 20
420.4783787002
 30
0.0
 10
177.2347880064
 20
422.964255841
 30
0.0
 10
176.3798046676
 20
425.1166740125
 30
0.0
 10
176.2391069125
 20
426.1962871122
 30
0.0
 10
176.2390933771
 20
426.7229154605
 30
0.0
  0
SPLINE
  5
277
100
AcDbEntity
  8
0
100
AcDbSpline
 62
7
  6
CONTINUOUS
 70
0
 71
3
 72
16
 73
12
 74
0
 42
0.0000001
 43
0.0000001
 44
0.0000000001
 40
0.0
 40
0.0
 40
0.0
 40
0.0
 40
0.1287479156
 40
0.2703938809
 40
0.4176107916
 40
0.5620190964
 40
0.6957499462
 40
0.8130684491
 40
0.9124747131
 40
0.9571233054
 40
1.0
 40
1.0
 40
1.0
 40
1.0
 10
381.062370253
 20
319.151476651
 30
0.0
 10
379.6928942639
 20
318.3608140397
 30
0.0
 10
376.5922559589
 20
317.0815157821
 30
0.0
 10
371.538967129
 20
316.0704747987
 30
0.0
 10
366.1938168154
 20
315.9227307624
 30
0.0
 10
360.9947147526
 20
316.6521081142
 30
0.0
 10
356.3571100334
 20
318.2044556607
 30
0.0
 10
352.6411548591
 20
320.4593938427
 30
0.0
 10
350.4766706674
 20
322.9452709835
 30
0.0
 10
349.6216873286
 20
325.097689155
 30
0.0
 10
349.4809895735
 20
326.1773022547
 30
0.0
 10
349.4809760381
 20
326.703930603
 30
0.0
  0
SPLINE
  5
278
100
AcDbEntity
  8
0
100
AcDbSpline
 62
7
  6
CONTINUOUS
 70
0
 71
3
 72
15
 73
11
 74
0
 42
0.0000001
 43
0.0000001
 44
0.0000000001
 40
0.0
 40
0.0
 40
0.0
 40
0.0
 40
0.1288320654
 40
0.2705723687
 40
0.4178906197
 40
0.562389031
 40
0.6962036827
 40
0.8135940917
 40
0.9130655393
 40
1.0
 40
1.0
 40
1.0
 40
1.0
 10
236.1053211369
 20
341.1962207441
 30
0.0
 10
235.2540246838
 20
340.7047274416
 30
0.0
 10
233.3265961969
 20
339.9094471665
 30
0.0
 10
230.1852956162
 20
339.2810518523
 30
0.0
 10
226.8625964507
 20
339.1891206266
 30
0.0
 10
223.6308052742
 20
339.6430844491
 30
0.0
 10
220.7478721432
 20
340.6062519369
 30
0.0
 10
218.4385468732
 20
342.0132867164
 30
0.0
 10
216.8741272891
 20
343.7923791907
 30
0.0
 10
216.4735215413
 20
345.2276777777
 30
0.0
 10
216.4736121729
 20
345.8909892898
 30
0.0
  0
SPLINE
  5
279
100
AcDbEntity
  8
0
100
AcDbSpline
 62
7
  6
CONTINUOUS
 70
0
 71
3
 72
16
 73
12
 74
0
 42
0.0000001
 43
0.0000001
 44
0.0000000001
 40
0.0
 40
0.0
 40
0.0
 40
0.0
 40
0.1287479156
 40
0.2703938809
 40
0.4176107916
 40
0.5620190964
 40
0.6957499462
 40
0.8130684491
 40
0.9124747131
 40
0.9571233054
 40
1.0
 40
1.0
 40
1.0
 40
1.0
 10
171.0507818844
 20
440.3989807436
 30
0.0
 10
169.6813058953
 20
439.6083181322
 30
0.0
 10
166.5806675902
 20
438.3290198746
 30
0.0
 10
161.5273787603
 20
437.3179788912
 30
0.0
 10
156.1822284467
 20
437.1702348549
 30
0.0
 10
150.983126384
 20
437.8996122067
 30
0.0
 10
146.3455216648
 20
439.4519597532
 30
0.0
 10
142.6295664905
 20
441.7068979352
 30
0.0
 10
140.4650822987
 20
444.192775076
 30
0.0
 10
139.6100989599
 20
446.3451932475
 30
0.0
 10
139.4694012048
 20
447.4248063473
 30
0.0
 10
139.4693876694
 20
447.9514346956
 30
0.0
  0
SPLINE
  5
27A
100
AcDbEntity
  8
0
100
AcDbSpline
 62
7
  6
CONTINUOUS
 70
0
 71
3
 72
16
 73
12
 74
0
 42
0.0000001
 43
0.0000001
 44
0.0000000001
 40
0.0
 40
0.0
 40
0.0
 40
0.0
 40
0.1287479156
 40
0.2703938809
 40
0.4176107916
 40
0.5620190964
 40
0.6957499462
 40
0.8130684491
 40
0.9124747131
 40
0.9571233054
 40
1.0
 40
1.0
 40
1.0
 40
1.0
 10
417.8320759607
 20
297.922957416
 30
0.0
 10
416.4625999716
 20
297.1322948046
 30
0.0
 10
413.3619616665
 20
295.8529965471
 30
0.0
 10
408.3086728366
 20
294.8419555636
 30
0.0
 10
402.963522523
 20
294.6942115273
 30
0.0
 10
397.7644204603
 20
295.4235888791
 30
0.0
 10
393.1268157411
 20
296.9759364256
 30
0.0
 10
389.4108605668
 20
299.2308746077
 30
0.0
 10
387.246376375
 20
301.7167517484
 30
0.0
 10
386.3913930362
 20
303.8691699199
 30
0.0
 10
386.2506952811
 20
304.9487830197
 30
0.0
 10
386.2506817457
 20
305.475411368
 30
0.0
  0
SPLINE
  5
27B
100
AcDbEntity
  8
0
100
AcDbSpline
 62
7
  6
CONTINUOUS
 70
0
 71
3
 72
15
 73
11
 74
0
 42
0.0000001
 43
0.0000001
 44
0.0000000001
 40
0.0
 40
0.0
 40
0.0
 40
0.0
 40
0.1288320654
 40
0.2705723687
 40
0.4178906197
 40
0.562389031
 40
0.6962036827
 40
0.8135940917
 40
0.9130655393
 40
1.0
 40
1.0
 40
1.0
 40
1.0
 10
237.1657855349
 20
368.3443464977
 30
0.0
 10
236.3885148603
 20
367.8955917432
 30
0.0
 10
234.6286888505
 20
367.1694662746
 30
0.0
 10
231.7605448421
 20
366.5957140312
 30
0.0
 10
228.7267760388
 20
366.5117768252
 30
0.0
 10
225.776010182
 20
366.9262655327
 30
0.0
 10
223.1437668884
 20
367.8056793259
 30
0.0
 10
221.0352525115
 20
369.090363255
 30
0.0
 10
219.606869413
 20
370.7147520359
 30
0.0
 10
219.2410989476
 20
372.0252420501
 30
0.0
 10
219.2411816982
 20
372.6308743003
 30
0.0
  0
SPLINE
  5
27C
100
AcDbEntity
  8
0
100
AcDbSpline
 62
7
  6
CONTINUOUS
 70
0
 71
3
 72
15
 73
11
 74
0
 42
0.0000001
 43
0.0000001
 44
0.0000000001
 40
0.0
 40
0.0
 40
0.0
 40
0.0
 40
0.1288320654
 40
0.2705723687
 40
0.4178906197
 40
0.562389031
 40
0.6962036827
 40
0.8135940917
 40
0.9130655393
 40
1.0
 40
1.0
 40
1.0
 40
1.0
 10
214.8918291927
 20
381.2039302651
 30
0.0
 10
214.1145585182
 20
380.7551755106
 30
0.0
 10
212.3547325084
 20
380.029050042
 30
0.0
 10
209.4865885
 20
379.4552977986
 30
0.0
 10
206.4528196966
 20
379.3713605926
 30
0.0
 10
203.5020538398
 20
379.7858493
 30
0.0
 10
200.8698105463
 20
380.6652630933
 30
0.0
 10
198.7612961694
 20
381.9499470224
 30
0.0
 10
197.3329130709
 20
383.5743358033
 30
0.0
 10
196.9671426055
 20
384.8848258175
 30
0.0
 10
196.967225356
 20
385.4904580677
 30
0.0
  0
SPLINE
  5
27D
100
AcDbEntity
  8
0
100
AcDbSpline
 62
7
  6
CONTINUOUS
 70
0
 71
3
 72
15
 73
11
 74
0
 42
0.0000001
 43
0.0000001
 44
0.0000000001
 40
0.0
 40
0.0
 40
0.0
 40
0.0
 40
0.1288281168
 40
0.2705730231
 40
0.4178855965
 40
0.5623847015
 40
0.6962026063
 40
0.8135940147
 40
0.9130657345
 40
1.0
 40
1.0
 40
1.0
 40
1.0
 10
169.4953848383
 20
407.4129867053
 30
0.0
 10
168.8069682517
 20
407.0155315762
 30
0.0
 10
167.2482594411
 20
406.3724208364
 30
0.0
 10
164.7079627472
 20
405.8641393353
 30
0.0
 10
162.0209166914
 20
405.7898309877
 30
0.0
 10
159.407396004
 20
406.1569040289
 30
0.0
 10
157.0759558667
 20
406.9358144653
 30
0.0
 10
155.2084024567
 20
408.0737309433
 30
0.0
 10
153.943321426
 20
409.5124671372
 30
0.0
 10
153.6192462666
 20
410.6732108005
 30
0.0
 10
153.6194593395
 20
411.2096250946
 30
0.0
  0
SPLINE
  5
27E
100
AcDbEntity
  8
0
100
AcDbSpline
 62
7
  6
CONTINUOUS
 70
0
 71
3
 72
15
 73
11
 74
0
 42
0.0000001
 43
0.0000001
 44
0.0000000001
 40
0.0
 40
0.0
 40
0.0
 40
0.0
 40
0.1288320654
 40
0.2705723687
 40
0.4178906197
 40
0.562389031
 40
0.6962036827
 40
0.8135940917
 40
0.9130655393
 40
1.0
 40
1.0
 40
1.0
 40
1.0
 10
281.7136982191
 20
342.6251789629
 30
0.0
 10
280.9364275445
 20
342.1764242084
 30
0.0
 10
279.1766015348
 20
341.4502987399
 30
0.0
 10
276.3084575263
 20
340.8765464964
 30
0.0
 10
273.274688723
 20
340.7926092904
 30
0.0
 10
270.3239228662
 20
341.2070979979
 30
0.0
 10
267.6916795727
 20
342.0865117911
 30
0.0
 10
265.5831651957
 20
343.3711957202
 30
0.0
 10
264.1547820973
 20
344.9955845011
 30
0.0
 10
263.7890116319
 20
346.3060745153
 30
0.0
 10
263.7890943824
 20
346.9117067655
 30
0.0
  0
SPLINE
  5
27F
100
AcDbEntity
  8
0
100
AcDbSpline
 62
7
  6
CONTINUOUS
 70
0
 71
3
 72
15
 73
11
 74
0
 42
0.0000001
 43
0.0000001
 44
0.0000000001
 40
0.0
 40
0.0
 40
0.0
 40
0.0
 40
0.1288320654
 40
0.2705723687
 40
0.4178906197
 40
0.562389031
 40
0.6962036827
 40
0.8135940917
 40
0.9130655393
 40
1.0
 40
1.0
 40
1.0
 40
1.0
 10
303.9876545612
 20
329.7655951955
 30
0.0
 10
303.2103838867
 20
329.316840441
 30
0.0
 10
301.4505578769
 20
328.5907149725
 30
0.0
 10
298.5824138685
 20
328.016962729
 30
0.0
 10
295.5486450651
 20
327.933025523
 30
0.0
 10
292.5978792084
 20
328.3475142305
 30
0.0
 10
289.9656359148
 20
329.2269280237
 30
0.0
 10
287.8571215379
 20
330.5116119528
 30
0.0
 10
286.4287384394
 20
332.1360007337
 30
0.0
 10
286.062967974
 20
333.4464907479
 30
0.0
 10
286.0630507246
 20
334.0521229981
 30
0.0
  0
SPLINE
  5
280
100
AcDbEntity
  8
0
100
AcDbSpline
 62
7
  6
CONTINUOUS
 70
0
 71
3
 72
15
 73
11
 74
0
 42
0.0000001
 43
0.0000001
 44
0.0000000001
 40
0.0
 40
0.0
 40
0.0
 40
0.0
 40
0.1288281168
 40
0.2705730231
 40
0.4178855965
 40
0.5623847015
 40
0.6962026063
 40
0.8135940147
 40
0.9130657345
 40
1.0
 40
1.0
 40
1.0
 40
1.0
 10
347.6870355753
 20
304.5363165661
 30
0.0
 10
346.9986189888
 20
304.1388614371
 30
0.0
 10
345.4399101782
 20
303.4957506973
 30
0.0
 10
342.8996134843
 20
302.9874691962
 30
0.0
 10
340.2125674284
 20
302.9131608486
 30
0.0
 10
337.5990467411
 20
303.2802338898
 30
0.0
 10
335.2676066038
 20
304.0591443262
 30
0.0
 10
333.4000531938
 20
305.1970608042
 30
0.0
 10
332.1349721631
 20
306.6357969981
 30
0.0
 10
331.8108970036
 20
307.7965406614
 30
0.0
 10
331.8111100765
 20
308.3329549555
 30
0.0
  0
SPLINE
  5
281
100
AcDbEntity
  8
0
100
AcDbSpline
 62
7
  6
CONTINUOUS
 70
0
 71
3
 72
15
 73
11
 74
0
 42
0.0000001
 43
0.0000001
 44
0.0000000001
 40
0.0
 40
0.0
 40
0.0
 40
0.0
 40
0.1288320654
 40
0.2705723687
 40
0.4178906197
 40
0.562389031
 40
0.6962036827
 40
0.8135940917
 40
0.9130655393
 40
1.0
 40
1.0
 40
1.0
 40
1.0
 10
147.0094957683
 20
392.6345558137
 30
0.0
 10
146.1581993152
 20
392.1430625111
 30
0.0
 10
144.2307708283
 20
391.3477822361
 30
0.0
 10
141.0894702477
 20
390.7193869218
 30
0.0
 10
137.7667710821
 20
390.6274556962
 30
0.0
 10
134.5349799057
 20
391.0814195187
 30
0.0
 10
131.6520467746
 20
392.0445870065
 30
0.0
 10
129.3427215047
 20
393.451621786
 30
0.0
 10
127.7783019206
 20
395.2307142603
 30
0.0
 10
127.3776961728
 20
396.6660128473
 30
0.0
 10
127.3777868044
 20
397.3293243594
 30
0.0
  0
SPLINE
  5
282
100
AcDbEntity
  8
0
100
AcDbSpline
 62
7
  6
CONTINUOUS
 70
0
 71
3
 72
15
 73
11
 74
0
 42
0.0000001
 43
0.0000001
 44
0.0000000001
 40
0.0
 40
0.0
 40
0.0
 40
0.0
 40
0.1288320654
 40
0.2705723687
 40
0.4178906197
 40
0.562389031
 40
0.6962036827
 40
0.8135940917
 40
0.9130655393
 40
1.0
 40
1.0
 40
1.0
 40
1.0
 10
325.2011465054
 20
289.7578856746
 30
0.0
 10
324.3498500523
 20
289.266392372
 30
0.0
 10
322.4224215654
 20
288.471112097
 30
0.0
 10
319.2811209847
 20
287.8427167827
 30
0.0
 10
315.9584218192
 20
287.7507855571
 30
0.0
 10
312.7266306427
 20
288.2047493796
 30
0.0
 10
309.8436975117
 20
289.1679168674
 30
0.0
 10
307.5343722417
 20
290.5749516469
 30
0.0
 10
305.9699526577
 20
292.3540441212
 30
0.0
 10
305.5693469098
 20
293.7893427082
 30
0.0
 10
305.5694375414
 20
294.4526542203
 30
0.0
  0
SPLINE
  5
283
100
AcDbEntity
  8
0
100
AcDbSpline
 62
7
  6
CONTINUOUS
 70
0
 71
3
 72
15
 73
11
 74
0
 42
0.0000001
 43
0.0000001
 44
0.0000000001
 40
0.0
 40
0.0
 40
0.0
 40
0.0
 40
0.1288320654
 40
0.2705723687
 40
0.4178906197
 40
0.562389031
 40
0.6962036827
 40
0.8135940917
 40
0.9130655393
 40
1.0
 40
1.0
 40
1.0
 40
1.0
 10
192.6178728506
 20
394.0635140324
 30
0.0
 10
191.840602176
 20
393.6147592779
 30
0.0
 10
190.0807761662
 20
392.8886338094
 30
0.0
 10
187.2126321578
 20
392.314881566
 30
0.0
 10
184.1788633545
 20
392.2309443599
 30
0.0
 10
181.2280974977
 20
392.6454330674
 30
0.0
 10
178.5958542042
 20
393.5248468607
 30
0.0
 10
176.4873398272
 20
394.8095307898
 30
0.0
 10
175.0589567288
 20
396.4339195707
 30
0.0
 10
174.6931862633
 20
397.7444095849
 30
0.0
 10
174.6932690139
 20
398.3500418351
 30
0.0
  0
SPLINE
  5
284
100
AcDbEntity
  8
0
100
AcDbSpline
 62
7
  6
CONTINUOUS
 70
0
 71
3
 72
15
 73
11
 74
0
 42
0.0000001
 43
0.0000001
 44
0.0000000001
 40
0.0
 40
0.0
 40
0.0
 40
0.0
 40
0.1288320654
 40
0.2705723687
 40
0.4178906197
 40
0.562389031
 40
0.6962036827
 40
0.8135940917
 40
0.9130655393
 40
1.0
 40
1.0
 40
1.0
 40
1.0
 10
259.439741877
 20
355.4847627303
 30
0.0
 10
258.6624712024
 20
355.0360079758
 30
0.0
 10
256.9026451926
 20
354.3098825072
 30
0.0
 10
254.0345011842
 20
353.7361302638
 30
0.0
 10
251.0007323809
 20
353.6521930578
 30
0.0
 10
248.0499665241
 20
354.0666817653
 30
0.0
 10
245.4177232306
 20
354.9460955585
 30
0.0
 10
243.3092088536
 20
356.2307794876
 30
0.0
 10
241.8808257551
 20
357.8551682685
 30
0.0
 10
241.5150552897
 20
359.1656582827
 30
0.0
 10
241.5151380403
 20
359.7712905329
 30
0.0
  0
SPLINE
  5
285
100
AcDbEntity
  8
0
100
AcDbSpline
 62
7
  6
CONTINUOUS
 70
0
 71
3
 72
16
 73
12
 74
0
 42
0.0000001
 43
0.0000001
 44
0.0000000001
 40
0.0
 40
0.0
 40
0.0
 40
0.0
 40
0.1287501123
 40
0.2703968177
 40
0.4176171811
 40
0.5620242244
 40
0.6957534474
 40
0.8130672784
 40
0.9124731962
 40
0.9571218708
 40
1.0
 40
1.0
 40
1.0
 40
1.0
 10
239.6404252236
 20
400.7996275551
 30
0.0
 10
238.5670360629
 20
400.1799097334
 30
0.0
 10
236.13679145
 20
399.1771835134
 30
0.0
 10
232.1760306918
 20
398.3848278741
 30
0.0
 10
227.9865739793
 20
398.2690634852
 30
0.0
 10
223.9116022111
 20
398.8406824202
 30
0.0
 10
220.2767759825
 20
400.0573133299
 30
0.0
 10
217.364396189
 20
401.8248138289
 30
0.0
 10
215.6680409057
 20
403.7731727747
 30
0.0
 10
214.9977125283
 20
405.4601435039
 30
0.0
 10
214.8874918181
 20
406.3063427578
 30
0.0
 10
214.8874197222
 20
406.7191184654
 30
0.0
  0
SPLINE
  5
286
100
AcDbEntity
  8
0
100
AcDbSpline
 62
7
  6
CONTINUOUS
 70
0
 71
3
 72
16
 73
12
 74
0
 42
0.0000001
 43
0.0000001
 44
0.0000000001
 40
0.0
 40
0.0
 40
0.0
 40
0.0
 40
0.1287501123
 40
0.2703968177
 40
0.4176171811
 40
0.5620242244
 40
0.6957534474
 40
0.8130672784
 40
0.9124731962
 40
0.9571218708
 40
1.0
 40
1.0
 40
1.0
 40
1.0
 10
343.5855548203
 20
340.7882366406
 30
0.0
 10
342.5121656595
 20
340.1685188189
 30
0.0
 10
340.0819210466
 20
339.165792599
 30
0.0
 10
336.1211602884
 20
338.3734369596
 30
0.0
 10
331.9317035759
 20
338.2576725707
 30
0.0
 10
327.8567318077
 20
338.8292915057
 30
0.0
 10
324.2219055791
 20
340.0459224154
 30
0.0
 10
321.3095257856
 20
341.8134229144
 30
0.0
 10
319.6131705023
 20
343.7617818602
 30
0.0
 10
318.9428421249
 20
345.4487525894
 30
0.0
 10
318.8326214147
 20
346.2949518433
 30
0.0
 10
318.8325493188
 20
346.707727551
 30
0.0
  0
SPLINE
  5
287
100
AcDbEntity
  8
0
100
AcDbSpline
 62
7
  6
CONTINUOUS
 70
0
 71
3
 72
15
 73
11
 74
0
 42
0.0000001
 43
0.0000001
 44
0.0000000001
 40
0.0
 40
0.0
 40
0.0
 40
0.0
 40
0.1288320654
 40
0.2705723687
 40
0.4178906197
 40
0.562389031
 40
0.6962036827
 40
0.8135940917
 40
0.9130655393
 40
1.0
 40
1.0
 40
1.0
 40
1.0
 10
326.2616109034
 20
316.9060114281
 30
0.0
 10
325.4843402288
 20
316.4572566736
 30
0.0
 10
323.724514219
 20
315.7311312051
 30
0.0
 10
320.8563702106
 20
315.1573789616
 30
0.0
 10
317.8226014073
 20
315.0734417556
 30
0.0
 10
314.8718355505
 20
315.4879304631
 30
0.0
 10
312.239592257
 20
316.3673442563
 30
0.0
 10
310.13107788
 20
317.6520281854
 30
0.0
 10
308.7026947815
 20
319.2764169663
 30
0.0
 10
308.3369243161
 20
320.5869069805
 30
0.0
 10
308.3370070667
 20
321.1925392307
 30
0.0
  0
SPLINE
  5
288
100
AcDbEntity
  8
0
100
AcDbSpline
 62
7
  6
CONTINUOUS
 70
0
 71
3
 72
9
 73
5
 74
0
 42
0.0000001
 43
0.0000001
 44
0.0000000001
 40
0.0
 40
0.0
 40
0.0
 40
0.0
 40
0.4491565434
 40
1.0
 40
1.0
 40
1.0
 40
1.0
 10
308.2798994943
 20
389.3689914468
 30
0.0
 10
308.2799145294
 20
388.9796084441
 30
0.0
 10
307.939800484
 20
388.1104751886
 30
0.0
 10
307.229226784
 20
387.5665557018
 30
0.0
 10
306.8156665867
 20
387.3277880358
 30
0.0
  0
SPLINE
  5
289
100
AcDbEntity
  8
0
100
AcDbSpline
 62
7
  6
CONTINUOUS
 70
0
 71
3
 72
15
 73
11
 74
0
 42
0.0000001
 43
0.0000001
 44
0.0000000001
 40
0.0
 40
0.0
 40
0.0
 40
0.0
 40
0.1288282493
 40
0.2705764289
 40
0.4178924529
 40
0.5623916177
 40
0.6962056481
 40
0.8135944279
 40
0.9130651203
 40
1.0
 40
1.0
 40
1.0
 40
1.0
 10
270.7532531301
 20
382.4287831476
 30
0.0
 10
270.0500294174
 20
382.0227791713
 30
0.0
 10
268.457765656
 20
381.3658509087
 30
0.0
 10
265.8627921682
 20
380.8466326716
 30
0.0
 10
263.1179111252
 20
380.7707043286
 30
0.0
 10
260.4481779694
 20
381.1456732602
 30
0.0
 10
258.0666498128
 20
381.9413805348
 30
0.0
 10
256.1589836012
 20
383.1037541157
 30
0.0
 10
254.8666744087
 20
384.5733921286
 30
0.0
 10
254.5356431029
 20
385.7591141215
 30
0.0
 10
254.5358837378
 20
386.3070694283
 30
0.0
  0
SPLINE
  5
28A
100
AcDbEntity
  8
0
100
AcDbSpline
 62
7
  6
CONTINUOUS
 70
0
 71
3
 72
9
 73
5
 74
0
 42
0.0000001
 43
0.0000001
 44
0.0000000001
 40
0.0
 40
0.0
 40
0.0
 40
0.0
 40
0.4491565434
 40
1.0
 40
1.0
 40
1.0
 40
1.0
 10
413.2856936786
 20
328.7452394006
 30
0.0
 10
413.2857087137
 20
328.3558563979
 30
0.0
 10
412.9455946683
 20
327.4867231423
 30
0.0
 10
412.2350209684
 20
326.9428036556
 30
0.0
 10
411.821460771
 20
326.7040359896
 30
0.0
  0
SPLINE
  5
28B
100
AcDbEntity
  8
0
100
AcDbSpline
 62
7
  6
CONTINUOUS
 70
0
 71
3
 72
16
 73
12
 74
0
 42
0.0000001
 43
0.0000001
 44
0.0000000001
 40
0.0
 40
0.0
 40
0.0
 40
0.0
 40
0.128747454
 40
0.270393424
 40
0.4176106758
 40
0.5620193413
 40
0.6957500534
 40
0.8130682603
 40
0.9124745427
 40
0.957123221
 40
1.0
 40
1.0
 40
1.0
 40
1.0
 10
128.9781065141
 20
415.2919599255
 30
0.0
 10
127.5716226986
 20
414.4799309631
 30
0.0
 10
124.3871893053
 20
413.1660586267
 30
0.0
 10
119.1973273642
 20
412.1276878672
 30
0.0
 10
113.707704388
 20
411.9759499858
 30
0.0
 10
108.3680788781
 20
412.7250411743
 30
0.0
 10
103.6051347533
 20
414.3193450792
 30
0.0
 10
99.7887531251
 20
416.6352245989
 30
0.0
 10
97.5657694911
 20
419.1882843263
 30
0.0
 10
96.6876761146
 20
421.3988776086
 30
0.0
 10
96.5431749593
 20
422.5076716474
 30
0.0
 10
96.5431613185
 20
423.0485342608
 30
0.0
  0
SPLINE
  5
28C
100
AcDbEntity
  8
0
100
AcDbSpline
 62
7
  6
CONTINUOUS
 70
0
 71
3
 72
15
 73
11
 74
0
 42
0.0000001
 43
0.0000001
 44
0.0000000001
 40
0.0
 40
0.0
 40
0.0
 40
0.0
 40
0.1288282493
 40
0.2705764289
 40
0.4178924529
 40
0.5623916177
 40
0.6962056481
 40
0.8135944279
 40
0.9130651203
 40
1.0
 40
1.0
 40
1.0
 40
1.0
 10
305.4016296623
 20
362.4249861761
 30
0.0
 10
304.6984059496
 20
362.0189821998
 30
0.0
 10
303.1061421882
 20
361.3620539372
 30
0.0
 10
300.5111687004
 20
360.8428357001
 30
0.0
 10
297.7662876574
 20
360.7669073571
 30
0.0
 10
295.0965545016
 20
361.1418762887
 30
0.0
 10
292.715026345
 20
361.9375835633
 30
0.0
 10
290.8073601334
 20
363.0999571442
 30
0.0
 10
289.5150509409
 20
364.5695951571
 30
0.0
 10
289.1840196351
 20
365.75531715
 30
0.0
 10
289.18426027
 20
366.3032724568
 30
0.0
  0
SPLINE
  5
28D
100
AcDbEntity
  8
0
100
AcDbSpline
 62
7
  6
CONTINUOUS
 70
0
 71
3
 72
9
 73
5
 74
0
 42
0.0000001
 43
0.0000001
 44
0.0000000001
 40
0.0
 40
0.0
 40
0.0
 40
0.0
 40
0.4491565434
 40
1.0
 40
1.0
 40
1.0
 40
1.0
 10
413.2860763942
 20
275.6737203551
 30
0.0
 10
413.2860914294
 20
275.2843373524
 30
0.0
 10
412.945977384
 20
274.4152040969
 30
0.0
 10
412.235403684
 20
273.8712846101
 30
0.0
 10
411.8218434867
 20
273.6325169441
 30
0.0
  0
SPLINE
  5
28E
100
AcDbEntity
  8
0
100
AcDbSpline
 62
7
  6
CONTINUOUS
 70
0
 71
3
 72
16
 73
12
 74
0
 42
0.0000001
 43
0.0000001
 44
0.0000000001
 40
0.0
 40
0.0
 40
0.0
 40
0.0
 40
0.128747454
 40
0.270393424
 40
0.4176106758
 40
0.5620193413
 40
0.6957500534
 40
0.8130682603
 40
0.9124745427
 40
0.957123221
 40
1.0
 40
1.0
 40
1.0
 40
1.0
 10
375.7594005904
 20
272.8159365979
 30
0.0
 10
374.3529167749
 20
272.0039076355
 30
0.0
 10
371.1684833816
 20
270.6900352991
 30
0.0
 10
365.9786214405
 20
269.6516645396
 30
0.0
 10
360.4889984643
 20
269.4999266582
 30
0.0
 10
355.1493729544
 20
270.2490178467
 30
0.0
 10
350.3864288296
 20
271.8433217516
 30
0.0
 10
346.5700472014
 20
274.1592012713
 30
0.0
 10
344.3470635674
 20
276.7122609987
 30
0.0
 10
343.4689701909
 20
278.922854281
 30
0.0
 10
343.3244690356
 20
280.0316483198
 30
0.0
 10
343.3244553948
 20
280.5725109332
 30
0.0
  0
SPLINE
  5
28F
100
AcDbEntity
  8
0
100
AcDbSpline
 62
7
  6
CONTINUOUS
 70
0
 71
3
 72
15
 73
11
 74
0
 42
0.0000001
 43
0.0000001
 44
0.0000000001
 40
0.0
 40
0.0
 40
0.0
 40
0.0
 40
0.1288320654
 40
0.2705723687
 40
0.4178906197
 40
0.562389031
 40
0.6962036827
 40
0.8135940917
 40
0.9130655393
 40
1.0
 40
1.0
 40
1.0
 40
1.0
 10
202.870719516
 20
421.6198955816
 30
0.0
 10
202.0194230629
 20
421.1284022791
 30
0.0
 10
200.091994576
 20
420.333122004
 30
0.0
 10
196.9506939953
 20
419.7047266897
 30
0.0
 10
193.6279948298
 20
419.6127954641
 30
0.0
 10
190.3962036533
 20
420.0667592866
 30
0.0
 10
187.5132705223
 20
421.0299267744
 30
0.0
 10
185.2039452523
 20
422.4369615539
 30
0.0
 10
183.6395256683
 20
424.2160540282
 30
0.0
 10
183.2389199204
 20
425.6513526152
 30
0.0
 10
183.239010552
 20
426.3146641273
 30
0.0
  0
SPLINE
  5
290
100
AcDbEntity
  8
0
100
AcDbSpline
 62
7
  6
CONTINUOUS
 70
0
 71
3
 72
9
 73
5
 74
0
 42
0.0000001
 43
0.0000001
 44
0.0000000001
 40
0.0
 40
0.0
 40
0.0
 40
0.0
 40
0.4491565434
 40
1.0
 40
1.0
 40
1.0
 40
1.0
 10
321.3621948408
 20
275.6734993973
 30
0.0
 10
321.3622098759
 20
275.2841163946
 30
0.0
 10
321.0220958305
 20
274.414983139
 30
0.0
 10
320.3115221306
 20
273.8710636523
 30
0.0
 10
319.8979619332
 20
273.6322959863
 30
0.0
  0
SPLINE
  5
291
100
AcDbEntity
  8
0
100
AcDbSpline
 62
7
  6
CONTINUOUS
 70
0
 71
3
 72
15
 73
11
 74
0
 42
0.0000001
 43
0.0000001
 44
0.0000000001
 40
0.0
 40
0.0
 40
0.0
 40
0.0
 40
0.1288320654
 40
0.2705723687
 40
0.4178906197
 40
0.562389031
 40
0.6962036827
 40
0.8135940917
 40
0.9130655393
 40
1.0
 40
1.0
 40
1.0
 40
1.0
 10
376.112602177
 20
321.6009107241
 30
0.0
 10
375.2613057239
 20
321.1094174216
 30
0.0
 10
373.333877237
 20
320.3141371465
 30
0.0
 10
370.1925766564
 20
319.6857418322
 30
0.0
 10
366.8698774908
 20
319.5938106066
 30
0.0
 10
363.6380863143
 20
320.0477744291
 30
0.0
 10
360.7551531833
 20
321.0109419169
 30
0.0
 10
358.4458279133
 20
322.4179766964
 30
0.0
 10
356.8814083293
 20
324.1970691707
 30
0.0
 10
356.4808025815
 20
325.6323677577
 30
0.0
 10
356.480893213
 20
326.2956792698
 30
0.0
  0
SPLINE
  5
292
100
AcDbEntity
  8
0
100
AcDbSpline
 62
7
  6
CONTINUOUS
 70
0
 71
3
 72
15
 73
11
 74
0
 42
0.0000001
 43
0.0000001
 44
0.0000000001
 40
0.0
 40
0.0
 40
0.0
 40
0.0
 40
0.1288320654
 40
0.2705723687
 40
0.4178906197
 40
0.562389031
 40
0.6962036827
 40
0.8135940917
 40
0.9130655393
 40
1.0
 40
1.0
 40
1.0
 40
1.0
 10
166.1010138084
 20
442.8484148166
 30
0.0
 10
165.2497173553
 20
442.3569215141
 30
0.0
 10
163.3222888684
 20
441.561641239
 30
0.0
 10
160.1809882877
 20
440.9332459248
 30
0.0
 10
156.8582891222
 20
440.8413146992
 30
0.0
 10
153.6264979457
 20
441.2952785216
 30
0.0
 10
150.7435648147
 20
442.2584460095
 30
0.0
 10
148.4342395447
 20
443.665480789
 30
0.0
 10
146.8698199606
 20
445.4445732633
 30
0.0
 10
146.4692142128
 20
446.8798718502
 30
0.0
 10
146.4693048444
 20
447.5431833624
 30
0.0
  0
SPLINE
  5
293
100
AcDbEntity
  8
0
100
AcDbSpline
 62
7
  6
CONTINUOUS
 70
0
 71
3
 72
9
 73
5
 74
0
 42
0.0000001
 43
0.0000001
 44
0.0000000001
 40
0.0
 40
0.0
 40
0.0
 40
0.0
 40
0.4491565434
 40
1.0
 40
1.0
 40
1.0
 40
1.0
 10
111.3506064721
 20
396.9210034898
 30
0.0
 10
111.3506215073
 20
396.5316204871
 30
0.0
 10
111.0105074619
 20
395.6624872316
 30
0.0
 10
110.2999337619
 20
395.1185677448
 30
0.0
 10
109.8863735646
 20
394.8798000788
 30
0.0
  0
SPLINE
  5
294
100
AcDbEntity
  8
0
100
AcDbSpline
 62
7
  6
CONTINUOUS
 70
0
 71
3
 72
15
 73
11
 74
0
 42
0.0000001
 43
0.0000001
 44
0.0000000001
 40
0.0
 40
0.0
 40
0.0
 40
0.0
 40
0.1288320654
 40
0.2705723687
 40
0.4178906197
 40
0.562389031
 40
0.6962036827
 40
0.8135940917
 40
0.9130655393
 40
1.0
 40
1.0
 40
1.0
 40
1.0
 10
412.8823078847
 20
300.3723914891
 30
0.0
 10
412.0310114316
 20
299.8808981865
 30
0.0
 10
410.1035829447
 20
299.0856179115
 30
0.0
 10
406.962282364
 20
298.4572225972
 30
0.0
 10
403.6395831985
 20
298.3652913716
 30
0.0
 10
400.407792022
 20
298.8192551941
 30
0.0
 10
397.524858891
 20
299.7824226819
 30
0.0
 10
395.215533621
 20
301.1894574614
 30
0.0
 10
393.6511140369
 20
302.9685499357
 30
0.0
 10
393.2505082891
 20
304.4038485227
 30
0.0
 10
393.2505989207
 20
305.0671600348
 30
0.0
  0
SPLINE
  5
295
100
AcDbEntity
  8
0
100
AcDbSpline
 62
7
  6
CONTINUOUS
 70
0
 71
3
 72
9
 73
5
 74
0
 42
0.0000001
 43
0.0000001
 44
0.0000000001
 40
0.0
 40
0.0
 40
0.0
 40
0.0
 40
0.4491565434
 40
1.0
 40
1.0
 40
1.0
 40
1.0
 10
111.3502237565
 20
449.9925225353
 30
0.0
 10
111.3502387916
 20
449.6031395326
 30
0.0
 10
111.0101247462
 20
448.734006277
 30
0.0
 10
110.2995510462
 20
448.1900867903
 30
0.0
 10
109.8859908489
 20
447.9513191243
 30
0.0
  0
SPLINE
  5
296
100
AcDbEntity
  8
0
100
AcDbSpline
 62
7
  6
CONTINUOUS
 70
0
 71
3
 72
9
 73
5
 74
0
 42
0.0000001
 43
0.0000001
 44
0.0000000001
 40
0.0
 40
0.0
 40
0.0
 40
0.0
 40
0.4491565434
 40
1.0
 40
1.0
 40
1.0
 40
1.0
 10
203.2741053099
 20
449.9927434931
 30
0.0
 10
203.2741203451
 20
449.6033604904
 30
0.0
 10
202.9340062997
 20
448.7342272349
 30
0.0
 10
202.2234325997
 20
448.1903077481
 30
0.0
 10
201.8098724024
 20
447.9515400821
 30
0.0
  0
SPLINE
  5
297
100
AcDbEntity
  8
0
100
AcDbSpline
 62
7
  6
CONTINUOUS
 70
0
 71
3
 72
15
 73
11
 74
0
 42
0.0000001
 43
0.0000001
 44
0.0000000001
 40
0.0
 40
0.0
 40
0.0
 40
0.0
 40
0.1288282493
 40
0.2705764289
 40
0.4178924529
 40
0.5623916177
 40
0.6962056481
 40
0.8135944279
 40
0.9130651203
 40
1.0
 40
1.0
 40
1.0
 40
1.0
 10
236.1048765979
 20
402.4325801191
 30
0.0
 10
235.4016528852
 20
402.0265761428
 30
0.0
 10
233.8093891238
 20
401.3696478802
 30
0.0
 10
231.214415636
 20
400.8504296431
 30
0.0
 10
228.469534593
 20
400.7745013001
 30
0.0
 10
225.7998014371
 20
401.1494702317
 30
0.0
 10
223.4182732806
 20
401.9451775063
 30
0.0
 10
221.510607069
 20
403.1075510872
 30
0.0
 10
220.2182978765
 20
404.5771891001
 30
0.0
 10
219.8872665707
 20
405.762911093
 30
0.0
 10
219.8875072056
 20
406.3108663998
 30
0.0
  0
SPLINE
  5
298
100
AcDbEntity
  8
0
100
AcDbSpline
 62
7
  6
CONTINUOUS
 70
0
 71
3
 72
13
 73
9
 74
0
 42
0.0000001
 43
0.0000001
 44
0.0000000001
 40
0.0
 40
0.0
 40
0.0
 40
0.0
 40
0.114936059
 40
0.2382782127
 40
0.5000009938
 40
0.7617231852
 40
0.885064593
 40
1.0
 40
1.0
 40
1.0
 40
1.0
 10
188.6675755574
 20
468.0544421133
 30
0.0
 10
186.1634443341
 20
469.5001702424
 30
0.0
 10
180.7044105364
 20
472.0464163208
 30
0.0
 10
168.6411722312
 20
475.7159021757
 30
0.0
 10
152.3121615358
 20
477.4985759722
 30
0.0
 10
135.9831790892
 20
475.7158141635
 30
0.0
 10
123.9200103771
 20
472.0462710427
 30
0.0
 10
118.4610254744
 20
469.5000029193
 30
0.0
 10
115.9569188832
 20
468.0542649346
 30
0.0
  0
SPLINE
  5
299
100
AcDbEntity
  8
0
100
AcDbSpline
 62
7
  6
CONTINUOUS
 70
0
 71
3
 72
15
 73
11
 74
0
 42
0.0000001
 43
0.0000001
 44
0.0000000001
 40
0.0
 40
0.0
 40
0.0
 40
0.0
 40
0.1288282493
 40
0.2705764289
 40
0.4178924529
 40
0.5623916177
 40
0.6962056481
 40
0.8135944279
 40
0.9130651203
 40
1.0
 40
1.0
 40
1.0
 40
1.0
 10
340.0500061945
 20
342.4211892047
 30
0.0
 10
339.3467824818
 20
342.0151852283
 30
0.0
 10
337.7545187204
 20
341.3582569657
 30
0.0
 10
335.1595452326
 20
340.8390387286
 30
0.0
 10
332.4146641896
 20
340.7631103857
 30
0.0
 10
329.7449310338
 20
341.1380793172
 30
0.0
 10
327.3634028772
 20
341.9337865918
 30
0.0
 10
325.4557366656
 20
343.0961601727
 30
0.0
 10
324.1634274731
 20
344.5657981856
 30
0.0
 10
323.8323961673
 20
345.7515201785
 30
0.0
 10
323.8326368022
 20
346.2994754853
 30
0.0
  0
SPLINE
  5
29A
100
AcDbEntity
  8
0
100
AcDbSpline
 62
7
  6
CONTINUOUS
 70
0
 71
3
 72
11
 73
7
 74
0
 42
0.0000001
 43
0.0000001
 44
0.0000000001
 40
0.0
 40
0.0
 40
0.0
 40
0.0
 40
0.2832355745
 40
0.5402753063
 40
0.7761070032
 40
1.0
 40
1.0
 40
1.0
 40
1.0
 10
74.2377924876
 20
443.9678598562
 30
0.0
 10
71.9221086276
 20
442.6309071368
 30
0.0
 10
67.695635589
 20
439.7149524127
 30
0.0
 10
62.6157357266
 20
434.3438162391
 30
0.0
 10
59.3582692693
 20
428.3073951532
 30
0.0
 10
58.5932742681
 20
423.9374558451
 30
0.0
 10
58.5932742681
 20
421.8237687379
 30
0.0
  0
SPLINE
  5
29B
100
AcDbEntity
  8
0
100
AcDbSpline
 62
7
  6
CONTINUOUS
 70
0
 71
3
 72
11
 73
7
 74
0
 42
0.0000001
 43
0.0000001
 44
0.0000000001
 40
0.0
 40
0.0
 40
0.0
 40
0.0
 40
0.2238922778
 40
0.4597239616
 40
0.7167640015
 40
1.0
 40
1.0
 40
1.0
 40
1.0
 10
456.043462816
 20
300.5764652071
 30
0.0
 10
456.043462816
 20
302.6901717926
 30
0.0
 10
455.2784502116
 20
307.0601584277
 30
0.0
 10
452.0209184971
 20
313.0966381778
 30
0.0
 10
446.9409153491
 20
318.4678137464
 30
0.0
 10
442.714363454
 20
321.3837788682
 30
0.0
 10
440.3986377097
 20
322.7207335041
 30
0.0
  0
SPLINE
  5
29C
100
AcDbEntity
  8
0
100
AcDbSpline
 62
7
  6
CONTINUOUS
 70
0
 71
3
 72
11
 73
7
 74
0
 42
0.0000001
 43
0.0000001
 44
0.0000000001
 40
0.0
 40
0.0
 40
0.0
 40
0.0
 40
0.2177701814
 40
0.4509523282
 40
0.7101893638
 40
1.0
 40
1.0
 40
1.0
 40
1.0
 10
456.043266654
 20
295.6774507042
 30
0.0
 10
456.0432666972
 20
293.6969549205
 30
0.0
 10
455.3123578675
 20
289.5680615868
 30
0.0
 10
452.1815442612
 20
283.8178655338
 30
0.0
 10
447.2360324222
 20
278.6166386964
 30
0.0
 10
443.0957227795
 20
275.766756917
 30
0.0
 10
440.8131685237
 20
274.4489314693
 30
0.0
  0
SPLINE
  5
29D
100
AcDbEntity
  8
0
100
AcDbSpline
 62
7
  6
CONTINUOUS
 70
0
 71
3
 72
15
 73
11
 74
0
 42
0.0000001
 43
0.0000001
 44
0.0000000001
 40
0.0
 40
0.0
 40
0.0
 40
0.0
 40
0.1438984257
 40
0.2727088573
 40
0.38889131
 40
0.4978462871
 40
0.6071906335
 40
0.7244114649
 40
0.8546288968
 40
1.0
 40
1.0
 40
1.0
 40
1.0
 10
74.5783672864
 20
443.4808286753
 30
0.0
 10
72.4512198531
 20
442.2054034709
 30
0.0
 10
68.5995025076
 20
439.4562595997
 30
0.0
 10
64.0314218455
 20
434.4703348309
 30
0.0
 10
61.182705503
 20
428.9763147304
 30
0.0
 10
60.265020454
 20
423.1720558318
 30
0.0
 10
61.378059772
 20
417.3853286244
 30
0.0
 10
64.4034084493
 20
411.9338553758
 30
0.0
 10
69.1278824487
 20
407.0048555609
 30
0.0
 10
73.0681809423
 20
404.2973307323
 30
0.0
 10
75.2381044932
 20
403.0445531276
 30
0.0
  0
SPLINE
  5
29E
100
AcDbEntity
  8
0
100
AcDbSpline
 62
7
  6
CONTINUOUS
 70
0
 71
3
 72
13
 73
9
 74
0
 42
0.0000001
 43
0.0000001
 44
0.0000000001
 40
0.0
 40
0.0
 40
0.0
 40
0.0
 40
0.1142600422
 40
0.2375373354
 40
0.5000005127
 40
0.7624634095
 40
0.8857403755
 40
1.0
 40
1.0
 40
1.0
 40
1.0
 10
187.6676146108
 20
467.9553735929
 30
0.0
 10
185.2471791211
 20
469.3527810608
 30
0.0
 10
179.9544263087
 20
471.8178821309
 30
0.0
 10
168.2236745359
 20
475.3798146993
 30
0.0
 10
152.3121986728
 20
477.1112614333
 30
0.0
 10
136.4007379167
 20
475.3797413458
 30
0.0
 10
124.670029596
 20
471.8177510597
 30
0.0
 10
119.3773088842
 20
469.3526234386
 30
0.0
 10
116.9568923207
 20
467.9552036255
 30
0.0
  0
SPLINE
  5
29F
100
AcDbEntity
  8
0
100
AcDbSpline
 62
7
  6
CONTINUOUS
 70
0
 71
3
 72
10
 73
6
 74
0
 42
0.0000001
 43
0.0000001
 44
0.0000000001
 40
0.0
 40
0.0
 40
0.0
 40
0.0
 40
0.2263128243
 40
0.463610102
 40
1.0
 40
1.0
 40
1.0
 40
1.0
 10
393.2505989207
 20
305.0671600348
 30
0.0
 10
393.2506478149
 20
305.4250054888
 30
0.0
 10
393.3564082933
 20
306.1618128242
 30
0.0
 10
393.994388866
 20
307.6244513581
 30
0.0
 10
394.8781390691
 20
308.5328003052
 30
0.0
 10
395.5501689473
 20
309.0502123996
 30
0.0
  0
SPLINE
  5
2A0
100
AcDbEntity
  8
0
100
AcDbSpline
 62
7
  6
CONTINUOUS
 70
0
 71
3
 72
9
 73
5
 74
0
 42
0.0000001
 43
0.0000001
 44
0.0000000001
 40
0.0
 40
0.0
 40
0.0
 40
0.0
 40
0.2432778937
 40
1.0
 40
1.0
 40
1.0
 40
1.0
 10
395.5501689473
 20
309.0502123996
 30
0.0
 10
395.632701633
 20
309.1137563151
 30
0.0
 10
395.9766344944
 20
309.3688482529
 30
0.0
 10
396.3381960186
 20
309.5999321443
 30
0.0
 10
396.6187842063
 20
309.761928843
 30
0.0
  0
SPLINE
  5
2A1
100
AcDbEntity
  8
0
100
AcDbSpline
 62
7
  6
CONTINUOUS
 70
0
 71
3
 72
13
 73
9
 74
0
 42
0.0000001
 43
0.0000001
 44
0.0000000001
 40
0.0
 40
0.0
 40
0.0
 40
0.0
 40
0.2698956012
 40
0.5613257437
 40
0.6954661216
 40
0.8131446799
 40
0.9128555334
 40
1.0
 40
1.0
 40
1.0
 40
1.0
 10
194.7387751509
 20
452.0339476273
 30
0.0
 10
195.5122723011
 20
452.4805237495
 30
0.0
 10
197.3612789955
 20
452.9810196118
 30
0.0
 10
199.6991695467
 20
452.8625542866
 30
0.0
 10
201.4159076485
 20
452.2906485063
 30
0.0
 10
202.4198624244
 20
451.6786025089
 30
0.0
 10
203.1001171534
 20
450.9051819709
 30
0.0
 10
203.2740941746
 20
450.281127683
 30
0.0
 10
203.2741053099
 20
449.9927434931
 30
0.0
  0
SPLINE
  5
2A2
100
AcDbEntity
  8
0
100
AcDbSpline
 62
7
  6
CONTINUOUS
 70
0
 71
3
 72
13
 73
9
 74
0
 42
0.0000001
 43
0.0000001
 44
0.0000000001
 40
0.0
 40
0.0
 40
0.0
 40
0.0
 40
0.2698956012
 40
0.5613257437
 40
0.6954661216
 40
0.8131446799
 40
0.9128555334
 40
1.0
 40
1.0
 40
1.0
 40
1.0
 10
102.8148935974
 20
452.0337266695
 30
0.0
 10
103.5883907477
 20
452.4803027917
 30
0.0
 10
105.437397442
 20
452.980798654
 30
0.0
 10
107.7752879933
 20
452.8623333288
 30
0.0
 10
109.4920260951
 20
452.2904275485
 30
0.0
 10
110.495980871
 20
451.6783815511
 30
0.0
 10
111.1762355999
 20
450.9049610131
 30
0.0
 10
111.3502126212
 20
450.2809067252
 30
0.0
 10
111.3502237565
 20
449.9925225353
 30
0.0
  0
SPLINE
  5
2A3
100
AcDbEntity
  8
0
100
AcDbSpline
 62
7
  6
CONTINUOUS
 70
0
 71
3
 72
11
 73
7
 74
0
 42
0.0000001
 43
0.0000001
 44
0.0000000001
 40
0.0
 40
0.0
 40
0.0
 40
0.0
 40
0.2177827477
 40
0.4509152641
 40
0.7103063952
 40
1.0
 40
1.0
 40
1.0
 40
1.0
 10
305.5694375414
 20
294.4526542203
 30
0.0
 10
305.5694973894
 20
294.8906680446
 30
0.0
 10
305.7312695481
 20
295.8036379713
 30
0.0
 10
306.42342784
 20
297.0757042732
 30
0.0
 10
307.5175665563
 20
298.2255571821
 30
0.0
 10
308.4330375939
 20
298.8561023473
 30
0.0
 10
308.937622827
 20
299.1474230285
 30
0.0
  0
SPLINE
  5
2A4
100
AcDbEntity
  8
0
100
AcDbSpline
 62
7
  6
CONTINUOUS
 70
0
 71
3
 72
13
 73
9
 74
0
 42
0.0000001
 43
0.0000001
 44
0.0000000001
 40
0.0
 40
0.0
 40
0.0
 40
0.0
 40
0.2698956012
 40
0.5613257437
 40
0.6954661216
 40
0.8131446799
 40
0.9128555334
 40
1.0
 40
1.0
 40
1.0
 40
1.0
 10
102.8152763131
 20
398.962207624
 30
0.0
 10
103.5887734633
 20
399.4087837462
 30
0.0
 10
105.4377801577
 20
399.9092796085
 30
0.0
 10
107.7756707089
 20
399.7908142833
 30
0.0
 10
109.4924088107
 20
399.2189085031
 30
0.0
 10
110.4963635866
 20
398.6068625056
 30
0.0
 10
111.1766183156
 20
397.8334419676
 30
0.0
 10
111.3505953368
 20
397.2093876797
 30
0.0
 10
111.3506064721
 20
396.9210034898
 30
0.0
  0
SPLINE
  5
2A5
100
AcDbEntity
  8
0
100
AcDbSpline
 62
7
  6
CONTINUOUS
 70
0
 71
3
 72
16
 73
12
 74
0
 42
0.0000001
 43
0.0000001
 44
0.0000000001
 40
0.0
 40
0.0
 40
0.0
 40
0.0
 40
0.0429319729
 40
0.0879771014
 40
0.1886198765
 40
0.3069118268
 40
0.4409414816
 40
0.5849749013
 40
0.731366005
 40
0.8720473485
 40
1.0
 40
1.0
 40
1.0
 40
1.0
 10
423.2371281234
 20
305.4722850562
 30
0.0
 10
423.202961009
 20
305.99275349
 30
0.0
 10
422.9949434652
 20
307.0542956746
 30
0.0
 10
422.028147119
 20
309.151825152
 30
0.0
 10
419.7810375071
 20
311.5475941323
 30
0.0
 10
416.0348232818
 20
313.7121648319
 30
0.0
 10
411.4175868592
 20
315.1859382651
 30
0.0
 10
406.2802137735
 20
315.8568906416
 30
0.0
 10
401.0212666814
 20
315.6763169999
 30
0.0
 10
396.0587797384
 20
314.6602251018
 30
0.0
 10
393.0152729158
 20
313.3968712026
 30
0.0
 10
391.6690161302
 20
312.6196141247
 30
0.0
  0
SPLINE
  5
2A6
100
AcDbEntity
  8
0
100
AcDbSpline
 62
7
  6
CONTINUOUS
 70
0
 71
3
 72
13
 73
9
 74
0
 42
0.0000001
 43
0.0000001
 44
0.0000000001
 40
0.0
 40
0.0
 40
0.0
 40
0.0
 40
0.2698956012
 40
0.5613257437
 40
0.6954661216
 40
0.8131446799
 40
0.9128555334
 40
1.0
 40
1.0
 40
1.0
 40
1.0
 10
312.8268646817
 20
277.7147035315
 30
0.0
 10
313.600361832
 20
278.1612796537
 30
0.0
 10
315.4493685264
 20
278.661775516
 30
0.0
 10
317.7872590776
 20
278.5433101908
 30
0.0
 10
319.5039971794
 20
277.9714044105
 30
0.0
 10
320.5079519553
 20
277.3593584131
 30
0.0
 10
321.1882066842
 20
276.5859378751
 30
0.0
 10
321.3621837055
 20
275.9618835872
 30
0.0
 10
321.3621948408
 20
275.6734993973
 30
0.0
  0
SPLINE
  5
2A7
100
AcDbEntity
  8
0
100
AcDbSpline
 62
7
  6
CONTINUOUS
 70
0
 71
3
 72
13
 73
9
 74
0
 42
0.0000001
 43
0.0000001
 44
0.0000000001
 40
0.0
 40
0.0
 40
0.0
 40
0.0
 40
0.0879104041
 40
0.1894644064
 40
0.3736087518
 40
0.586254702
 40
0.8036017038
 40
1.0
 40
1.0
 40
1.0
 40
1.0
 10
150.3577247974
 20
397.3117057851
 30
0.0
 10
150.2907124681
 20
397.9667218524
 30
0.0
 10
149.7623874309
 20
399.3482391178
 30
0.0
 10
147.7636316549
 20
401.3773342765
 30
0.0
 10
144.3079038952
 20
402.9914708021
 30
0.0
 10
139.7245871004
 20
403.7338055474
 30
0.0
 10
135.0067226809
 20
403.3775774169
 30
0.0
 10
132.0198906165
 20
402.351334773
 30
0.0
 10
130.74597209
 20
401.6158419591
 30
0.0
  0
SPLINE
  5
2A8
100
AcDbEntity
  8
0
100
AcDbSpline
 62
7
  6
CONTINUOUS
 70
0
 71
3
 72
13
 73
9
 74
0
 42
0.0000001
 43
0.0000001
 44
0.0000000001
 40
0.0
 40
0.0
 40
0.0
 40
0.0
 40
0.2698956012
 40
0.5613257437
 40
0.6954661216
 40
0.8131446799
 40
0.9128555334
 40
1.0
 40
1.0
 40
1.0
 40
1.0
 10
404.7507462352
 20
277.7149244893
 30
0.0
 10
405.5242433855
 20
278.1615006115
 30
0.0
 10
407.3732500798
 20
278.6619964738
 30
0.0
 10
409.711140631
 20
278.5435311486
 30
0.0
 10
411.4278787328
 20
277.9716253684
 30
0.0
 10
412.4318335087
 20
277.3595793709
 30
0.0
 10
413.1120882377
 20
276.5861588329
 30
0.0
 10
413.2860652589
 20
275.962104545
 30
0.0
 10
413.2860763942
 20
275.6737203551
 30
0.0
  0
SPLINE
  5
2A9
100
AcDbEntity
  8
0
100
AcDbSpline
 62
7
  6
CONTINUOUS
 70
0
 71
3
 72
11
 73
7
 74
0
 42
0.0000001
 43
0.0000001
 44
0.0000000001
 40
0.0
 40
0.0
 40
0.0
 40
0.0
 40
0.217779011
 40
0.4509222696
 40
0.7102587576
 40
1.0
 40
1.0
 40
1.0
 40
1.0
 10
318.8325493188
 20
346.707727551
 30
0.0
 10
318.8324528586
 20
347.2599973947
 30
0.0
 10
319.0366904148
 20
348.4111547123
 30
0.0
 10
319.909239276
 20
350.0149475476
 30
0.0
 10
321.2886801596
 20
351.4649377339
 30
0.0
 10
322.4430508287
 20
352.2598400584
 30
0.0
 10
323.079372791
 20
352.6272185217
 30
0.0
  0
SPLINE
  5
2AA
100
AcDbEntity
  8
0
100
AcDbSpline
 62
7
  6
CONTINUOUS
 70
0
 71
3
 72
13
 73
9
 74
0
 42
0.0000001
 43
0.0000001
 44
0.0000000001
 40
0.0
 40
0.0
 40
0.0
 40
0.0
 40
0.2698956012
 40
0.5613257437
 40
0.6954661216
 40
0.8131446799
 40
0.9128555334
 40
1.0
 40
1.0
 40
1.0
 40
1.0
 10
404.7503635195
 20
330.7864435348
 30
0.0
 10
405.5238606698
 20
331.233019657
 30
0.0
 10
407.3728673642
 20
331.7335155193
 30
0.0
 10
409.7107579154
 20
331.6150501941
 30
0.0
 10
411.4274960172
 20
331.0431444138
 30
0.0
 10
412.4314507931
 20
330.4310984163
 30
0.0
 10
413.111705522
 20
329.6576778784
 30
0.0
 10
413.2856825433
 20
329.0336235905
 30
0.0
 10
413.2856936786
 20
328.7452394006
 30
0.0
  0
SPLINE
  5
2AB
100
AcDbEntity
  8
0
100
AcDbSpline
 62
7
  6
CONTINUOUS
 70
0
 71
3
 72
11
 73
7
 74
0
 42
0.0000001
 43
0.0000001
 44
0.0000000001
 40
0.0
 40
0.0
 40
0.0
 40
0.0
 40
0.2177827477
 40
0.4509152641
 40
0.7103063952
 40
1.0
 40
1.0
 40
1.0
 40
1.0
 10
127.3777868044
 20
397.3293243594
 30
0.0
 10
127.3778466524
 20
397.7673381837
 30
0.0
 10
127.5396188111
 20
398.6803081104
 30
0.0
 10
128.231777103
 20
399.9523744123
 30
0.0
 10
129.3259158193
 20
401.1022273212
 30
0.0
 10
130.2413868569
 20
401.7327724864
 30
0.0
 10
130.74597209
 20
402.0240931676
 30
0.0
  0
SPLINE
  5
2AC
100
AcDbEntity
  8
0
100
AcDbSpline
 62
7
  6
CONTINUOUS
 70
0
 71
3
 72
13
 73
9
 74
0
 42
0.0000001
 43
0.0000001
 44
0.0000000001
 40
0.0
 40
0.0
 40
0.0
 40
0.0
 40
0.2698956012
 40
0.5613257437
 40
0.6954661216
 40
0.8131446799
 40
0.9128555334
 40
1.0
 40
1.0
 40
1.0
 40
1.0
 10
299.7445693352
 20
391.410195581
 30
0.0
 10
300.5180664855
 20
391.8567717032
 30
0.0
 10
302.3670731798
 20
392.3572675655
 30
0.0
 10
304.7049637311
 20
392.2388022403
 30
0.0
 10
306.4217018329
 20
391.6668964601
 30
0.0
 10
307.4256566088
 20
391.0548504626
 30
0.0
 10
308.1059113377
 20
390.2814299247
 30
0.0
 10
308.2798883589
 20
389.6573756367
 30
0.0
 10
308.2798994943
 20
389.3689914468
 30
0.0
  0
SPLINE
  5
2AD
100
AcDbEntity
  8
0
100
AcDbSpline
 62
7
  6
CONTINUOUS
 70
0
 71
3
 72
14
 73
10
 74
0
 42
0.0000001
 43
0.0000001
 44
0.0000000001
 40
0.0
 40
0.0
 40
0.0
 40
0.0
 40
0.0881293517
 40
0.1901029291
 40
0.3094616718
 40
0.4439667805
 40
0.5878883577
 40
0.7337715059
 40
1.0
 40
1.0
 40
1.0
 40
1.0
 10
350.3864182858
 20
308.3138048436
 30
0.0
 10
350.3200292488
 20
308.8415086645
 30
0.0
 10
349.8698622815
 20
309.9476165836
 30
0.0
 10
348.5209926349
 20
311.2854697632
 30
0.0
 10
346.6251737622
 20
312.3363403816
 30
0.0
 10
344.3157160568
 20
313.0403993255
 30
0.0
 10
341.7595641648
 20
313.3519017447
 30
0.0
 10
338.4045539838
 20
313.2152264257
 30
0.0
 10
335.9262378189
 20
312.5246886628
 30
0.0
 10
334.5347946876
 20
311.7213433917
 30
0.0
  0
SPLINE
  5
2AE
100
AcDbEntity
  8
0
100
AcDbSpline
 62
7
  6
CONTINUOUS
 70
0
 71
3
 72
13
 73
9
 74
0
 42
0.0000001
 43
0.0000001
 44
0.0000000001
 40
0.0
 40
0.0
 40
0.0
 40
0.0
 40
0.2698956012
 40
0.5613257437
 40
0.6954661216
 40
0.8131446799
 40
0.9128555334
 40
1.0
 40
1.0
 40
1.0
 40
1.0
 10
207.8210704974
 20
338.3384555777
 30
0.0
 10
208.5945676477
 20
338.7850316999
 30
0.0
 10
210.443574342
 20
339.2855275622
 30
0.0
 10
212.7814648933
 20
339.167062237
 30
0.0
 10
214.4982029951
 20
338.5951564568
 30
0.0
 10
215.502157771
 20
337.9831104593
 30
0.0
 10
216.1824124999
 20
337.2096899214
 30
0.0
 10
216.3563895211
 20
336.5856356334
 30
0.0
 10
216.3564006565
 20
336.2972514435
 30
0.0
  0
SPLINE
  5
2AF
100
AcDbEntity
  8
0
100
AcDbSpline
 62
7
  6
CONTINUOUS
 70
0
 71
3
 72
11
 73
7
 74
0
 42
0.0000001
 43
0.0000001
 44
0.0000000001
 40
0.0
 40
0.0
 40
0.0
 40
0.0
 40
0.217779011
 40
0.4509222696
 40
0.7102587576
 40
1.0
 40
1.0
 40
1.0
 40
1.0
 10
214.8874197222
 20
406.7191184654
 30
0.0
 10
214.887323262
 20
407.2713883092
 30
0.0
 10
215.0915608182
 20
408.4225456268
 30
0.0
 10
215.9641096794
 20
410.0263384621
 30
0.0
 10
217.343550563
 20
411.4763286483
 30
0.0
 10
218.4979212321
 20
412.2712309729
 30
0.0
 10
219.1342431944
 20
412.6386094362
 30
0.0
  0
SPLINE
  5
2B0
100
AcDbEntity
  8
0
100
AcDbSpline
 62
7
  6
CONTINUOUS
 70
0
 71
3
 72
16
 73
12
 74
0
 42
0.0000001
 43
0.0000001
 44
0.0000000001
 40
0.0
 40
0.0
 40
0.0
 40
0.0
 40
0.1287501123
 40
0.2703968177
 40
0.4176171811
 40
0.5620242244
 40
0.6957534474
 40
0.8130672784
 40
0.9124731962
 40
0.9571218708
 40
1.0
 40
1.0
 40
1.0
 40
1.0
 10
253.7826197266
 20
392.6348124647
 30
0.0
 10
254.8560088873
 20
393.2545302864
 30
0.0
 10
257.2862535002
 20
394.2572565064
 30
0.0
 10
261.2470142584
 20
395.0496121457
 30
0.0
 10
265.4364709709
 20
395.1653765346
 30
0.0
 10
269.5114427392
 20
394.5937575996
 30
0.0
 10
273.1462689677
 20
393.3771266899
 30
0.0
 10
276.0586487613
 20
391.6096261909
 30
0.0
 10
277.7550040445
 20
389.6612672451
 30
0.0
 10
278.4253324219
 20
387.9742965159
 30
0.0
 10
278.5355531322
 20
387.128097262
 30
0.0
 10
278.5356252281
 20
386.7153215544
 30
0.0
  0
SPLINE
  5
2B1
100
AcDbEntity
  8
0
100
AcDbSpline
 62
7
  6
CONTINUOUS
 70
0
 71
3
 72
15
 73
11
 74
0
 42
0.0000001
 43
0.0000001
 44
0.0000000001
 40
0.0
 40
0.0
 40
0.0
 40
0.0
 40
0.1288320654
 40
0.2705723687
 40
0.4178906197
 40
0.562389031
 40
0.6962036827
 40
0.8135940917
 40
0.9130655393
 40
1.0
 40
1.0
 40
1.0
 40
1.0
 10
190.1431890023
 20
367.7318697879
 30
0.0
 10
190.9944854554
 20
368.2233630905
 30
0.0
 10
192.9219139423
 20
369.0186433655
 30
0.0
 10
196.063214523
 20
369.6470386798
 30
0.0
 10
199.3859136885
 20
369.7389699054
 30
0.0
 10
202.617704865
 20
369.285006083
 30
0.0
 10
205.500637996
 20
368.3218385951
 30
0.0
 10
207.809963266
 20
366.9148038156
 30
0.0
 10
209.37438285
 20
365.1357113413
 30
0.0
 10
209.7749885979
 20
363.7004127544
 30
0.0
 10
209.7748979663
 20
363.0371012422
 30
0.0
  0
SPLINE
  5
2B2
100
AcDbEntity
  8
0
100
AcDbSpline
 62
7
  6
CONTINUOUS
 70
0
 71
3
 72
11
 73
7
 74
0
 42
0.0000001
 43
0.0000001
 44
0.0000000001
 40
0.0
 40
0.0
 40
0.0
 40
0.0
 40
0.2177713702
 40
0.4509290507
 40
0.7102263481
 40
1.0
 40
1.0
 40
1.0
 40
1.0
 10
386.2506817457
 20
305.475411368
 30
0.0
 10
386.2506636362
 20
306.1800100078
 30
0.0
 10
386.5108926684
 20
307.6488002301
 30
0.0
 10
387.6243735609
 20
309.6948438885
 30
0.0
 10
389.3841508345
 20
311.5450158232
 30
0.0
 10
390.8570625693
 20
312.5590865245
 30
0.0
 10
391.6690161302
 20
313.0278653332
 30
0.0
  0
SPLINE
  5
2B3
100
AcDbEntity
  8
0
100
AcDbSpline
 62
7
  6
CONTINUOUS
 70
0
 71
3
 72
17
 73
13
 74
0
 42
0.0000001
 43
0.0000001
 44
0.0000000001
 40
0.0
 40
0.0
 40
0.0
 40
0.0
 40
0.1286901644
 40
0.2702748605
 40
0.4174297726
 40
0.5617773189
 40
0.6954489936
 40
0.8127149545
 40
0.8646780852
 40
0.9125120312
 40
0.9571415859
 40
1.0
 40
1.0
 40
1.0
 40
1.0
 10
98.5723883328
 20
433.2545635784
 30
0.0
 10
100.348980547
 20
434.2802734489
 30
0.0
 10
104.371383414
 20
435.9399207439
 30
0.0
 10
110.9271067797
 20
437.2514426534
 30
0.0
 10
117.8610217076
 20
437.4435918504
 30
0.0
 10
124.6072926079
 20
436.4956196043
 30
0.0
 10
130.6188395085
 20
434.4875213669
 30
0.0
 10
134.7999554526
 20
431.9426640442
 30
0.0
 10
137.2535583351
 20
429.4800618275
 30
0.0
 10
138.5569700979
 20
427.5628366668
 30
0.0
 10
139.3603059898
 20
425.5405780707
 30
0.0
 10
139.542828991
 20
424.1399844355
 30
0.0
 10
139.5428445612
 20
423.4567854459
 30
0.0
  0
SPLINE
  5
2B4
100
AcDbEntity
  8
0
100
AcDbSpline
 62
7
  6
CONTINUOUS
 70
0
 71
3
 72
13
 73
9
 74
0
 42
0.0000001
 43
0.0000001
 44
0.0000000001
 40
0.0
 40
0.0
 40
0.0
 40
0.0
 40
0.0879104041
 40
0.1894644064
 40
0.3736087518
 40
0.586254702
 40
0.8036017038
 40
1.0
 40
1.0
 40
1.0
 40
1.0
 10
169.4492428375
 20
447.5255647881
 30
0.0
 10
169.3822305081
 20
448.1805808554
 30
0.0
 10
168.8539054709
 20
449.5620981207
 30
0.0
 10
166.8551496949
 20
451.5911932795
 30
0.0
 10
163.3994219352
 20
453.2053298051
 30
0.0
 10
158.8161051404
 20
453.9476645504
 30
0.0
 10
154.0982407209
 20
453.5914364199
 30
0.0
 10
151.1114086565
 20
452.565193776
 30
0.0
 10
149.83749013
 20
451.8297009621
 30
0.0
  0
SPLINE
  5
2B5
100
AcDbEntity
  8
0
100
AcDbSpline
 62
7
  6
CONTINUOUS
 70
0
 71
3
 72
16
 73
12
 74
0
 42
0.0000001
 43
0.0000001
 44
0.0000000001
 40
0.0
 40
0.0
 40
0.0
 40
0.0
 40
0.1287501123
 40
0.2703968177
 40
0.4176171811
 40
0.5620242244
 40
0.6957534474
 40
0.8130672784
 40
0.9124731962
 40
0.9571218708
 40
1.0
 40
1.0
 40
1.0
 40
1.0
 10
288.4309962588
 20
372.6310154932
 30
0.0
 10
289.5043854195
 20
373.2507333149
 30
0.0
 10
291.9346300324
 20
374.2534595349
 30
0.0
 10
295.8953907906
 20
375.0458151742
 30
0.0
 10
300.0848475031
 20
375.1615795631
 30
0.0
 10
304.1598192714
 20
374.5899606281
 30
0.0
 10
307.7946454999
 20
373.3733297184
 30
0.0
 10
310.7070252935
 20
371.6058292194
 30
0.0
 10
312.4033805767
 20
369.6574702736
 30
0.0
 10
313.0737089541
 20
367.9704995444
 30
0.0
 10
313.1839296644
 20
367.1243002905
 30
0.0
 10
313.1840017603
 20
366.7115245829
 30
0.0
  0
SPLINE
  5
2B6
100
AcDbEntity
  8
0
100
AcDbSpline
 62
7
  6
CONTINUOUS
 70
0
 71
3
 72
15
 73
11
 74
0
 42
0.0000001
 43
0.0000001
 44
0.0000000001
 40
0.0
 40
0.0
 40
0.0
 40
0.0
 40
0.1288320654
 40
0.2705723687
 40
0.4178906197
 40
0.562389031
 40
0.6962036827
 40
0.8135940917
 40
0.9130655393
 40
1.0
 40
1.0
 40
1.0
 40
1.0
 10
249.5404059147
 20
333.4396464082
 30
0.0
 10
250.3917023678
 20
333.9311397108
 30
0.0
 10
252.3191308547
 20
334.7264199858
 30
0.0
 10
255.4604314353
 20
335.3548153001
 30
0.0
 10
258.7831306009
 20
335.4467465257
 30
0.0
 10
262.0149217773
 20
334.9927827032
 30
0.0
 10
264.8978549084
 20
334.0296152154
 30
0.0
 10
267.2071801783
 20
332.6225804359
 30
0.0
 10
268.7715997624
 20
330.8434879616
 30
0.0
 10
269.1722055102
 20
329.4081893746
 30
0.0
 10
269.1721148786
 20
328.7448778625
 30
0.0
  0
SPLINE
  5
2B7
100
AcDbEntity
  8
0
100
AcDbSpline
 62
7
  6
CONTINUOUS
 70
0
 71
3
 72
11
 73
7
 74
0
 42
0.0000001
 43
0.0000001
 44
0.0000000001
 40
0.0
 40
0.0
 40
0.0
 40
0.0
 40
0.2177648073
 40
0.4508950352
 40
0.7103684932
 40
1.0
 40
1.0
 40
1.0
 40
1.0
 10
331.8111100765
 20
308.3329549555
 30
0.0
 10
331.8112507664
 20
308.6871439549
 30
0.0
 10
331.9415859258
 20
309.4254782144
 30
0.0
 10
332.5016070252
 20
310.4542598323
 30
0.0
 10
333.386563215
 20
311.3839838412
 30
0.0
 10
334.1268281987
 20
311.894056444
 30
0.0
 10
334.5347946876
 20
312.1295946002
 30
0.0
  0
SPLINE
  5
2B8
100
AcDbEntity
  8
0
100
AcDbSpline
 62
7
  6
CONTINUOUS
 70
0
 71
3
 72
17
 73
13
 74
0
 42
0.0000001
 43
0.0000001
 44
0.0000000001
 40
0.0
 40
0.0
 40
0.0
 40
0.0
 40
0.1286901644
 40
0.2702748605
 40
0.4174297726
 40
0.5617773189
 40
0.6954489936
 40
0.8127149545
 40
0.8646780852
 40
0.9125120312
 40
0.9571415859
 40
1.0
 40
1.0
 40
1.0
 40
1.0
 10
345.3536824091
 20
290.7785402508
 30
0.0
 10
347.1302746233
 20
291.8042501213
 30
0.0
 10
351.1526774903
 20
293.4638974163
 30
0.0
 10
357.708400856
 20
294.7754193258
 30
0.0
 10
364.6423157839
 20
294.9675685228
 30
0.0
 10
371.3885866842
 20
294.0195962767
 30
0.0
 10
377.4001335848
 20
292.0114980393
 30
0.0
 10
381.5812495289
 20
289.4666407166
 30
0.0
 10
384.0348524114
 20
287.0040384999
 30
0.0
 10
385.3382641742
 20
285.0868133392
 30
0.0
 10
386.1416000661
 20
283.0645547431
 30
0.0
 10
386.3241230673
 20
281.6639611079
 30
0.0
 10
386.3241386375
 20
280.9807621183
 30
0.0
  0
SPLINE
  5
2B9
100
AcDbEntity
  8
0
100
AcDbSpline
 62
7
  6
CONTINUOUS
 70
0
 71
3
 72
15
 73
11
 74
0
 42
0.0000001
 43
0.0000001
 44
0.0000000001
 40
0.0
 40
0.0
 40
0.0
 40
0.0
 40
0.1288320654
 40
0.2705723687
 40
0.4178906197
 40
0.562389031
 40
0.6962036827
 40
0.8135940917
 40
0.9130655393
 40
1.0
 40
1.0
 40
1.0
 40
1.0
 10
160.4445805461
 20
384.8779814778
 30
0.0
 10
161.2958769992
 20
385.3694747803
 30
0.0
 10
163.2233054861
 20
386.1647550554
 30
0.0
 10
166.3646060668
 20
386.7931503697
 30
0.0
 10
169.6873052323
 20
386.8850815953
 30
0.0
 10
172.9190964088
 20
386.4311177728
 30
0.0
 10
175.8020295398
 20
385.467950285
 30
0.0
 10
178.1113548098
 20
384.0609155055
 30
0.0
 10
179.6757743939
 20
382.2818230312
 30
0.0
 10
180.0763801417
 20
380.8465244442
 30
0.0
 10
180.0762895101
 20
380.1832129321
 30
0.0
  0
SPLINE
  5
2BA
100
AcDbEntity
  8
0
100
AcDbSpline
 62
7
  6
CONTINUOUS
 70
0
 71
3
 72
15
 73
11
 74
0
 42
0.0000001
 43
0.0000001
 44
0.0000000001
 40
0.0
 40
0.0
 40
0.0
 40
0.0
 40
0.1288320654
 40
0.2705723687
 40
0.4178906197
 40
0.562389031
 40
0.6962036827
 40
0.8135940917
 40
0.9130655393
 40
1.0
 40
1.0
 40
1.0
 40
1.0
 10
279.2390143708
 20
316.2935347184
 30
0.0
 10
280.0903108239
 20
316.7850280209
 30
0.0
 10
282.0177393108
 20
317.580308296
 30
0.0
 10
285.1590398915
 20
318.2087036103
 30
0.0
 10
288.481739057
 20
318.3006348359
 30
0.0
 10
291.7135302335
 20
317.8466710134
 30
0.0
 10
294.5964633645
 20
316.8835035256
 30
0.0
 10
296.9057886345
 20
315.4764687461
 30
0.0
 10
298.4702082186
 20
313.6973762718
 30
0.0
 10
298.8708139664
 20
312.2620776848
 30
0.0
 10
298.8707233348
 20
311.5987661727
 30
0.0
  0
SPLINE
  5
2BB
100
AcDbEntity
  8
0
100
AcDbSpline
 62
7
  6
CONTINUOUS
 70
0
 71
3
 72
10
 73
6
 74
0
 42
0.0000001
 43
0.0000001
 44
0.0000000001
 40
0.0
 40
0.0
 40
0.0
 40
0.0
 40
0.2263128243
 40
0.463610102
 40
1.0
 40
1.0
 40
1.0
 40
1.0
 10
146.4693048444
 20
447.5431833624
 30
0.0
 10
146.4693537386
 20
447.9010288164
 30
0.0
 10
146.575114217
 20
448.6378361518
 30
0.0
 10
147.2130947897
 20
450.1004746857
 30
0.0
 10
148.0968449928
 20
451.0088236328
 30
0.0
 10
148.768874871
 20
451.5262357272
 30
0.0
  0
SPLINE
  5
2BC
100
AcDbEntity
  8
0
100
AcDbSpline
 62
7
  6
CONTINUOUS
 70
0
 71
3
 72
9
 73
5
 74
0
 42
0.0000001
 43
0.0000001
 44
0.0000000001
 40
0.0
 40
0.0
 40
0.0
 40
0.0
 40
0.2432778937
 40
1.0
 40
1.0
 40
1.0
 40
1.0
 10
148.768874871
 20
451.5262357272
 30
0.0
 10
148.8514075567
 20
451.5897796427
 30
0.0
 10
149.1953404181
 20
451.8448715805
 30
0.0
 10
149.5569019423
 20
452.0759554719
 30
0.0
 10
149.83749013
 20
452.2379521706
 30
0.0
  0
SPLINE
  5
2BD
100
AcDbEntity
  8
0
100
AcDbSpline
 62
7
  6
CONTINUOUS
 70
0
 71
3
 72
16
 73
12
 74
0
 42
0.0000001
 43
0.0000001
 44
0.0000000001
 40
0.0
 40
0.0
 40
0.0
 40
0.0
 40
0.1287479156
 40
0.2703938809
 40
0.4176107916
 40
0.5620190964
 40
0.6957499462
 40
0.8130684491
 40
0.9124747131
 40
0.9571233054
 40
1.0
 40
1.0
 40
1.0
 40
1.0
 10
181.6574277616
 20
434.2753694258
 30
0.0
 10
183.0269037507
 20
435.0660320371
 30
0.0
 10
186.1275420557
 20
436.3453302947
 30
0.0
 10
191.1808308857
 20
437.3563712781
 30
0.0
 10
196.5259811992
 20
437.5041153144
 30
0.0
 10
201.725083262
 20
436.7747379626
 30
0.0
 10
206.3626879812
 20
435.2223904161
 30
0.0
 10
210.0786431555
 20
432.9674522341
 30
0.0
 10
212.2431273472
 20
430.4815750933
 30
0.0
 10
213.0981106861
 20
428.3291569218
 30
0.0
 10
213.2388084412
 20
427.2495438221
 30
0.0
 10
213.2388219765
 20
426.7229154738
 30
0.0
  0
SPLINE
  5
2BE
100
AcDbEntity
  8
0
100
AcDbSpline
 62
7
  6
CONTINUOUS
 70
0
 71
3
 72
16
 73
12
 74
0
 42
0.0000001
 43
0.0000001
 44
0.0000000001
 40
0.0
 40
0.0
 40
0.0
 40
0.0
 40
0.1287479156
 40
0.2703938809
 40
0.4176107916
 40
0.5620190964
 40
0.6957499462
 40
0.8130684491
 40
0.9124747131
 40
0.9571233054
 40
1.0
 40
1.0
 40
1.0
 40
1.0
 10
354.8993104226
 20
334.2563845683
 30
0.0
 10
356.2687864117
 20
335.0470471796
 30
0.0
 10
359.3694247168
 20
336.3263454372
 30
0.0
 10
364.4227135467
 20
337.3373864207
 30
0.0
 10
369.7678638603
 20
337.4851304569
 30
0.0
 10
374.966965923
 20
336.7557531052
 30
0.0
 10
379.6045706422
 20
335.2034055586
 30
0.0
 10
383.3205258165
 20
332.9484673766
 30
0.0
 10
385.4850100082
 20
330.4625902359
 30
0.0
 10
386.3399933471
 20
328.3101720643
 30
0.0
 10
386.4806911022
 20
327.2305589646
 30
0.0
 10
386.4807046376
 20
326.7039306163
 30
0.0
  0
SPLINE
  5
2BF
100
AcDbEntity
  8
0
100
AcDbSpline
 62
7
  6
CONTINUOUS
 70
0
 71
3
 72
16
 73
12
 74
0
 42
0.0000001
 43
0.0000001
 44
0.0000000001
 40
0.0
 40
0.0
 40
0.0
 40
0.0
 40
0.0429319729
 40
0.0879771014
 40
0.1886198765
 40
0.3069118268
 40
0.4409414816
 40
0.5849749013
 40
0.731366005
 40
0.8720473485
 40
1.0
 40
1.0
 40
1.0
 40
1.0
 10
176.4558340471
 20
447.9483083838
 30
0.0
 10
176.4216669327
 20
448.4687768176
 30
0.0
 10
176.2136493889
 20
449.5303190022
 30
0.0
 10
175.2468530427
 20
451.6278484796
 30
0.0
 10
172.9997434308
 20
454.0236174599
 30
0.0
 10
169.2535292055
 20
456.1881881595
 30
0.0
 10
164.6362927829
 20
457.6619615927
 30
0.0
 10
159.4989196972
 20
458.3329139692
 30
0.0
 10
154.2399726051
 20
458.1523403275
 30
0.0
 10
149.2774856621
 20
457.1362484294
 30
0.0
 10
146.2339788395
 20
455.8728945302
 30
0.0
 10
144.8877220539
 20
455.0956374523
 30
0.0
  0
SPLINE
  5
2C0
100
AcDbEntity
  8
0
100
AcDbSpline
 62
7
  6
CONTINUOUS
 70
0
 71
3
 72
15
 73
11
 74
0
 42
0.0000001
 43
0.0000001
 44
0.0000000001
 40
0.0
 40
0.0
 40
0.0
 40
0.0
 40
0.1288320654
 40
0.2705723687
 40
0.4178906197
 40
0.562389031
 40
0.6962036827
 40
0.8135940917
 40
0.9130655393
 40
1.0
 40
1.0
 40
1.0
 40
1.0
 10
219.8417974585
 20
350.5857580981
 30
0.0
 10
220.6930939116
 20
351.0772514006
 30
0.0
 10
222.6205223985
 20
351.8725316757
 30
0.0
 10
225.7618229791
 20
352.50092699
 30
0.0
 10
229.0845221447
 20
352.5928582156
 30
0.0
 10
232.3163133212
 20
352.1388943931
 30
0.0
 10
235.1992464522
 20
351.1757269053
 30
0.0
 10
237.5085717222
 20
349.7686921258
 30
0.0
 10
239.0729913062
 20
347.9895996515
 30
0.0
 10
239.473597054
 20
346.5543010645
 30
0.0
 10
239.4735064225
 20
345.8909895524
 30
0.0
  0
SPLINE
  5
2C1
100
AcDbEntity
  8
0
100
AcDbSpline
 62
7
  6
CONTINUOUS
 70
0
 71
3
 72
16
 73
12
 74
0
 42
0.0000001
 43
0.0000001
 44
0.0000000001
 40
0.0
 40
0.0
 40
0.0
 40
0.0
 40
0.1287479156
 40
0.2703938809
 40
0.4176107916
 40
0.5620190964
 40
0.6957499462
 40
0.8130684491
 40
0.9124747131
 40
0.9571233054
 40
1.0
 40
1.0
 40
1.0
 40
1.0
 10
144.8877220539
 20
455.5038886608
 30
0.0
 10
146.2571980431
 20
456.2945512722
 30
0.0
 10
149.3578363481
 20
457.5738495297
 30
0.0
 10
154.411125178
 20
458.5848905132
 30
0.0
 10
159.7562754916
 20
458.7326345495
 30
0.0
 10
164.9553775544
 20
458.0032571977
 30
0.0
 10
169.5929822735
 20
456.4509096512
 30
0.0
 10
173.3089374479
 20
454.1959714691
 30
0.0
 10
175.4734216396
 20
451.7100943284
 30
0.0
 10
176.3284049784
 20
449.5576761569
 30
0.0
 10
176.4691027335
 20
448.4780630571
 30
0.0
 10
176.4691162689
 20
447.9514347088
 30
0.0
  0
SPLINE
  5
2C2
100
AcDbEntity
  8
0
100
AcDbSpline
 62
7
  6
CONTINUOUS
 70
0
 71
3
 72
15
 73
11
 74
0
 42
0.0000001
 43
0.0000001
 44
0.0000000001
 40
0.0
 40
0.0
 40
0.0
 40
0.0
 40
0.0878686368
 40
0.1894444813
 40
0.3084556794
 40
0.4427388696
 40
0.5865674024
 40
0.7324557064
 40
0.8725388453
 40
1.0
 40
1.0
 40
1.0
 40
1.0
 10
307.0410756762
 20
334.0346529738
 30
0.0
 10
306.9741300292
 20
334.6317948303
 30
0.0
 10
306.4809784383
 20
335.8878592538
 30
0.0
 10
304.9677456281
 20
337.4106542487
 30
0.0
 10
302.830619394
 20
338.6079002646
 30
0.0
 10
300.2194581874
 20
339.4120471552
 30
0.0
 10
297.3288095348
 20
339.7705649995
 30
0.0
 10
294.3784599804
 20
339.6553338693
 30
0.0
 10
291.5979593052
 20
339.0768718805
 30
0.0
 10
289.8932078755
 20
338.3662144357
 30
0.0
 10
289.1383503332
 20
337.9303998319
 30
0.0
  0
SPLINE
  5
2C3
100
AcDbEntity
  8
0
100
AcDbSpline
 62
7
  6
CONTINUOUS
 70
0
 71
3
 72
16
 73
12
 74
0
 42
0.0000001
 43
0.0000001
 44
0.0000000001
 40
0.0
 40
0.0
 40
0.0
 40
0.0
 40
0.1287479156
 40
0.2703938809
 40
0.4176107916
 40
0.5620190964
 40
0.6957499462
 40
0.8130684491
 40
0.9124747131
 40
0.9571233054
 40
1.0
 40
1.0
 40
1.0
 40
1.0
 10
391.6690161302
 20
313.0278653332
 30
0.0
 10
393.0384921194
 20
313.8185279446
 30
0.0
 10
396.1391304244
 20
315.0978262022
 30
0.0
 10
401.1924192543
 20
316.1088671856
 30
0.0
 10
406.5375695679
 20
316.2566112219
 30
0.0
 10
411.7366716307
 20
315.5272338701
 30
0.0
 10
416.3742763498
 20
313.9748863236
 30
0.0
 10
420.0902315242
 20
311.7199481416
 30
0.0
 10
422.2547157159
 20
309.2340710008
 30
0.0
 10
423.1096990547
 20
307.0816528293
 30
0.0
 10
423.2503968098
 20
306.0020397295
 30
0.0
 10
423.2504103452
 20
305.4754113812
 30
0.0
  0
SPLINE
  5
2C4
100
AcDbEntity
  8
0
100
AcDbSpline
 62
7
  6
CONTINUOUS
 70
0
 71
3
 72
11
 73
7
 74
0
 42
0.0000001
 43
0.0000001
 44
0.0000000001
 40
0.0
 40
0.0
 40
0.0
 40
0.0
 40
0.2177713702
 40
0.4509290507
 40
0.7102263481
 40
1.0
 40
1.0
 40
1.0
 40
1.0
 10
139.4693876694
 20
447.9514346956
 30
0.0
 10
139.4693695599
 20
448.6560333354
 30
0.0
 10
139.7295985921
 20
450.1248235577
 30
0.0
 10
140.8430794846
 20
452.1708672161
 30
0.0
 10
142.6028567582
 20
454.0210391508
 30
0.0
 10
144.075768493
 20
455.0351098521
 30
0.0
 10
144.8877220539
 20
455.5038886608
 30
0.0
  0
SPLINE
  5
2C5
100
AcDbEntity
  8
0
100
AcDbSpline
 62
7
  6
CONTINUOUS
 70
0
 71
3
 72
15
 73
11
 74
0
 42
0.0000001
 43
0.0000001
 44
0.0000000001
 40
0.0
 40
0.0
 40
0.0
 40
0.0
 40
0.1288320654
 40
0.2705723687
 40
0.4178906197
 40
0.562389031
 40
0.6962036827
 40
0.8135940917
 40
0.9130655393
 40
1.0
 40
1.0
 40
1.0
 40
1.0
 10
222.3164813068
 20
376.9174023426
 30
0.0
 10
223.0937519813
 20
377.3661570971
 30
0.0
 10
224.8535779911
 20
378.0922825656
 30
0.0
 10
227.7217219995
 20
378.6660348091
 30
0.0
 10
230.7554908029
 20
378.7499720151
 30
0.0
 10
233.7062566597
 20
378.3354833076
 30
0.0
 10
236.3384999532
 20
377.4560695144
 30
0.0
 10
238.4470143301
 20
376.1713855853
 30
0.0
 10
239.8753974286
 20
374.5469968044
 30
0.0
 10
240.241167894
 20
373.2365067902
 30
0.0
 10
240.2410851435
 20
372.63087454
 30
0.0
  0
SPLINE
  5
2C6
100
AcDbEntity
  8
0
100
AcDbSpline
 62
7
  6
CONTINUOUS
 70
0
 71
3
 72
13
 73
9
 74
0
 42
0.0000001
 43
0.0000001
 44
0.0000000001
 40
0.0
 40
0.0
 40
0.0
 40
0.0
 40
0.0879104041
 40
0.1894644064
 40
0.3736087518
 40
0.586254702
 40
0.8036017038
 40
1.0
 40
1.0
 40
1.0
 40
1.0
 10
239.453550166
 20
345.8733707155
 30
0.0
 10
239.3865378366
 20
346.5283867829
 30
0.0
 10
238.8582127994
 20
347.9099040482
 30
0.0
 10
236.8594570234
 20
349.938999207
 30
0.0
 10
233.4037292637
 20
351.5531357326
 30
0.0
 10
228.8204124689
 20
352.2954704779
 30
0.0
 10
224.1025480494
 20
351.9392423473
 30
0.0
 10
221.1157159851
 20
350.9129997035
 30
0.0
 10
219.8417974585
 20
350.1775068895
 30
0.0
  0
SPLINE
  5
2C7
100
AcDbEntity
  8
0
100
AcDbSpline
 62
7
  6
CONTINUOUS
 70
0
 71
3
 72
15
 73
11
 74
0
 42
0.0000001
 43
0.0000001
 44
0.0000000001
 40
0.0
 40
0.0
 40
0.0
 40
0.0
 40
0.1288320654
 40
0.2705723687
 40
0.4178906197
 40
0.562389031
 40
0.6962036827
 40
0.8135940917
 40
0.9130655393
 40
1.0
 40
1.0
 40
1.0
 40
1.0
 10
200.0425249646
 20
389.77698611
 30
0.0
 10
200.8197956392
 20
390.2257408645
 30
0.0
 10
202.579621649
 20
390.951866333
 30
0.0
 10
205.4477656574
 20
391.5256185765
 30
0.0
 10
208.4815344607
 20
391.6095557825
 30
0.0
 10
211.4323003175
 20
391.195067075
 30
0.0
 10
214.0645436111
 20
390.3156532818
 30
0.0
 10
216.173057988
 20
389.0309693527
 30
0.0
 10
217.6014410865
 20
387.4065805718
 30
0.0
 10
217.9672115519
 20
386.0960905576
 30
0.0
 10
217.9671288013
 20
385.4904583074
 30
0.0
  0
SPLINE
  5
2C8
100
AcDbEntity
  8
0
100
AcDbSpline
 62
7
  6
CONTINUOUS
 70
0
 71
3
 72
11
 73
7
 74
0
 42
0.0000001
 43
0.0000001
 44
0.0000000001
 40
0.0
 40
0.0
 40
0.0
 40
0.0
 40
0.2177827477
 40
0.4509152641
 40
0.7103063952
 40
1.0
 40
1.0
 40
1.0
 40
1.0
 10
308.3370070667
 20
321.1925392307
 30
0.0
 10
308.3370617105
 20
321.5924648964
 30
0.0
 10
308.484766725
 20
322.4260461338
 30
0.0
 10
309.1167373394
 20
323.5874979747
 30
0.0
 10
310.1157335586
 20
324.6373636741
 30
0.0
 10
310.951598419
 20
325.213078825
 30
0.0
 10
311.4123066753
 20
325.479067273
 30
0.0
  0
SPLINE
  5
2C9
100
AcDbEntity
  8
0
100
AcDbSpline
 62
7
  6
CONTINUOUS
 70
0
 71
3
 72
15
 73
11
 74
0
 42
0.0000001
 43
0.0000001
 44
0.0000000001
 40
0.0
 40
0.0
 40
0.0
 40
0.0
 40
0.1288281168
 40
0.2705730231
 40
0.4178855965
 40
0.5623847015
 40
0.6962026063
 40
0.8135940147
 40
0.9130657345
 40
1.0
 40
1.0
 40
1.0
 40
1.0
 10
156.3431439506
 20
415.0062647393
 30
0.0
 10
157.0315605371
 20
415.4037198684
 30
0.0
 10
158.5902693477
 20
416.0468306082
 30
0.0
 10
161.1305660416
 20
416.5551121092
 30
0.0
 10
163.8176120975
 20
416.6294204569
 30
0.0
 10
166.4311327848
 20
416.2623474156
 30
0.0
 10
168.7625729221
 20
415.4834369793
 30
0.0
 10
170.6301263321
 20
414.3455205013
 30
0.0
 10
171.8952073628
 20
412.9067843074
 30
0.0
 10
172.2192825222
 20
411.7460406441
 30
0.0
 10
172.2190694494
 20
411.2096263499
 30
0.0
  0
SPLINE
  5
2CA
100
AcDbEntity
  8
0
100
AcDbSpline
 62
7
  6
CONTINUOUS
 70
0
 71
3
 72
11
 73
7
 74
0
 42
0.0000001
 43
0.0000001
 44
0.0000000001
 40
0.0
 40
0.0
 40
0.0
 40
0.0
 40
0.2177827477
 40
0.4509152641
 40
0.7103063952
 40
1.0
 40
1.0
 40
1.0
 40
1.0
 10
216.4736121729
 20
345.8909892898
 30
0.0
 10
216.4736720209
 20
346.3290031142
 30
0.0
 10
216.6354441796
 20
347.2419730409
 30
0.0
 10
217.3276024715
 20
348.5140393427
 30
0.0
 10
218.4217411878
 20
349.6638922516
 30
0.0
 10
219.3372122254
 20
350.2944374169
 30
0.0
 10
219.8417974585
 20
350.5857580981
 30
0.0
  0
SPLINE
  5
2CB
100
AcDbEntity
  8
0
100
AcDbSpline
 62
7
  6
CONTINUOUS
 70
0
 71
3
 72
15
 73
11
 74
0
 42
0.0000001
 43
0.0000001
 44
0.0000000001
 40
0.0
 40
0.0
 40
0.0
 40
0.0
 40
0.1288320654
 40
0.2705723687
 40
0.4178906197
 40
0.562389031
 40
0.6962036827
 40
0.8135940917
 40
0.9130655393
 40
1.0
 40
1.0
 40
1.0
 40
1.0
 10
266.864393991
 20
351.1982348078
 30
0.0
 10
267.6416646656
 20
351.6469895623
 30
0.0
 10
269.4014906754
 20
352.3731150308
 30
0.0
 10
272.2696346838
 20
352.9468672743
 30
0.0
 10
275.3034034871
 20
353.0308044803
 30
0.0
 10
278.2541693439
 20
352.6163157728
 30
0.0
 10
280.8864126375
 20
351.7369019796
 30
0.0
 10
282.9949270144
 20
350.4522180505
 30
0.0
 10
284.4233101129
 20
348.8278292696
 30
0.0
 10
284.7890805783
 20
347.5173392554
 30
0.0
 10
284.7889978277
 20
346.9117070052
 30
0.0
  0
SPLINE
  5
2CC
100
AcDbEntity
  8
0
100
AcDbSpline
 62
7
  6
CONTINUOUS
 70
0
 71
3
 72
13
 73
9
 74
0
 42
0.0000001
 43
0.0000001
 44
0.0000000001
 40
0.0
 40
0.0
 40
0.0
 40
0.0
 40
0.0879104041
 40
0.1894644064
 40
0.3736087518
 40
0.586254702
 40
0.8036017038
 40
1.0
 40
1.0
 40
1.0
 40
1.0
 10
379.4608312061
 20
326.2780606955
 30
0.0
 10
379.3938188768
 20
326.9330767629
 30
0.0
 10
378.8654938396
 20
328.3145940282
 30
0.0
 10
376.8667380636
 20
330.343689187
 30
0.0
 10
373.4110103039
 20
331.9578257125
 30
0.0
 10
368.8276935091
 20
332.7001604579
 30
0.0
 10
364.1098290896
 20
332.3439323273
 30
0.0
 10
361.1229970252
 20
331.3176896835
 30
0.0
 10
359.8490784986
 20
330.5821968695
 30
0.0
  0
SPLINE
  5
2CD
100
AcDbEntity
  8
0
100
AcDbSpline
 62
7
  6
CONTINUOUS
 70
0
 71
3
 72
15
 73
11
 74
0
 42
0.0000001
 43
0.0000001
 44
0.0000000001
 40
0.0
 40
0.0
 40
0.0
 40
0.0
 40
0.1288320654
 40
0.2705723687
 40
0.4178906197
 40
0.562389031
 40
0.6962036827
 40
0.8135940917
 40
0.9130655393
 40
1.0
 40
1.0
 40
1.0
 40
1.0
 10
289.1383503332
 20
338.3386510404
 30
0.0
 10
289.9156210077
 20
338.7874057949
 30
0.0
 10
291.6754470175
 20
339.5135312634
 30
0.0
 10
294.5435910259
 20
340.0872835069
 30
0.0
 10
297.5773598293
 20
340.1712207129
 30
0.0
 10
300.5281256861
 20
339.7567320054
 30
0.0
 10
303.1603689796
 20
338.8773182122
 30
0.0
 10
305.2688833565
 20
337.5926342831
 30
0.0
 10
306.697266455
 20
335.9682455022
 30
0.0
 10
307.0630369204
 20
334.657755488
 30
0.0
 10
307.0629541698
 20
334.0521232378
 30
0.0
  0
SPLINE
  5
2CE
100
AcDbEntity
  8
0
100
AcDbSpline
 62
7
  6
CONTINUOUS
 70
0
 71
3
 72
11
 73
7
 74
0
 42
0.0000001
 43
0.0000001
 44
0.0000000001
 40
0.0
 40
0.0
 40
0.0
 40
0.0
 40
0.2177827477
 40
0.4509152641
 40
0.7103063952
 40
1.0
 40
1.0
 40
1.0
 40
1.0
 10
286.0630507246
 20
334.0521229981
 30
0.0
 10
286.0631053684
 20
334.4520486638
 30
0.0
 10
286.2108103829
 20
335.2856299012
 30
0.0
 10
286.8427809972
 20
336.4470817421
 30
0.0
 10
287.8417772165
 20
337.4969474415
 30
0.0
 10
288.6776420769
 20
338.0726625924
 30
0.0
 10
289.1383503332
 20
338.3386510404
 30
0.0
  0
SPLINE
  5
2CF
100
AcDbEntity
  8
0
100
AcDbSpline
 62
7
  6
CONTINUOUS
 70
0
 71
3
 72
15
 73
11
 74
0
 42
0.0000001
 43
0.0000001
 44
0.0000000001
 40
0.0
 40
0.0
 40
0.0
 40
0.0
 40
0.1288281168
 40
0.2705730231
 40
0.4178855965
 40
0.5623847015
 40
0.6962026063
 40
0.8135940147
 40
0.9130657345
 40
1.0
 40
1.0
 40
1.0
 40
1.0
 10
334.5347946876
 20
312.1295946002
 30
0.0
 10
335.2232112742
 20
312.5270497293
 30
0.0
 10
336.7819200848
 20
313.170160469
 30
0.0
 10
339.3222167786
 20
313.6784419701
 30
0.0
 10
342.0092628345
 20
313.7527503178
 30
0.0
 10
344.6227835219
 20
313.3856772765
 30
0.0
 10
346.9542236592
 20
312.6067668402
 30
0.0
 10
348.8217770691
 20
311.4688503621
 30
0.0
 10
350.0868580998
 20
310.0301141683
 30
0.0
 10
350.4109332593
 20
308.869370505
 30
0.0
 10
350.4107201864
 20
308.3329562108
 30
0.0
  0
SPLINE
  5
2D0
100
AcDbEntity
  8
0
100
AcDbSpline
 62
7
  6
CONTINUOUS
 70
0
 71
3
 72
10
 73
6
 74
0
 42
0.0000001
 43
0.0000001
 44
0.0000000001
 40
0.0
 40
0.0
 40
0.0
 40
0.0
 40
0.2263128243
 40
0.463610102
 40
1.0
 40
1.0
 40
1.0
 40
1.0
 10
356.480893213
 20
326.2956792698
 30
0.0
 10
356.4809421072
 20
326.6535247239
 30
0.0
 10
356.5867025856
 20
327.3903320593
 30
0.0
 10
357.2246831584
 20
328.8529705931
 30
0.0
 10
358.1084333615
 20
329.7613195403
 30
0.0
 10
358.7804632396
 20
330.2787316347
 30
0.0
  0
SPLINE
  5
2D1
100
AcDbEntity
  8
0
100
AcDbSpline
 62
7
  6
CONTINUOUS
 70
0
 71
3
 72
9
 73
5
 74
0
 42
0.0000001
 43
0.0000001
 44
0.0000000001
 40
0.0
 40
0.0
 40
0.0
 40
0.0
 40
0.2432778937
 40
1.0
 40
1.0
 40
1.0
 40
1.0
 10
358.7804632396
 20
330.2787316347
 30
0.0
 10
358.8629959254
 20
330.3422755502
 30
0.0
 10
359.2069287868
 20
330.597367488
 30
0.0
 10
359.568490311
 20
330.8284513794
 30
0.0
 10
359.8490784986
 20
330.9904480781
 30
0.0
  0
SPLINE
  5
2D2
100
AcDbEntity
  8
0
100
AcDbSpline
 62
7
  6
CONTINUOUS
 70
0
 71
3
 72
15
 73
11
 74
0
 42
0.0000001
 43
0.0000001
 44
0.0000000001
 40
0.0
 40
0.0
 40
0.0
 40
0.0
 40
0.1288320654
 40
0.2705723687
 40
0.4178906197
 40
0.562389031
 40
0.6962036827
 40
0.8135940917
 40
0.9130655393
 40
1.0
 40
1.0
 40
1.0
 40
1.0
 10
130.74597209
 20
402.0240931676
 30
0.0
 10
131.5972685431
 20
402.5155864702
 30
0.0
 10
133.52469703
 20
403.3108667452
 30
0.0
 10
136.6659976106
 20
403.9392620595
 30
0.0
 10
139.9886967762
 20
404.0311932851
 30
0.0
 10
143.2204879527
 20
403.5772294627
 30
0.0
 10
146.1034210837
 20
402.6140619748
 30
0.0
 10
148.4127463536
 20
401.2070271953
 30
0.0
 10
149.9771659377
 20
399.427934721
 30
0.0
 10
150.3777716855
 20
397.9926361341
 30
0.0
 10
150.3776810539
 20
397.3293246219
 30
0.0
  0
SPLINE
  5
2D3
100
AcDbEntity
  8
0
100
AcDbSpline
 62
7
  6
CONTINUOUS
 70
0
 71
3
 72
16
 73
12
 74
0
 42
0.0000001
 43
0.0000001
 44
0.0000000001
 40
0.0
 40
0.0
 40
0.0
 40
0.0
 40
0.0429319729
 40
0.0879771014
 40
0.1886198765
 40
0.3069118268
 40
0.4409414816
 40
0.5849749013
 40
0.731366005
 40
0.8720473485
 40
1.0
 40
1.0
 40
1.0
 40
1.0
 10
386.4674224158
 20
326.7008042912
 30
0.0
 10
386.4332553014
 20
327.2212727251
 30
0.0
 10
386.2252377576
 20
328.2828149097
 30
0.0
 10
385.2584414114
 20
330.380344387
 30
0.0
 10
383.0113317995
 20
332.7761133673
 30
0.0
 10
379.2651175742
 20
334.9406840669
 30
0.0
 10
374.6478811515
 20
336.4144575002
 30
0.0
 10
369.5105080658
 20
337.0854098767
 30
0.0
 10
364.2515609737
 20
336.904836235
 30
0.0
 10
359.2890740308
 20
335.8887443369
 30
0.0
 10
356.2455672081
 20
334.6253904376
 30
0.0
 10
354.8993104226
 20
333.8481333597
 30
0.0
  0
SPLINE
  5
2D4
100
AcDbEntity
  8
0
100
AcDbSpline
 62
7
  6
CONTINUOUS
 70
0
 71
3
 72
15
 73
11
 74
0
 42
0.0000001
 43
0.0000001
 44
0.0000000001
 40
0.0
 40
0.0
 40
0.0
 40
0.0
 40
0.1288320654
 40
0.2705723687
 40
0.4178906197
 40
0.562389031
 40
0.6962036827
 40
0.8135940917
 40
0.9130655393
 40
1.0
 40
1.0
 40
1.0
 40
1.0
 10
308.937622827
 20
299.1474230285
 30
0.0
 10
309.7889192801
 20
299.6389163311
 30
0.0
 10
311.716347767
 20
300.4341966061
 30
0.0
 10
314.8576483477
 20
301.0625919204
 30
0.0
 10
318.1803475132
 20
301.154523146
 30
0.0
 10
321.4121386897
 20
300.7005593235
 30
0.0
 10
324.2950718207
 20
299.7373918357
 30
0.0
 10
326.6043970907
 20
298.3303570562
 30
0.0
 10
328.1688166747
 20
296.5512645819
 30
0.0
 10
328.5694224226
 20
295.1159659949
 30
0.0
 10
328.569331791
 20
294.4526544828
 30
0.0
  0
SPLINE
  5
2D5
100
AcDbEntity
  8
0
100
AcDbSpline
 62
7
  6
CONTINUOUS
 70
0
 71
3
 72
15
 73
11
 74
0
 42
0.0000001
 43
0.0000001
 44
0.0000000001
 40
0.0
 40
0.0
 40
0.0
 40
0.0
 40
0.0878686368
 40
0.1894444813
 40
0.3084556794
 40
0.4427388696
 40
0.5865674024
 40
0.7324557064
 40
0.8725388453
 40
1.0
 40
1.0
 40
1.0
 40
1.0
 10
284.7671193341
 20
346.8942367412
 30
0.0
 10
284.7001736871
 20
347.4913785977
 30
0.0
 10
284.2070220962
 20
348.7474430212
 30
0.0
 10
282.693789286
 20
350.2702380161
 30
0.0
 10
280.5566630519
 20
351.467484032
 30
0.0
 10
277.9455018453
 20
352.2716309226
 30
0.0
 10
275.0548531927
 20
352.6301487669
 30
0.0
 10
272.1045036382
 20
352.5149176367
 30
0.0
 10
269.3240029631
 20
351.9364556479
 30
0.0
 10
267.6192515334
 20
351.2257982031
 30
0.0
 10
266.864393991
 20
350.7899835992
 30
0.0
  0
SPLINE
  5
2D6
100
AcDbEntity
  8
0
100
AcDbSpline
 62
7
  6
CONTINUOUS
 70
0
 71
3
 72
15
 73
11
 74
0
 42
0.0000001
 43
0.0000001
 44
0.0000000001
 40
0.0
 40
0.0
 40
0.0
 40
0.0
 40
0.1288320654
 40
0.2705723687
 40
0.4178906197
 40
0.562389031
 40
0.6962036827
 40
0.8135940917
 40
0.9130655393
 40
1.0
 40
1.0
 40
1.0
 40
1.0
 10
177.7685686225
 20
402.6365698774
 30
0.0
 10
178.5458392971
 20
403.0853246319
 30
0.0
 10
180.3056653069
 20
403.8114501004
 30
0.0
 10
183.1738093153
 20
404.3852023439
 30
0.0
 10
186.2075781186
 20
404.4691395499
 30
0.0
 10
189.1583439754
 20
404.0546508424
 30
0.0
 10
191.7905872689
 20
403.1752370492
 30
0.0
 10
193.8991016459
 20
401.89055312
 30
0.0
 10
195.3274847443
 20
400.2661643392
 30
0.0
 10
195.6932552098
 20
398.955674325
 30
0.0
 10
195.6931724592
 20
398.3500420748
 30
0.0
  0
SPLINE
  5
2D7
100
AcDbEntity
  8
0
100
AcDbSpline
 62
7
  6
CONTINUOUS
 70
0
 71
3
 72
15
 73
11
 74
0
 42
0.0000001
 43
0.0000001
 44
0.0000000001
 40
0.0
 40
0.0
 40
0.0
 40
0.0
 40
0.1288320654
 40
0.2705723687
 40
0.4178906197
 40
0.562389031
 40
0.6962036827
 40
0.8135940917
 40
0.9130655393
 40
1.0
 40
1.0
 40
1.0
 40
1.0
 10
244.5904376489
 20
364.0578185752
 30
0.0
 10
245.3677083235
 20
364.5065733297
 30
0.0
 10
247.1275343333
 20
365.2326987982
 30
0.0
 10
249.9956783417
 20
365.8064510417
 30
0.0
 10
253.029447145
 20
365.8903882477
 30
0.0
 10
255.9802130018
 20
365.4758995402
 30
0.0
 10
258.6124562953
 20
364.596485747
 30
0.0
 10
260.7209706723
 20
363.3118018179
 30
0.0
 10
262.1493537707
 20
361.687413037
 30
0.0
 10
262.5151242362
 20
360.3769230228
 30
0.0
 10
262.5150414856
 20
359.7712907726
 30
0.0
  0
SPLINE
  5
2D8
100
AcDbEntity
  8
0
100
AcDbSpline
 62
7
  6
CONTINUOUS
 70
0
 71
3
 72
11
 73
7
 74
0
 42
0.0000001
 43
0.0000001
 44
0.0000000001
 40
0.0
 40
0.0
 40
0.0
 40
0.0
 40
0.2177713702
 40
0.4509290507
 40
0.7102263481
 40
1.0
 40
1.0
 40
1.0
 40
1.0
 10
349.4809760381
 20
326.703930603
 30
0.0
 10
349.4809579285
 20
327.4085292429
 30
0.0
 10
349.7411869608
 20
328.8773194651
 30
0.0
 10
350.8546678532
 20
330.9233631236
 30
0.0
 10
352.6144451268
 20
332.7735350583
 30
0.0
 10
354.0873568616
 20
333.7876057595
 30
0.0
 10
354.8993104226
 20
334.2563845683
 30
0.0
  0
SPLINE
  5
2D9
100
AcDbEntity
  8
0
100
AcDbSpline
 62
7
  6
CONTINUOUS
 70
0
 71
3
 72
16
 73
12
 74
0
 42
0.0000001
 43
0.0000001
 44
0.0000000001
 40
0.0
 40
0.0
 40
0.0
 40
0.0
 40
0.1287501123
 40
0.2703968177
 40
0.4176171811
 40
0.5620242244
 40
0.6957534474
 40
0.8130672784
 40
0.9124731962
 40
0.9571218708
 40
1.0
 40
1.0
 40
1.0
 40
1.0
 10
219.1342431944
 20
412.6386094362
 30
0.0
 10
220.2076323551
 20
413.2583272579
 30
0.0
 10
222.637876968
 20
414.2610534779
 30
0.0
 10
226.5986377262
 20
415.0534091172
 30
0.0
 10
230.7880944387
 20
415.1691735061
 30
0.0
 10
234.863066207
 20
414.5975545711
 30
0.0
 10
238.4978924355
 20
413.3809236614
 30
0.0
 10
241.4102722291
 20
411.6134231624
 30
0.0
 10
243.1066275123
 20
409.6650642166
 30
0.0
 10
243.7769558897
 20
407.9780934874
 30
0.0
 10
243.8871765999
 20
407.1318942335
 30
0.0
 10
243.8872486959
 20
406.7191185259
 30
0.0
  0
SPLINE
  5
2DA
100
AcDbEntity
  8
0
100
AcDbSpline
 62
7
  6
CONTINUOUS
 70
0
 71
3
 72
16
 73
12
 74
0
 42
0.0000001
 43
0.0000001
 44
0.0000000001
 40
0.0
 40
0.0
 40
0.0
 40
0.0
 40
0.1287501123
 40
0.2703968177
 40
0.4176171811
 40
0.5620242244
 40
0.6957534474
 40
0.8130672784
 40
0.9124731962
 40
0.9571218708
 40
1.0
 40
1.0
 40
1.0
 40
1.0
 10
323.079372791
 20
352.6272185217
 30
0.0
 10
324.1527619517
 20
353.2469363434
 30
0.0
 10
326.5830065646
 20
354.2496625634
 30
0.0
 10
330.5437673228
 20
355.0420182027
 30
0.0
 10
334.7332240353
 20
355.1577825916
 30
0.0
 10
338.8081958036
 20
354.5861636566
 30
0.0
 10
342.4430220321
 20
353.3695327469
 30
0.0
 10
345.3554018257
 20
351.602032248
 30
0.0
 10
347.0517571089
 20
349.6536733021
 30
0.0
 10
347.7220854863
 20
347.9667025729
 30
0.0
 10
347.8323061966
 20
347.120503319
 30
0.0
 10
347.8323782925
 20
346.7077276114
 30
0.0
  0
SPLINE
  5
2DB
100
AcDbEntity
  8
0
100
AcDbSpline
 62
7
  6
CONTINUOUS
 70
0
 71
3
 72
13
 73
9
 74
0
 42
0.0000001
 43
0.0000001
 44
0.0000000001
 40
0.0
 40
0.0
 40
0.0
 40
0.0
 40
0.0879104041
 40
0.1894644064
 40
0.3736087518
 40
0.586254702
 40
0.8036017038
 40
1.0
 40
1.0
 40
1.0
 40
1.0
 10
206.2189485451
 20
426.297045553
 30
0.0
 10
206.1519362157
 20
426.9520616204
 30
0.0
 10
205.6236111785
 20
428.3335788857
 30
0.0
 10
203.6248554025
 20
430.3626740445
 30
0.0
 10
200.1691276428
 20
431.97681057
 30
0.0
 10
195.5858108481
 20
432.7191453153
 30
0.0
 10
190.8679464286
 20
432.3629171848
 30
0.0
 10
187.8811143642
 20
431.3366745409
 30
0.0
 10
186.6071958376
 20
430.601181727
 30
0.0
  0
SPLINE
  5
2DC
100
AcDbEntity
  8
0
100
AcDbSpline
 62
7
  6
CONTINUOUS
 70
0
 71
3
 72
15
 73
11
 74
0
 42
0.0000001
 43
0.0000001
 44
0.0000000001
 40
0.0
 40
0.0
 40
0.0
 40
0.0
 40
0.1288320654
 40
0.2705723687
 40
0.4178906197
 40
0.562389031
 40
0.6962036827
 40
0.8135940917
 40
0.9130655393
 40
1.0
 40
1.0
 40
1.0
 40
1.0
 10
311.4123066753
 20
325.479067273
 30
0.0
 10
312.1895773499
 20
325.9278220275
 30
0.0
 10
313.9494033596
 20
326.6539474961
 30
0.0
 10
316.8175473681
 20
327.2276997395
 30
0.0
 10
319.8513161714
 20
327.3116369455
 30
0.0
 10
322.8020820282
 20
326.897148238
 30
0.0
 10
325.4343253217
 20
326.0177344448
 30
0.0
 10
327.5428396987
 20
324.7330505157
 30
0.0
 10
328.9712227971
 20
323.1086617348
 30
0.0
 10
329.3369932625
 20
321.7981717206
 30
0.0
 10
329.336910512
 20
321.1925394704
 30
0.0
  0
SPLINE
  5
2DD
100
AcDbEntity
  8
0
100
AcDbSpline
 62
7
  6
CONTINUOUS
 70
0
 71
3
 72
15
 73
11
 74
0
 42
0.0000001
 43
0.0000001
 44
0.0000000001
 40
0.0
 40
0.0
 40
0.0
 40
0.0
 40
0.0878686368
 40
0.1894444813
 40
0.3084556794
 40
0.4427388696
 40
0.5865674024
 40
0.7324557064
 40
0.8725388453
 40
1.0
 40
1.0
 40
1.0
 40
1.0
 10
262.493162992
 20
359.7538205086
 30
0.0
 10
262.426217345
 20
360.3509623651
 30
0.0
 10
261.9330657541
 20
361.6070267886
 30
0.0
 10
260.4198329439
 20
363.1298217835
 30
0.0
 10
258.2827067097
 20
364.3270677993
 30
0.0
 10
255.6715455032
 20
365.13121469
 30
0.0
 10
252.7808968506
 20
365.4897325343
 30
0.0
 10
249.8305472961
 20
365.3745014041
 30
0.0
 10
247.050046621
 20
364.7960394153
 30
0.0
 10
245.3452951912
 20
364.0853819704
 30
0.0
 10
244.5904376489
 20
363.6495673666
 30
0.0
  0
SPLINE
  5
2DE
100
AcDbEntity
  8
0
100
AcDbSpline
 62
7
  6
CONTINUOUS
 70
0
 71
3
 72
9
 73
5
 74
0
 42
0.0000001
 43
0.0000001
 44
0.0000000001
 40
0.0
 40
0.0
 40
0.0
 40
0.0
 40
0.4998374618
 40
1.0
 40
1.0
 40
1.0
 40
1.0
 10
306.2285659084
 20
387.2094850188
 30
0.0
 10
305.3080648198
 20
387.5975433788
 30
0.0
 10
303.2829703331
 20
387.9314530995
 30
0.0
 10
301.257766662
 20
387.5987981844
 30
0.0
 10
300.3363016881
 20
387.2113549228
 30
0.0
  0
SPLINE
  5
2DF
100
AcDbEntity
  8
0
100
AcDbSpline
 62
7
  6
CONTINUOUS
 70
0
 71
3
 72
10
 73
6
 74
0
 42
0.0000001
 43
0.0000001
 44
0.0000000001
 40
0.0
 40
0.0
 40
0.0
 40
0.0
 40
0.2263128243
 40
0.463610102
 40
1.0
 40
1.0
 40
1.0
 40
1.0
 10
183.239010552
 20
426.3146641273
 30
0.0
 10
183.2390594462
 20
426.6725095814
 30
0.0
 10
183.3448199246
 20
427.4093169168
 30
0.0
 10
183.9828004974
 20
428.8719554506
 30
0.0
 10
184.8665507005
 20
429.7803043977
 30
0.0
 10
185.5385805786
 20
430.2977164921
 30
0.0
  0
SPLINE
  5
2E0
100
AcDbEntity
  8
0
100
AcDbSpline
 62
7
  6
CONTINUOUS
 70
0
 71
3
 72
9
 73
5
 74
0
 42
0.0000001
 43
0.0000001
 44
0.0000000001
 40
0.0
 40
0.0
 40
0.0
 40
0.0
 40
0.2432778937
 40
1.0
 40
1.0
 40
1.0
 40
1.0
 10
185.5385805786
 20
430.2977164921
 30
0.0
 10
185.6211132644
 20
430.3612604076
 30
0.0
 10
185.9650461258
 20
430.6163523454
 30
0.0
 10
186.3266076499
 20
430.8474362369
 30
0.0
 10
186.6071958376
 20
431.0094329356
 30
0.0
  0
SPLINE
  5
2E1
100
AcDbEntity
  8
0
100
AcDbSpline
 62
7
  6
CONTINUOUS
 70
0
 71
3
 72
16
 73
12
 74
0
 42
0.0000001
 43
0.0000001
 44
0.0000000001
 40
0.0
 40
0.0
 40
0.0
 40
0.0
 40
0.0429319729
 40
0.0879771014
 40
0.1886198765
 40
0.3069118268
 40
0.4409414816
 40
0.5849749013
 40
0.731366005
 40
0.8720473485
 40
1.0
 40
1.0
 40
1.0
 40
1.0
 10
213.2255397548
 20
426.7197891487
 30
0.0
 10
213.1913726404
 20
427.2402575826
 30
0.0
 10
212.9833550966
 20
428.3017997672
 30
0.0
 10
212.0165587504
 20
430.3993292445
 30
0.0
 10
209.7694491385
 20
432.7950982248
 30
0.0
 10
206.0232349132
 20
434.9596689244
 30
0.0
 10
201.4059984905
 20
436.4334423577
 30
0.0
 10
196.2686254048
 20
437.1043947342
 30
0.0
 10
191.0096783127
 20
436.9238210925
 30
0.0
 10
186.0471913698
 20
435.9077291944
 30
0.0
 10
183.0036845471
 20
434.6443752951
 30
0.0
 10
181.6574277616
 20
433.8671182172
 30
0.0
  0
SPLINE
  5
2E2
100
AcDbEntity
  8
0
100
AcDbSpline
 62
7
  6
CONTINUOUS
 70
0
 71
3
 72
15
 73
11
 74
0
 42
0.0000001
 43
0.0000001
 44
0.0000000001
 40
0.0
 40
0.0
 40
0.0
 40
0.0
 40
0.0880012136
 40
0.1898156826
 40
0.3089994579
 40
0.4433245753
 40
0.5870726722
 40
0.7327924291
 40
0.8726993398
 40
1.0
 40
1.0
 40
1.0
 40
1.0
 10
238.8629060708
 20
406.2955346134
 30
0.0
 10
238.7958879154
 20
406.8347238165
 30
0.0
 10
238.337435092
 20
407.965312285
 30
0.0
 10
236.9604279361
 20
409.3330495395
 30
0.0
 10
235.0243240494
 20
410.4075216781
 30
0.0
 10
232.664284484
 20
411.1276524391
 30
0.0
 10
230.0551767223
 20
411.446416898
 30
0.0
 10
227.3942260438
 20
411.3391528171
 30
0.0
 10
224.8873892644
 20
410.8152372643
 30
0.0
 10
223.3504726756
 20
410.1738921758
 30
0.0
 10
222.6697918201
 20
409.7809032465
 30
0.0
  0
SPLINE
  5
2E3
100
AcDbEntity
  8
0
100
AcDbSpline
 62
7
  6
CONTINUOUS
 70
0
 71
3
 72
9
 73
5
 74
0
 42
0.0000001
 43
0.0000001
 44
0.0000000001
 40
0.0
 40
0.0
 40
0.0
 40
0.0
 40
0.4491565434
 40
1.0
 40
1.0
 40
1.0
 40
1.0
 10
298.2803364276
 20
389.36899217
 30
0.0
 10
298.2803213925
 20
389.7583751727
 30
0.0
 10
298.6204354379
 20
390.6275084282
 30
0.0
 10
299.3310091379
 20
391.171427915
 30
0.0
 10
299.7445693352
 20
391.410195581
 30
0.0
  0
SPLINE
  5
2E4
100
AcDbEntity
  8
0
100
AcDbSpline
 62
7
  6
CONTINUOUS
 70
0
 71
3
 72
11
 73
7
 74
0
 42
0.0000001
 43
0.0000001
 44
0.0000000001
 40
0.0
 40
0.0
 40
0.0
 40
0.0
 40
0.2177713702
 40
0.4509290507
 40
0.7102263481
 40
1.0
 40
1.0
 40
1.0
 40
1.0
 10
176.2390933771
 20
426.7229154605
 30
0.0
 10
176.2390752675
 20
427.4275141004
 30
0.0
 10
176.4993042997
 20
428.8963043226
 30
0.0
 10
177.6127851922
 20
430.9423479811
 30
0.0
 10
179.3725624658
 20
432.7925199158
 30
0.0
 10
180.8454742006
 20
433.806590617
 30
0.0
 10
181.6574277616
 20
434.2753694258
 30
0.0
  0
SPLINE
  5
2E5
100
AcDbEntity
  8
0
100
AcDbSpline
 62
7
  6
CONTINUOUS
 70
0
 71
3
 72
13
 73
9
 74
0
 42
0.0000001
 43
0.0000001
 44
0.0000000001
 40
0.0
 40
0.0
 40
0.0
 40
0.0
 40
0.0879104041
 40
0.1894644064
 40
0.3736087518
 40
0.586254702
 40
0.8036017038
 40
1.0
 40
1.0
 40
1.0
 40
1.0
 10
298.8507670783
 20
311.5811473358
 30
0.0
 10
298.783754749
 20
312.2361634032
 30
0.0
 10
298.2554297117
 20
313.6176806685
 30
0.0
 10
296.2566739358
 20
315.6467758273
 30
0.0
 10
292.8009461761
 20
317.2609123528
 30
0.0
 10
288.2176293813
 20
318.0032470982
 30
0.0
 10
283.4997649618
 20
317.6470189676
 30
0.0
 10
280.5129328974
 20
316.6207763238
 30
0.0
 10
279.2390143708
 20
315.8852835098
 30
0.0
  0
SPLINE
  5
2E6
100
AcDbEntity
  8
0
100
AcDbSpline
 62
7
  6
CONTINUOUS
 70
0
 71
3
 72
9
 73
5
 74
0
 42
0.0000001
 43
0.0000001
 44
0.0000000001
 40
0.0
 40
0.0
 40
0.0
 40
0.0
 40
0.4611488261
 40
1.0
 40
1.0
 40
1.0
 40
1.0
 10
323.8326368022
 20
346.2994754853
 30
0.0
 10
323.8329014887
 20
346.9021992569
 30
0.0
 10
324.2401488133
 20
348.2195520094
 30
0.0
 10
325.1878497243
 20
349.1728093384
 30
0.0
 10
325.7469543508
 20
349.6010779558
 30
0.0
  0
SPLINE
  5
2E7
100
AcDbEntity
  8
0
100
AcDbSpline
 62
7
  6
CONTINUOUS
 70
0
 71
3
 72
9
 73
5
 74
0
 42
0.0000001
 43
0.0000001
 44
0.0000000001
 40
0.0
 40
0.0
 40
0.0
 40
0.0
 40
0.2434498555
 40
1.0
 40
1.0
 40
1.0
 40
1.0
 10
325.7469543508
 20
349.6010779558
 30
0.0
 10
325.8141144359
 20
349.6525219171
 30
0.0
 10
326.0936864976
 20
349.8589762945
 30
0.0
 10
326.3872420277
 20
350.0463135687
 30
0.0
 10
326.6149214167
 20
350.1777635405
 30
0.0
  0
SPLINE
  5
2E8
100
AcDbEntity
  8
0
100
AcDbSpline
 62
7
  6
CONTINUOUS
 70
0
 71
3
 72
11
 73
7
 74
0
 42
0.0000001
 43
0.0000001
 44
0.0000000001
 40
0.0
 40
0.0
 40
0.0
 40
0.0
 40
0.2177827477
 40
0.4509152641
 40
0.7103063952
 40
1.0
 40
1.0
 40
1.0
 40
1.0
 10
275.8708290852
 20
311.5987659101
 30
0.0
 10
275.8708889332
 20
312.0367797345
 30
0.0
 10
276.032661092
 20
312.9497496612
 30
0.0
 10
276.7248193839
 20
314.221815963
 30
0.0
 10
277.8189581002
 20
315.3716688719
 30
0.0
 10
278.7344291377
 20
316.0022140372
 30
0.0
 10
279.2390143708
 20
316.2935347184
 30
0.0
  0
SPLINE
  5
2E9
100
AcDbEntity
  8
0
100
AcDbSpline
 62
7
  6
CONTINUOUS
 70
0
 71
3
 72
13
 73
9
 74
0
 42
0.0000001
 43
0.0000001
 44
0.0000000001
 40
0.0
 40
0.0
 40
0.0
 40
0.0
 40
0.0879104041
 40
0.1894644064
 40
0.3736087518
 40
0.586254702
 40
0.8036017038
 40
1.0
 40
1.0
 40
1.0
 40
1.0
 10
180.0563332536
 20
380.1655940952
 30
0.0
 10
179.9893209243
 20
380.8206101626
 30
0.0
 10
179.4609958871
 20
382.2021274279
 30
0.0
 10
177.4622401111
 20
384.2312225867
 30
0.0
 10
174.0065123514
 20
385.8453591123
 30
0.0
 10
169.4231955566
 20
386.5876938576
 30
0.0
 10
164.7053311371
 20
386.231465727
 30
0.0
 10
161.7184990727
 20
385.2052230832
 30
0.0
 10
160.4445805461
 20
384.4697302692
 30
0.0
  0
SPLINE
  5
2EA
100
AcDbEntity
  8
0
100
AcDbSpline
 62
7
  6
CONTINUOUS
 70
0
 71
3
 72
9
 73
5
 74
0
 42
0.0000001
 43
0.0000001
 44
0.0000000001
 40
0.0
 40
0.0
 40
0.0
 40
0.0
 40
0.2564800546
 40
1.0
 40
1.0
 40
1.0
 40
1.0
 10
253.7826197266
 20
392.2265612561
 30
0.0
 10
253.6678013412
 20
392.1602712261
 30
0.0
 10
253.2239713766
 20
391.8952558565
 30
0.0
 10
252.7958589533
 20
391.6036102759
 30
0.0
 10
252.4898486978
 20
391.3710647858
 30
0.0
  0
SPLINE
  5
2EB
100
AcDbEntity
  8
0
100
AcDbSpline
 62
7
  6
CONTINUOUS
 70
0
 71
3
 72
9
 73
5
 74
0
 42
0.0000001
 43
0.0000001
 44
0.0000000001
 40
0.0
 40
0.0
 40
0.0
 40
0.0
 40
0.5379054778
 40
1.0
 40
1.0
 40
1.0
 40
1.0
 10
252.4898486978
 20
391.3710647858
 30
0.0
 10
251.683017741
 20
390.7579320658
 30
0.0
 10
250.3100734784
 20
389.4050437165
 30
0.0
 10
249.6200365669
 20
387.559056036
 30
0.0
 10
249.5510202947
 20
386.6912523777
 30
0.0
  0
SPLINE
  5
2EC
100
AcDbEntity
  8
0
100
AcDbSpline
 62
7
  6
CONTINUOUS
 70
0
 71
3
 72
9
 73
5
 74
0
 42
0.0000001
 43
0.0000001
 44
0.0000000001
 40
0.0
 40
0.0
 40
0.0
 40
0.0
 40
0.4998374618
 40
1.0
 40
1.0
 40
1.0
 40
1.0
 10
411.2343600928
 20
326.5857329725
 30
0.0
 10
410.3138590041
 20
326.9737913326
 30
0.0
 10
408.2887645174
 20
327.3077010532
 30
0.0
 10
406.2635608464
 20
326.9750461381
 30
0.0
 10
405.3420958724
 20
326.5876028765
 30
0.0
  0
SPLINE
  5
2ED
100
AcDbEntity
  8
0
100
AcDbSpline
 62
7
  6
CONTINUOUS
 70
0
 71
3
 72
11
 73
7
 74
0
 42
0.0000001
 43
0.0000001
 44
0.0000000001
 40
0.0
 40
0.0
 40
0.0
 40
0.0
 40
0.2177827477
 40
0.4509152641
 40
0.7103063952
 40
1.0
 40
1.0
 40
1.0
 40
1.0
 10
263.7890943824
 20
346.9117067655
 30
0.0
 10
263.7891490263
 20
347.3116324312
 30
0.0
 10
263.9368540408
 20
348.1452136686
 30
0.0
 10
264.5688246551
 20
349.3066655094
 30
0.0
 10
265.5678208743
 20
350.3565312089
 30
0.0
 10
266.4036857347
 20
350.9322463598
 30
0.0
 10
266.864393991
 20
351.1982348078
 30
0.0
  0
SPLINE
  5
2EE
100
AcDbEntity
  8
0
100
AcDbSpline
 62
7
  6
CONTINUOUS
 70
0
 71
3
 72
15
 73
11
 74
0
 42
0.0000001
 43
0.0000001
 44
0.0000000001
 40
0.0
 40
0.0
 40
0.0
 40
0.0
 40
0.1288282493
 40
0.2705764289
 40
0.4178924529
 40
0.5623916177
 40
0.6962056481
 40
0.8135944279
 40
0.9130651203
 40
1.0
 40
1.0
 40
1.0
 40
1.0
 10
257.3181683523
 20
390.1853574835
 30
0.0
 10
258.0213920651
 20
390.5913614599
 30
0.0
 10
259.6136558264
 20
391.2482897225
 30
0.0
 10
262.2086293142
 20
391.7675079596
 30
0.0
 10
264.9535103572
 20
391.8434363025
 30
0.0
 10
267.6232435131
 20
391.468467371
 30
0.0
 10
270.0047716696
 20
390.6727600964
 30
0.0
 10
271.9124378812
 20
389.5103865154
 30
0.0
 10
273.2047470737
 20
388.0407485025
 30
0.0
 10
273.5357783796
 20
386.8550265097
 30
0.0
 10
273.5355377447
 20
386.3070712028
 30
0.0
  0
SPLINE
  5
2EF
100
AcDbEntity
  8
0
100
AcDbSpline
 62
7
  6
CONTINUOUS
 70
0
 71
3
 72
9
 73
5
 74
0
 42
0.0000001
 43
0.0000001
 44
0.0000000001
 40
0.0
 40
0.0
 40
0.0
 40
0.0
 40
0.5401134168
 40
1.0
 40
1.0
 40
1.0
 40
1.0
 10
256.6560325964
 20
389.3524815218
 30
0.0
 10
256.09367481
 20
388.9516951786
 30
0.0
 10
255.1321348923
 20
388.0662073483
 30
0.0
 10
254.6191831897
 20
386.8300509823
 30
0.0
 10
254.5549838505
 20
386.2455782425
 30
0.0
  0
SPLINE
  5
2F0
100
AcDbEntity
  8
0
100
AcDbSpline
 62
7
  6
CONTINUOUS
 70
0
 71
3
 72
11
 73
7
 74
0
 42
0.0000001
 43
0.0000001
 44
0.0000000001
 40
0.0
 40
0.0
 40
0.0
 40
0.0
 40
0.2177827477
 40
0.4509152641
 40
0.7103063952
 40
1.0
 40
1.0
 40
1.0
 40
1.0
 10
157.0763952605
 20
380.1832126695
 30
0.0
 10
157.0764551085
 20
380.6212264939
 30
0.0
 10
157.2382272673
 20
381.5341964206
 30
0.0
 10
157.9303855592
 20
382.8062627224
 30
0.0
 10
159.0245242755
 20
383.9561156314
 30
0.0
 10
159.939995313
 20
384.5866607966
 30
0.0
 10
160.4445805461
 20
384.8779814778
 30
0.0
  0
SPLINE
  5
2F1
100
AcDbEntity
  8
0
100
AcDbSpline
 62
7
  6
CONTINUOUS
 70
0
 71
3
 72
9
 73
5
 74
0
 42
0.0000001
 43
0.0000001
 44
0.0000000001
 40
0.0
 40
0.0
 40
0.0
 40
0.0
 40
0.2586592185
 40
1.0
 40
1.0
 40
1.0
 40
1.0
 10
190.1431890023
 20
367.3236185794
 30
0.0
 10
190.0241453505
 20
367.2548891052
 30
0.0
 10
189.5691122363
 20
366.9803679254
 30
0.0
 10
189.135336602
 20
366.6698468028
 30
0.0
 10
188.8322203849
 20
366.4181840066
 30
0.0
  0
SPLINE
  5
2F2
100
AcDbEntity
  8
0
100
AcDbSpline
 62
7
  6
CONTINUOUS
 70
0
 71
3
 72
9
 73
5
 74
0
 42
0.0000001
 43
0.0000001
 44
0.0000000001
 40
0.0
 40
0.0
 40
0.0
 40
0.0
 40
0.5339386437
 40
1.0
 40
1.0
 40
1.0
 40
1.0
 10
188.8322203849
 20
366.4181840066
 30
0.0
 10
188.279132653
 20
365.9589819008
 30
0.0
 10
187.3403174504
 20
364.9558145165
 30
0.0
 10
186.858929408
 20
363.6436635952
 30
0.0
 10
186.7950080685
 20
363.0194455966
 30
0.0
  0
SPLINE
  5
2F3
100
AcDbEntity
  8
0
100
AcDbSpline
 62
7
  6
CONTINUOUS
 70
0
 71
3
 72
9
 73
5
 74
0
 42
0.0000001
 43
0.0000001
 44
0.0000000001
 40
0.0
 40
0.0
 40
0.0
 40
0.0
 40
0.4491565434
 40
1.0
 40
1.0
 40
1.0
 40
1.0
 10
403.286130612
 20
328.7452401237
 30
0.0
 10
403.2861155768
 20
329.1346231264
 30
0.0
 10
403.6262296222
 20
330.003756382
 30
0.0
 10
404.3368033222
 20
330.5476758687
 30
0.0
 10
404.7503635195
 20
330.7864435348
 30
0.0
  0
SPLINE
  5
2F4
100
AcDbEntity
  8
0
100
AcDbSpline
 62
7
  6
CONTINUOUS
 70
0
 71
3
 72
11
 73
7
 74
0
 42
0.0000001
 43
0.0000001
 44
0.0000000001
 40
0.0
 40
0.0
 40
0.0
 40
0.0
 40
0.2843542978
 40
0.5421605838
 40
0.7778904062
 40
1.0
 40
1.0
 40
1.0
 40
1.0
 10
97.2877453034
 20
432.0434270185
 30
0.0
 10
96.4468957323
 20
431.4744276505
 30
0.0
 10
94.9203662328
 20
430.2660117704
 30
0.0
 10
93.0983973955
 20
428.1425943196
 30
0.0
 10
91.9162875614
 20
425.8473436997
 30
0.0
 10
91.5893868844
 20
424.2180910634
 30
0.0
 10
91.5520730916
 20
423.4259345698
 30
0.0
  0
SPLINE
  5
2F5
100
AcDbEntity
  8
0
100
AcDbSpline
 62
7
  6
CONTINUOUS
 70
0
 71
3
 72
16
 73
12
 74
0
 42
0.0000001
 43
0.0000001
 44
0.0000000001
 40
0.0
 40
0.0
 40
0.0
 40
0.0
 40
0.0429293127
 40
0.0879632972
 40
0.1885732623
 40
0.3068398482
 40
0.4408621605
 40
0.5849062327
 40
0.7313196739
 40
0.8720266369
 40
1.0
 40
1.0
 40
1.0
 40
1.0
 10
381.31124454
 20
280.5693798452
 30
0.0
 10
381.2770680407
 20
281.1040961689
 30
0.0
 10
381.0652146714
 20
282.194849266
 30
0.0
 10
380.0752313888
 20
284.350589431
 30
0.0
 10
377.7695293469
 20
286.8135303104
 30
0.0
 10
373.9228333221
 20
289.0390320749
 30
0.0
 10
369.1802126297
 20
290.554748827
 30
0.0
 10
363.9022918127
 20
291.2454000012
 30
0.0
 10
358.4988624503
 20
291.0608192405
 30
0.0
 10
353.3997993208
 20
290.0173894644
 30
0.0
 10
350.2724968437
 20
288.7194581811
 30
0.0
 10
348.8892310348
 20
287.9208340611
 30
0.0
  0
SPLINE
  5
2F6
100
AcDbEntity
  8
0
100
AcDbSpline
 62
7
  6
CONTINUOUS
 70
0
 71
3
 72
16
 73
12
 74
0
 42
0.0000001
 43
0.0000001
 44
0.0000000001
 40
0.0
 40
0.0
 40
0.0
 40
0.0
 40
0.128747454
 40
0.270393424
 40
0.4176106758
 40
0.5620193413
 40
0.6957500534
 40
0.8130682603
 40
0.9124745427
 40
0.957123221
 40
1.0
 40
1.0
 40
1.0
 40
1.0
 10
102.1079369585
 20
430.8051085972
 30
0.0
 10
103.5144207741
 20
431.6171375596
 30
0.0
 10
106.6988541673
 20
432.931009896
 30
0.0
 10
111.8887161085
 20
433.9693806555
 30
0.0
 10
117.3783390846
 20
434.1211185369
 30
0.0
 10
122.7179645945
 20
433.3720273484
 30
0.0
 10
127.4809087193
 20
431.7777234435
 30
0.0
 10
131.2972903476
 20
429.4618439238
 30
0.0
 10
133.5202739816
 20
426.9087841964
 30
0.0
 10
134.398367358
 20
424.6981909141
 30
0.0
 10
134.5428685134
 20
423.5893968753
 30
0.0
 10
134.5428821541
 20
423.0485342619
 30
0.0
  0
SPLINE
  5
2F7
100
AcDbEntity
  8
0
100
AcDbSpline
 62
7
  6
CONTINUOUS
 70
0
 71
3
 72
11
 73
7
 74
0
 42
0.0000001
 43
0.0000001
 44
0.0000000001
 40
0.0
 40
0.0
 40
0.0
 40
0.0
 40
0.2852590022
 40
0.5435144354
 40
0.7789488404
 40
1.0
 40
1.0
 40
1.0
 40
1.0
 10
101.3314627686
 20
429.9208701365
 30
0.0
 10
100.6390463359
 20
429.4701798779
 30
0.0
 10
99.3800834163
 20
428.5102821021
 30
0.0
 10
97.8683035409
 20
426.8133653135
 30
0.0
 10
96.8771455474
 20
424.9712791892
 30
0.0
 10
96.5924867513
 20
423.6572065798
 30
0.0
 10
96.5544027797
 20
423.0181272121
 30
0.0
  0
SPLINE
  5
2F8
100
AcDbEntity
  8
0
100
AcDbSpline
 62
7
  6
CONTINUOUS
 70
0
 71
3
 72
11
 73
7
 74
0
 42
0.0000001
 43
0.0000001
 44
0.0000000001
 40
0.0
 40
0.0
 40
0.0
 40
0.0
 40
0.2222189479
 40
0.4573157506
 40
0.7148633777
 40
1.0
 40
1.0
 40
1.0
 40
1.0
 10
343.3244553948
 20
280.5725109332
 30
0.0
 10
343.3244390288
 20
281.2214328971
 30
0.0
 10
343.5364098512
 20
282.5645389323
 30
0.0
 10
344.4548811348
 20
284.4662887794
 30
0.0
 10
345.9235810817
 20
286.2230051261
 30
0.0
 10
347.170234246
 20
287.217433928
 30
0.0
 10
347.8593764733
 20
287.6847615253
 30
0.0
  0
SPLINE
  5
2F9
100
AcDbEntity
  8
0
100
AcDbSpline
 62
7
  6
CONTINUOUS
 70
0
 71
3
 72
9
 73
5
 74
0
 42
0.0000001
 43
0.0000001
 44
0.0000000001
 40
0.0
 40
0.0
 40
0.0
 40
0.0
 40
0.2564800546
 40
1.0
 40
1.0
 40
1.0
 40
1.0
 10
288.4309962588
 20
372.2227642846
 30
0.0
 10
288.3161778734
 20
372.1564742546
 30
0.0
 10
287.8723479088
 20
371.891458885
 30
0.0
 10
287.4442354855
 20
371.5998133044
 30
0.0
 10
287.13822523
 20
371.3672678143
 30
0.0
  0
SPLINE
  5
2FA
100
AcDbEntity
  8
0
100
AcDbSpline
 62
7
  6
CONTINUOUS
 70
0
 71
3
 72
9
 73
5
 74
0
 42
0.0000001
 43
0.0000001
 44
0.0000000001
 40
0.0
 40
0.0
 40
0.0
 40
0.0
 40
0.5379054778
 40
1.0
 40
1.0
 40
1.0
 40
1.0
 10
287.13822523
 20
371.3672678143
 30
0.0
 10
286.3313942732
 20
370.7541350943
 30
0.0
 10
284.9584500106
 20
369.401246745
 30
0.0
 10
284.2684130991
 20
367.5552590645
 30
0.0
 10
284.1993968269
 20
366.6874554062
 30
0.0
  0
SPLINE
  5
2FB
100
AcDbEntity
  8
0
100
AcDbSpline
 62
7
  6
CONTINUOUS
 70
0
 71
3
 72
17
 73
13
 74
0
 42
0.0000001
 43
0.0000001
 44
0.0000000001
 40
0.0
 40
0.0
 40
0.0
 40
0.0
 40
0.0428934023
 40
0.087824345
 40
0.1361053538
 40
0.1885459954
 40
0.3065692511
 40
0.4404794205
 40
0.5845450919
 40
0.7310697223
 40
0.8719169753
 40
1.0
 40
1.0
 40
1.0
 40
1.0
 10
386.3139086014
 20
280.9775450613
 30
0.0
 10
386.2796629459
 20
281.6547042525
 30
0.0
 10
386.0295169323
 20
283.0374698796
 30
0.0
 10
385.1458675119
 20
285.0181349029
 30
0.0
 10
383.7799661698
 20
286.8899700251
 30
0.0
 10
381.2661470367
 20
289.2856781021
 30
0.0
 10
377.0614711358
 20
291.7486555575
 30
0.0
 10
371.069840671
 20
293.6788317402
 30
0.0
 10
364.3851154969
 20
294.5680148017
 30
0.0
 10
357.5373080305
 20
294.3429918184
 30
0.0
 10
351.0723537724
 20
293.0263316413
 30
0.0
 10
347.1070694785
 20
291.3826014961
 30
0.0
 10
345.3536824091
 20
290.3702890422
 30
0.0
  0
SPLINE
  5
2FC
100
AcDbEntity
  8
0
100
AcDbSpline
 62
7
  6
CONTINUOUS
 70
0
 71
3
 72
15
 73
11
 74
0
 42
0.0000001
 43
0.0000001
 44
0.0000000001
 40
0.0
 40
0.0
 40
0.0
 40
0.0
 40
0.1288282493
 40
0.2705764289
 40
0.4178924529
 40
0.5623916177
 40
0.6962056481
 40
0.8135944279
 40
0.9130651203
 40
1.0
 40
1.0
 40
1.0
 40
1.0
 10
291.9665448845
 20
370.181560512
 30
0.0
 10
292.6697685973
 20
370.5875644884
 30
0.0
 10
294.2620323587
 20
371.244492751
 30
0.0
 10
296.8570058464
 20
371.7637109881
 30
0.0
 10
299.6018868894
 20
371.839639331
 30
0.0
 10
302.2716200453
 20
371.4646703995
 30
0.0
 10
304.6531482018
 20
370.6689631249
 30
0.0
 10
306.5608144134
 20
369.5065895439
 30
0.0
 10
307.853123606
 20
368.036951531
 30
0.0
 10
308.1841549118
 20
366.8512295382
 30
0.0
 10
308.1839142769
 20
366.3032742313
 30
0.0
  0
SPLINE
  5
2FD
100
AcDbEntity
  8
0
100
AcDbSpline
 62
7
  6
CONTINUOUS
 70
0
 71
3
 72
9
 73
5
 74
0
 42
0.0000001
 43
0.0000001
 44
0.0000000001
 40
0.0
 40
0.0
 40
0.0
 40
0.0
 40
0.5401134168
 40
1.0
 40
1.0
 40
1.0
 40
1.0
 10
291.3044091286
 20
369.3486845503
 30
0.0
 10
290.7420513422
 20
368.9478982071
 30
0.0
 10
289.7805114245
 20
368.0624103768
 30
0.0
 10
289.2675597219
 20
366.8262540108
 30
0.0
 10
289.2033603827
 20
366.241781271
 30
0.0
  0
SPLINE
  5
2FE
100
AcDbEntity
  8
0
100
AcDbSpline
 62
7
  6
CONTINUOUS
 70
0
 71
3
 72
9
 73
5
 74
0
 42
0.0000001
 43
0.0000001
 44
0.0000000001
 40
0.0
 40
0.0
 40
0.0
 40
0.0
 40
0.4998374618
 40
1.0
 40
1.0
 40
1.0
 40
1.0
 10
411.2347428084
 20
273.5142139271
 30
0.0
 10
410.3142417198
 20
273.9022722871
 30
0.0
 10
408.289147233
 20
274.2361820078
 30
0.0
 10
406.263943562
 20
273.9035270926
 30
0.0
 10
405.3424785881
 20
273.5160838311
 30
0.0
  0
SPLINE
  5
2FF
100
AcDbEntity
  8
0
100
AcDbSpline
 62
7
  6
CONTINUOUS
 70
0
 71
3
 72
9
 73
5
 74
0
 42
0.0000001
 43
0.0000001
 44
0.0000000001
 40
0.0
 40
0.0
 40
0.0
 40
0.0
 40
0.2586592185
 40
1.0
 40
1.0
 40
1.0
 40
1.0
 10
249.5404059147
 20
333.0313951997
 30
0.0
 10
249.4213622628
 20
332.9626657255
 30
0.0
 10
248.9663291487
 20
332.6881445457
 30
0.0
 10
248.5325535143
 20
332.3776234231
 30
0.0
 10
248.2294372972
 20
332.1259606269
 30
0.0
  0
SPLINE
  5
300
100
AcDbEntity
  8
0
100
AcDbSpline
 62
7
  6
CONTINUOUS
 70
0
 71
3
 72
9
 73
5
 74
0
 42
0.0000001
 43
0.0000001
 44
0.0000000001
 40
0.0
 40
0.0
 40
0.0
 40
0.0
 40
0.5339386437
 40
1.0
 40
1.0
 40
1.0
 40
1.0
 10
248.2294372972
 20
332.1259606269
 30
0.0
 10
247.6763495654
 20
331.6667585211
 30
0.0
 10
246.7375343627
 20
330.6635911368
 30
0.0
 10
246.2561463203
 20
329.3514402155
 30
0.0
 10
246.1922249809
 20
328.7272222169
 30
0.0
  0
SPLINE
  5
301
100
AcDbEntity
  8
0
100
AcDbSpline
 62
7
  6
CONTINUOUS
 70
0
 71
3
 72
14
 73
10
 74
0
 42
0.0000001
 43
0.0000001
 44
0.0000000001
 40
0.0
 40
0.0
 40
0.0
 40
0.0
 40
0.0881293517
 40
0.1901029291
 40
0.3094616718
 40
0.4439667805
 40
0.5878883577
 40
0.7337715059
 40
1.0
 40
1.0
 40
1.0
 40
1.0
 10
172.1947675488
 20
411.1904749827
 30
0.0
 10
172.1283785118
 20
411.7181788036
 30
0.0
 10
171.6782115444
 20
412.8242867227
 30
0.0
 10
170.3293418978
 20
414.1621399023
 30
0.0
 10
168.4335230251
 20
415.2130105207
 30
0.0
 10
166.1240653198
 20
415.9170694646
 30
0.0
 10
163.5679134278
 20
416.2285718838
 30
0.0
 10
160.2129032468
 20
416.0918965648
 30
0.0
 10
157.7345870819
 20
415.4013588019
 30
0.0
 10
156.3431439506
 20
414.5980135308
 30
0.0
  0
SPLINE
  5
302
100
AcDbEntity
  8
0
100
AcDbSpline
 62
7
  6
CONTINUOUS
 70
0
 71
3
 72
11
 73
7
 74
0
 42
0.0000001
 43
0.0000001
 44
0.0000000001
 40
0.0
 40
0.0
 40
0.0
 40
0.0
 40
0.2843542978
 40
0.5421605838
 40
0.7778904062
 40
1.0
 40
1.0
 40
1.0
 40
1.0
 10
344.0690393797
 20
289.5674036909
 30
0.0
 10
343.2281898086
 20
288.9984043229
 30
0.0
 10
341.7016603091
 20
287.7899884428
 30
0.0
 10
339.8796914718
 20
285.666570992
 30
0.0
 10
338.6975816377
 20
283.3713203721
 30
0.0
 10
338.3706809607
 20
281.7420677358
 30
0.0
 10
338.3333671679
 20
280.9499112422
 30
0.0
  0
SPLINE
  5
303
100
AcDbEntity
  8
0
100
AcDbSpline
 62
7
  6
CONTINUOUS
 70
0
 71
3
 72
9
 73
5
 74
0
 42
0.0000001
 43
0.0000001
 44
0.0000000001
 40
0.0
 40
0.0
 40
0.0
 40
0.0
 40
0.4491565434
 40
1.0
 40
1.0
 40
1.0
 40
1.0
 10
403.2865133276
 20
275.6737210783
 30
0.0
 10
403.2864982925
 20
276.063104081
 30
0.0
 10
403.6266123379
 20
276.9322373365
 30
0.0
 10
404.3371860378
 20
277.4761568233
 30
0.0
 10
404.7507462352
 20
277.7149244893
 30
0.0
  0
SPLINE
  5
304
100
AcDbEntity
  8
0
100
AcDbSpline
 62
7
  6
CONTINUOUS
 70
0
 71
3
 72
11
 73
7
 74
0
 42
0.0000001
 43
0.0000001
 44
0.0000000001
 40
0.0
 40
0.0
 40
0.0
 40
0.0
 40
0.2177724353
 40
0.4509309023
 40
0.710227729
 40
1.0
 40
1.0
 40
1.0
 40
1.0
 10
338.3244929877
 20
280.9807621663
 30
0.0
 10
338.3244721557
 20
281.8948407466
 30
0.0
 10
338.6620509103
 20
283.8003104426
 30
0.0
 10
340.1065962383
 20
286.4546309529
 30
0.0
 10
342.3895358118
 20
288.8548594106
 30
0.0
 10
344.3003420401
 20
290.1703975353
 30
0.0
 10
345.3536824091
 20
290.7785402508
 30
0.0
  0
SPLINE
  5
305
100
AcDbEntity
  8
0
100
AcDbSpline
 62
7
  6
CONTINUOUS
 70
0
 71
3
 72
16
 73
12
 74
0
 42
0.0000001
 43
0.0000001
 44
0.0000000001
 40
0.0
 40
0.0
 40
0.0
 40
0.0
 40
0.128747454
 40
0.270393424
 40
0.4176106758
 40
0.5620193413
 40
0.6957500534
 40
0.8130682603
 40
0.9124745427
 40
0.957123221
 40
1.0
 40
1.0
 40
1.0
 40
1.0
 10
348.8892310348
 20
288.3290852696
 30
0.0
 10
350.2957148504
 20
289.141114232
 30
0.0
 10
353.4801482436
 20
290.4549865684
 30
0.0
 10
358.6700101848
 20
291.4933573279
 30
0.0
 10
364.1596331609
 20
291.6450952093
 30
0.0
 10
369.4992586708
 20
290.8960040208
 30
0.0
 10
374.2622027956
 20
289.3017001159
 30
0.0
 10
378.0785844239
 20
286.9858205962
 30
0.0
 10
380.3015680579
 20
284.4327608688
 30
0.0
 10
381.1796614343
 20
282.2221675865
 30
0.0
 10
381.3241625897
 20
281.1133735477
 30
0.0
 10
381.3241762304
 20
280.5725109343
 30
0.0
  0
SPLINE
  5
306
100
AcDbEntity
  8
0
100
AcDbSpline
 62
7
  6
CONTINUOUS
 70
0
 71
3
 72
11
 73
7
 74
0
 42
0.0000001
 43
0.0000001
 44
0.0000000001
 40
0.0
 40
0.0
 40
0.0
 40
0.0
 40
0.2852590022
 40
0.5435144354
 40
0.7789488404
 40
1.0
 40
1.0
 40
1.0
 40
1.0
 10
348.1127568449
 20
287.4448468089
 30
0.0
 10
347.4203404122
 20
286.9941565503
 30
0.0
 10
346.1613774926
 20
286.0342587746
 30
0.0
 10
344.6495976172
 20
284.3373419859
 30
0.0
 10
343.6584396237
 20
282.4952558616
 30
0.0
 10
343.3737808276
 20
281.1811832522
 30
0.0
 10
343.335696856
 20
280.5421038846
 30
0.0
  0
SPLINE
  5
307
100
AcDbEntity
  8
0
100
AcDbSpline
 62
7
  6
CONTINUOUS
 70
0
 71
3
 72
13
 73
9
 74
0
 42
0.0000001
 43
0.0000001
 44
0.0000000001
 40
0.0
 40
0.0
 40
0.0
 40
0.0
 40
0.0879104041
 40
0.1894644064
 40
0.3736087518
 40
0.586254702
 40
0.8036017038
 40
1.0
 40
1.0
 40
1.0
 40
1.0
 10
269.1521586221
 20
328.7272590257
 30
0.0
 10
269.0851462928
 20
329.382275093
 30
0.0
 10
268.5568212556
 20
330.7637923583
 30
0.0
 10
266.5580654796
 20
332.7928875171
 30
0.0
 10
263.1023377199
 20
334.4070240427
 30
0.0
 10
258.5190209251
 20
335.149358788
 30
0.0
 10
253.8011565056
 20
334.7931306575
 30
0.0
 10
250.8143244412
 20
333.7668880136
 30
0.0
 10
249.5404059147
 20
333.0313951997
 30
0.0
  0
SPLINE
  5
308
100
AcDbEntity
  8
0
100
AcDbSpline
 62
7
  6
CONTINUOUS
 70
0
 71
3
 72
9
 73
5
 74
0
 42
0.0000001
 43
0.0000001
 44
0.0000000001
 40
0.0
 40
0.0
 40
0.0
 40
0.0
 40
0.2586592185
 40
1.0
 40
1.0
 40
1.0
 40
1.0
 10
160.4445805461
 20
384.4697302692
 30
0.0
 10
160.3255368943
 20
384.4010007951
 30
0.0
 10
159.8705037801
 20
384.1264796153
 30
0.0
 10
159.4367281458
 20
383.8159584927
 30
0.0
 10
159.1336119287
 20
383.5642956964
 30
0.0
  0
SPLINE
  5
309
100
AcDbEntity
  8
0
100
AcDbSpline
 62
7
  6
CONTINUOUS
 70
0
 71
3
 72
9
 73
5
 74
0
 42
0.0000001
 43
0.0000001
 44
0.0000000001
 40
0.0
 40
0.0
 40
0.0
 40
0.0
 40
0.5339386437
 40
1.0
 40
1.0
 40
1.0
 40
1.0
 10
159.1336119287
 20
383.5642956964
 30
0.0
 10
158.5805241968
 20
383.1050935907
 30
0.0
 10
157.6417089942
 20
382.1019262064
 30
0.0
 10
157.1603209518
 20
380.789775285
 30
0.0
 10
157.0963996123
 20
380.1655572865
 30
0.0
  0
SPLINE
  5
30A
100
AcDbEntity
  8
0
100
AcDbSpline
 62
7
  6
CONTINUOUS
 70
0
 71
3
 72
11
 73
7
 74
0
 42
0.0000001
 43
0.0000001
 44
0.0000000001
 40
0.0
 40
0.0
 40
0.0
 40
0.0
 40
0.2177827477
 40
0.4509152641
 40
0.7103063952
 40
1.0
 40
1.0
 40
1.0
 40
1.0
 10
241.5151380403
 20
359.7712905329
 30
0.0
 10
241.5151926841
 20
360.1712161986
 30
0.0
 10
241.6628976986
 20
361.004797436
 30
0.0
 10
242.294868313
 20
362.1662492768
 30
0.0
 10
243.2938645322
 20
363.2161149763
 30
0.0
 10
244.1297293926
 20
363.7918301271
 30
0.0
 10
244.5904376489
 20
364.0578185752
 30
0.0
  0
SPLINE
  5
30B
100
AcDbEntity
  8
0
100
AcDbSpline
 62
7
  6
CONTINUOUS
 70
0
 71
3
 72
9
 73
5
 74
0
 42
0.0000001
 43
0.0000001
 44
0.0000000001
 40
0.0
 40
0.0
 40
0.0
 40
0.0
 40
0.2586592185
 40
1.0
 40
1.0
 40
1.0
 40
1.0
 10
279.2390143708
 20
315.8852835098
 30
0.0
 10
279.119970719
 20
315.8165540356
 30
0.0
 10
278.6649376048
 20
315.5420328559
 30
0.0
 10
278.2311619705
 20
315.2315117332
 30
0.0
 10
277.9280457534
 20
314.979848937
 30
0.0
  0
SPLINE
  5
30C
100
AcDbEntity
  8
0
100
AcDbSpline
 62
7
  6
CONTINUOUS
 70
0
 71
3
 72
9
 73
5
 74
0
 42
0.0000001
 43
0.0000001
 44
0.0000000001
 40
0.0
 40
0.0
 40
0.0
 40
0.0
 40
0.5339386437
 40
1.0
 40
1.0
 40
1.0
 40
1.0
 10
277.9280457534
 20
314.979848937
 30
0.0
 10
277.3749580215
 20
314.5206468312
 30
0.0
 10
276.4361428189
 20
313.517479447
 30
0.0
 10
275.9547547765
 20
312.2053285256
 30
0.0
 10
275.890833437
 20
311.581110527
 30
0.0
  0
SPLINE
  5
30D
100
AcDbEntity
  8
0
100
AcDbSpline
 62
7
  6
CONTINUOUS
 70
0
 71
3
 72
9
 73
5
 74
0
 42
0.0000001
 43
0.0000001
 44
0.0000000001
 40
0.0
 40
0.0
 40
0.0
 40
0.0
 40
0.2548373915
 40
1.0
 40
1.0
 40
1.0
 40
1.0
 10
181.6574277616
 20
433.8671182172
 30
0.0
 10
181.546179697
 20
433.8028895006
 30
0.0
 10
181.1124635138
 20
433.5459986164
 30
0.0
 10
180.6903043686
 20
433.2694721393
 30
0.0
 10
180.3840743517
 20
433.0519547665
 30
0.0
  0
SPLINE
  5
30E
100
AcDbEntity
  8
0
100
AcDbSpline
 62
7
  6
CONTINUOUS
 70
0
 71
3
 72
11
 73
7
 74
0
 42
0.0000001
 43
0.0000001
 44
0.0000000001
 40
0.0
 40
0.0
 40
0.0
 40
0.0
 40
0.2826345634
 40
0.5400181009
 40
0.7765417304
 40
1.0
 40
1.0
 40
1.0
 40
1.0
 10
180.3840743517
 20
433.0519547665
 30
0.0
 10
179.7828725095
 20
432.6249167952
 30
0.0
 10
178.6910593168
 20
431.7221062212
 30
0.0
 10
177.3873653389
 20
430.1529128614
 30
0.0
 10
176.5338818412
 20
428.4671838604
 30
0.0
 10
176.2862699232
 20
427.2745309776
 30
0.0
 10
176.2506442079
 20
426.6925878973
 30
0.0
  0
SPLINE
  5
30F
100
AcDbEntity
  8
0
100
AcDbSpline
 62
7
  6
CONTINUOUS
 70
0
 71
3
 72
9
 73
5
 74
0
 42
0.0000001
 43
0.0000001
 44
0.0000000001
 40
0.0
 40
0.0
 40
0.0
 40
0.0
 40
0.4998374618
 40
1.0
 40
1.0
 40
1.0
 40
1.0
 10
319.310861255
 20
273.5139929692
 30
0.0
 10
318.3903601663
 20
273.9020513293
 30
0.0
 10
316.3652656796
 20
274.2359610499
 30
0.0
 10
314.3400620086
 20
273.9033061348
 30
0.0
 10
313.4185970346
 20
273.5158628733
 30
0.0
  0
SPLINE
  5
310
100
AcDbEntity
  8
0
100
AcDbSpline
 62
7
  6
CONTINUOUS
 70
0
 71
3
 72
15
 73
11
 74
0
 42
0.0000001
 43
0.0000001
 44
0.0000000001
 40
0.0
 40
0.0
 40
0.0
 40
0.0
 40
0.1288320654
 40
0.2705723687
 40
0.4178906197
 40
0.562389031
 40
0.6962036827
 40
0.8135940917
 40
0.9130655393
 40
1.0
 40
1.0
 40
1.0
 40
1.0
 10
186.6071958376
 20
431.0094329356
 30
0.0
 10
187.4584922907
 20
431.5009262381
 30
0.0
 10
189.3859207776
 20
432.2962065132
 30
0.0
 10
192.5272213583
 20
432.9246018274
 30
0.0
 10
195.8499205238
 20
433.0165330531
 30
0.0
 10
199.0817117003
 20
432.5625692306
 30
0.0
 10
201.9646448313
 20
431.5994017427
 30
0.0
 10
204.2739701013
 20
430.1923669633
 30
0.0
 10
205.8383896853
 20
428.4132744889
 30
0.0
 10
206.2389954332
 20
426.977975902
 30
0.0
 10
206.2389048016
 20
426.3146643898
 30
0.0
  0
SPLINE
  5
311
100
AcDbEntity
  8
0
100
AcDbSpline
 62
7
  6
CONTINUOUS
 70
0
 71
3
 72
9
 73
5
 74
0
 42
0.0000001
 43
0.0000001
 44
0.0000000001
 40
0.0
 40
0.0
 40
0.0
 40
0.0
 40
0.2549253982
 40
1.0
 40
1.0
 40
1.0
 40
1.0
 10
186.6071958376
 20
430.601181727
 30
0.0
 10
186.5362691494
 20
430.5602324289
 30
0.0
 10
186.2598991038
 20
430.3964185657
 30
0.0
 10
185.9911075641
 20
430.2197354557
 30
0.0
 10
185.7963346878
 20
430.0805941866
 30
0.0
  0
SPLINE
  5
312
100
AcDbEntity
  8
0
100
AcDbSpline
 62
7
  6
CONTINUOUS
 70
0
 71
3
 72
9
 73
5
 74
0
 42
0.0000001
 43
0.0000001
 44
0.0000000001
 40
0.0
 40
0.0
 40
0.0
 40
0.0
 40
0.5400979608
 40
1.0
 40
1.0
 40
1.0
 40
1.0
 10
185.7963346878
 20
430.0805941866
 30
0.0
 10
185.1136066398
 20
429.5928689506
 30
0.0
 10
183.9469269118
 20
428.5142192505
 30
0.0
 10
183.3317964876
 20
427.0077506487
 30
0.0
 10
183.2590149038
 20
426.2970087442
 30
0.0
  0
SPLINE
  5
313
100
AcDbEntity
  8
0
100
AcDbSpline
 62
7
  6
CONTINUOUS
 70
0
 71
3
 72
11
 73
7
 74
0
 42
0.0000001
 43
0.0000001
 44
0.0000000001
 40
0.0
 40
0.0
 40
0.0
 40
0.0
 40
0.2177827477
 40
0.4509152641
 40
0.7103063952
 40
1.0
 40
1.0
 40
1.0
 40
1.0
 10
246.172220629
 20
328.7448776
 30
0.0
 10
246.1722804771
 20
329.1828914243
 30
0.0
 10
246.3340526358
 20
330.095861351
 30
0.0
 10
247.0262109277
 20
331.3679276529
 30
0.0
 10
248.120349644
 20
332.5177805618
 30
0.0
 10
249.0358206816
 20
333.148325727
 30
0.0
 10
249.5404059147
 20
333.4396464082
 30
0.0
  0
SPLINE
  5
314
100
AcDbEntity
  8
0
100
AcDbSpline
 62
7
  6
CONTINUOUS
 70
0
 71
3
 72
9
 73
5
 74
0
 42
0.0000001
 43
0.0000001
 44
0.0000000001
 40
0.0
 40
0.0
 40
0.0
 40
0.0
 40
0.2548373915
 40
1.0
 40
1.0
 40
1.0
 40
1.0
 10
354.8993104226
 20
333.8481333597
 30
0.0
 10
354.788062358
 20
333.7839046431
 30
0.0
 10
354.3543461749
 20
333.5270137589
 30
0.0
 10
353.9321870297
 20
333.2504872818
 30
0.0
 10
353.6259570127
 20
333.032969909
 30
0.0
  0
SPLINE
  5
315
100
AcDbEntity
  8
0
100
AcDbSpline
 62
7
  6
CONTINUOUS
 70
0
 71
3
 72
11
 73
7
 74
0
 42
0.0000001
 43
0.0000001
 44
0.0000000001
 40
0.0
 40
0.0
 40
0.0
 40
0.0
 40
0.2826345634
 40
0.5400181009
 40
0.7765417304
 40
1.0
 40
1.0
 40
1.0
 40
1.0
 10
353.6259570127
 20
333.032969909
 30
0.0
 10
353.0247551706
 20
332.6059319377
 30
0.0
 10
351.9329419778
 20
331.7031213637
 30
0.0
 10
350.6292479999
 20
330.1339280039
 30
0.0
 10
349.7757645022
 20
328.4481990029
 30
0.0
 10
349.5281525842
 20
327.2555461201
 30
0.0
 10
349.4925268689
 20
326.6736030399
 30
0.0
  0
SPLINE
  5
316
100
AcDbEntity
  8
0
100
AcDbSpline
 62
7
  6
CONTINUOUS
 70
0
 71
3
 72
9
 73
5
 74
0
 42
0.0000001
 43
0.0000001
 44
0.0000000001
 40
0.0
 40
0.0
 40
0.0
 40
0.0
 40
0.4491565434
 40
1.0
 40
1.0
 40
1.0
 40
1.0
 10
311.3626317742
 20
275.6735001204
 30
0.0
 10
311.362616739
 20
276.0628831231
 30
0.0
 10
311.7027307844
 20
276.9320163787
 30
0.0
 10
312.4133044844
 20
277.4759358654
 30
0.0
 10
312.8268646817
 20
277.7147035315
 30
0.0
  0
SPLINE
  5
317
100
AcDbEntity
  8
0
100
AcDbSpline
 62
7
  6
CONTINUOUS
 70
0
 71
3
 72
15
 73
11
 74
0
 42
0.0000001
 43
0.0000001
 44
0.0000000001
 40
0.0
 40
0.0
 40
0.0
 40
0.0
 40
0.1288320654
 40
0.2705723687
 40
0.4178906197
 40
0.562389031
 40
0.6962036827
 40
0.8135940917
 40
0.9130655393
 40
1.0
 40
1.0
 40
1.0
 40
1.0
 10
359.8490784986
 20
330.9904480781
 30
0.0
 10
360.7003749517
 20
331.4819413806
 30
0.0
 10
362.6278034386
 20
332.2772216557
 30
0.0
 10
365.7691040193
 20
332.90561697
 30
0.0
 10
369.0918031848
 20
332.9975481956
 30
0.0
 10
372.3235943613
 20
332.5435843731
 30
0.0
 10
375.2065274923
 20
331.5804168853
 30
0.0
 10
377.5158527623
 20
330.1733821058
 30
0.0
 10
379.0802723464
 20
328.3942896315
 30
0.0
 10
379.4808780942
 20
326.9589910445
 30
0.0
 10
379.4807874626
 20
326.2956795324
 30
0.0
  0
SPLINE
  5
318
100
AcDbEntity
  8
0
100
AcDbSpline
 62
7
  6
CONTINUOUS
 70
0
 71
3
 72
9
 73
5
 74
0
 42
0.0000001
 43
0.0000001
 44
0.0000000001
 40
0.0
 40
0.0
 40
0.0
 40
0.0
 40
0.2549253982
 40
1.0
 40
1.0
 40
1.0
 40
1.0
 10
359.8490784986
 20
330.5821968695
 30
0.0
 10
359.7781518104
 20
330.5412475714
 30
0.0
 10
359.5017817648
 20
330.3774337083
 30
0.0
 10
359.2329902251
 20
330.2007505982
 30
0.0
 10
359.0382173488
 20
330.0616093291
 30
0.0
  0
SPLINE
  5
319
100
AcDbEntity
  8
0
100
AcDbSpline
 62
7
  6
CONTINUOUS
 70
0
 71
3
 72
9
 73
5
 74
0
 42
0.0000001
 43
0.0000001
 44
0.0000000001
 40
0.0
 40
0.0
 40
0.0
 40
0.0
 40
0.5400979608
 40
1.0
 40
1.0
 40
1.0
 40
1.0
 10
359.0382173488
 20
330.0616093291
 30
0.0
 10
358.3554893008
 20
329.5738840931
 30
0.0
 10
357.1888095728
 20
328.495234393
 30
0.0
 10
356.5736791486
 20
326.9887657912
 30
0.0
 10
356.5008975648
 20
326.2780238867
 30
0.0
  0
SPLINE
  5
31A
100
AcDbEntity
  8
0
100
AcDbSpline
 62
7
  6
CONTINUOUS
 70
0
 71
3
 72
15
 73
11
 74
0
 42
0.0000001
 43
0.0000001
 44
0.0000000001
 40
0.0
 40
0.0
 40
0.0
 40
0.0
 40
0.0880012136
 40
0.1898156826
 40
0.3089994579
 40
0.4433245753
 40
0.5870726722
 40
0.7327924291
 40
0.8726993398
 40
1.0
 40
1.0
 40
1.0
 40
1.0
 10
308.1596591352
 20
366.2879406704
 30
0.0
 10
308.0926409798
 20
366.8271298735
 30
0.0
 10
307.6341881564
 20
367.9577183421
 30
0.0
 10
306.2571810005
 20
369.3254555965
 30
0.0
 10
304.3210771138
 20
370.3999277351
 30
0.0
 10
301.9610375484
 20
371.1200584961
 30
0.0
 10
299.3519297867
 20
371.438822955
 30
0.0
 10
296.6909791082
 20
371.3315588741
 30
0.0
 10
294.1841423288
 20
370.8076433213
 30
0.0
 10
292.64722574
 20
370.1662982328
 30
0.0
 10
291.9665448845
 20
369.7733093035
 30
0.0
  0
SPLINE
  5
31B
100
AcDbEntity
  8
0
100
AcDbSpline
 62
7
  6
CONTINUOUS
 70
0
 71
3
 72
9
 73
5
 74
0
 42
0.0000001
 43
0.0000001
 44
0.0000000001
 40
0.0
 40
0.0
 40
0.0
 40
0.0
 40
0.2586592185
 40
1.0
 40
1.0
 40
1.0
 40
1.0
 10
219.8417974585
 20
350.1775068895
 30
0.0
 10
219.7227538066
 20
350.1087774154
 30
0.0
 10
219.2677206925
 20
349.8342562356
 30
0.0
 10
218.8339450581
 20
349.523735113
 30
0.0
 10
218.530828841
 20
349.2720723167
 30
0.0
  0
SPLINE
  5
31C
100
AcDbEntity
  8
0
100
AcDbSpline
 62
7
  6
CONTINUOUS
 70
0
 71
3
 72
9
 73
5
 74
0
 42
0.0000001
 43
0.0000001
 44
0.0000000001
 40
0.0
 40
0.0
 40
0.0
 40
0.0
 40
0.5339386437
 40
1.0
 40
1.0
 40
1.0
 40
1.0
 10
218.530828841
 20
349.2720723167
 30
0.0
 10
217.9777411092
 20
348.812870211
 30
0.0
 10
217.0389259065
 20
347.8097028267
 30
0.0
 10
216.5575378641
 20
346.4975519053
 30
0.0
 10
216.4936165247
 20
345.8733339067
 30
0.0
  0
SPLINE
  5
31D
100
AcDbEntity
  8
0
100
AcDbSpline
 62
7
  6
CONTINUOUS
 70
0
 71
3
 72
9
 73
5
 74
0
 42
0.0000001
 43
0.0000001
 44
0.0000000001
 40
0.0
 40
0.0
 40
0.0
 40
0.0
 40
0.2548373915
 40
1.0
 40
1.0
 40
1.0
 40
1.0
 10
144.8877220539
 20
455.0956374523
 30
0.0
 10
144.7764739894
 20
455.0314087356
 30
0.0
 10
144.3427578062
 20
454.7745178515
 30
0.0
 10
143.920598661
 20
454.4979913743
 30
0.0
 10
143.614368644
 20
454.2804740016
 30
0.0
  0
SPLINE
  5
31E
100
AcDbEntity
  8
0
100
AcDbSpline
 62
7
  6
CONTINUOUS
 70
0
 71
3
 72
11
 73
7
 74
0
 42
0.0000001
 43
0.0000001
 44
0.0000000001
 40
0.0
 40
0.0
 40
0.0
 40
0.0
 40
0.2826345634
 40
0.5400181009
 40
0.7765417304
 40
1.0
 40
1.0
 40
1.0
 40
1.0
 10
143.614368644
 20
454.2804740016
 30
0.0
 10
143.0131668019
 20
453.8534360303
 30
0.0
 10
141.9213536091
 20
452.9506254562
 30
0.0
 10
140.6176596312
 20
451.3814320964
 30
0.0
 10
139.7641761336
 20
449.6957030955
 30
0.0
 10
139.5165642156
 20
448.5030502127
 30
0.0
 10
139.4809385003
 20
447.9211071324
 30
0.0
  0
SPLINE
  5
31F
100
AcDbEntity
  8
0
100
AcDbSpline
 62
7
  6
CONTINUOUS
 70
0
 71
3
 72
15
 73
11
 74
0
 42
0.0000001
 43
0.0000001
 44
0.0000000001
 40
0.0
 40
0.0
 40
0.0
 40
0.0
 40
0.1288320654
 40
0.2705723687
 40
0.4178906197
 40
0.562389031
 40
0.6962036827
 40
0.8135940917
 40
0.9130655393
 40
1.0
 40
1.0
 40
1.0
 40
1.0
 10
149.83749013
 20
452.2379521706
 30
0.0
 10
150.6887865831
 20
452.7294454732
 30
0.0
 10
152.61621507
 20
453.5247257482
 30
0.0
 10
155.7575156506
 20
454.1531210625
 30
0.0
 10
159.0802148162
 20
454.2450522881
 30
0.0
 10
162.3120059927
 20
453.7910884656
 30
0.0
 10
165.1949391237
 20
452.8279209778
 30
0.0
 10
167.5042643937
 20
451.4208861983
 30
0.0
 10
169.0686839777
 20
449.641793724
 30
0.0
 10
169.4692897255
 20
448.206495137
 30
0.0
 10
169.469199094
 20
447.5431836249
 30
0.0
  0
SPLINE
  5
320
100
AcDbEntity
  8
0
100
AcDbSpline
 62
7
  6
CONTINUOUS
 70
0
 71
3
 72
9
 73
5
 74
0
 42
0.0000001
 43
0.0000001
 44
0.0000000001
 40
0.0
 40
0.0
 40
0.0
 40
0.0
 40
0.2549253982
 40
1.0
 40
1.0
 40
1.0
 40
1.0
 10
149.83749013
 20
451.8297009621
 30
0.0
 10
149.7665634417
 20
451.7887516639
 30
0.0
 10
149.4901933962
 20
451.6249378008
 30
0.0
 10
149.2214018565
 20
451.4482546908
 30
0.0
 10
149.0266289802
 20
451.3091134217
 30
0.0
  0
SPLINE
  5
321
100
AcDbEntity
  8
0
100
AcDbSpline
 62
7
  6
CONTINUOUS
 70
0
 71
3
 72
9
 73
5
 74
0
 42
0.0000001
 43
0.0000001
 44
0.0000000001
 40
0.0
 40
0.0
 40
0.0
 40
0.0
 40
0.5400979608
 40
1.0
 40
1.0
 40
1.0
 40
1.0
 10
149.0266289802
 20
451.3091134217
 30
0.0
 10
148.3439009321
 20
450.8213881856
 30
0.0
 10
147.1772212042
 20
449.7427384855
 30
0.0
 10
146.5620907799
 20
448.2362698837
 30
0.0
 10
146.4893091962
 20
447.5255279793
 30
0.0
  0
SPLINE
  5
322
100
AcDbEntity
  8
0
100
AcDbSpline
 62
7
  6
CONTINUOUS
 70
0
 71
3
 72
9
 73
5
 74
0
 42
0.0000001
 43
0.0000001
 44
0.0000000001
 40
0.0
 40
0.0
 40
0.0
 40
0.0
 40
0.4998374618
 40
1.0
 40
1.0
 40
1.0
 40
1.0
 10
109.2992728863
 20
394.7614970618
 30
0.0
 10
108.3787717977
 20
395.1495554218
 30
0.0
 10
106.3536773109
 20
395.4834651425
 30
0.0
 10
104.3284736399
 20
395.1508102273
 30
0.0
 10
103.407008666
 20
394.7633669658
 30
0.0
  0
SPLINE
  5
323
100
AcDbEntity
  8
0
100
AcDbSpline
 62
7
  6
CONTINUOUS
 70
0
 71
3
 72
9
 73
5
 74
0
 42
0.0000001
 43
0.0000001
 44
0.0000000001
 40
0.0
 40
0.0
 40
0.0
 40
0.0
 40
0.2548373915
 40
1.0
 40
1.0
 40
1.0
 40
1.0
 10
391.6690161302
 20
312.6196141247
 30
0.0
 10
391.5577680657
 20
312.555385408
 30
0.0
 10
391.1240518825
 20
312.2984945239
 30
0.0
 10
390.7018927373
 20
312.0219680467
 30
0.0
 10
390.3956627203
 20
311.804450674
 30
0.0
  0
SPLINE
  5
324
100
AcDbEntity
  8
0
100
AcDbSpline
 62
7
  6
CONTINUOUS
 70
0
 71
3
 72
11
 73
7
 74
0
 42
0.0000001
 43
0.0000001
 44
0.0000000001
 40
0.0
 40
0.0
 40
0.0
 40
0.0
 40
0.2826345634
 40
0.5400181009
 40
0.7765417304
 40
1.0
 40
1.0
 40
1.0
 40
1.0
 10
390.3956627203
 20
311.804450674
 30
0.0
 10
389.7944608782
 20
311.3774127027
 30
0.0
 10
388.7026476854
 20
310.4746021286
 30
0.0
 10
387.3989537075
 20
308.9054087689
 30
0.0
 10
386.5454702099
 20
307.2196797679
 30
0.0
 10
386.2978582919
 20
306.0270268851
 30
0.0
 10
386.2622325766
 20
305.4450838048
 30
0.0
  0
SPLINE
  5
325
100
AcDbEntity
  8
0
100
AcDbSpline
 62
7
  6
CONTINUOUS
 70
0
 71
3
 72
15
 73
11
 74
0
 42
0.0000001
 43
0.0000001
 44
0.0000000001
 40
0.0
 40
0.0
 40
0.0
 40
0.0
 40
0.0875794572
 40
0.1886027818
 40
0.307206575
 40
0.4413847164
 40
0.5853993683
 40
0.7316639052
 40
0.8721781302
 40
1.0
 40
1.0
 40
1.0
 40
1.0
 10
347.8157877309
 20
346.6992446877
 30
0.0
 10
347.7471518233
 20
347.5274970079
 30
0.0
 10
347.1099654089
 20
349.2824964252
 30
0.0
 10
345.0492801225
 20
351.4213081024
 30
0.0
 10
342.1072753418
 20
353.1058568202
 30
0.0
 10
338.4930321686
 20
354.2430248472
 30
0.0
 10
334.4791876316
 20
354.7578469756
 30
0.0
 10
330.3748713385
 20
354.6096638035
 30
0.0
 10
326.5037231655
 20
353.8124212089
 30
0.0
 10
324.129841081
 20
352.8254518429
 30
0.0
 10
323.079372791
 20
352.2189673131
 30
0.0
  0
SPLINE
  5
326
100
AcDbEntity
  8
0
100
AcDbSpline
 62
7
  6
CONTINUOUS
 70
0
 71
3
 72
15
 73
11
 74
0
 42
0.0000001
 43
0.0000001
 44
0.0000000001
 40
0.0
 40
0.0
 40
0.0
 40
0.0
 40
0.1288320654
 40
0.2705723687
 40
0.4178906197
 40
0.562389031
 40
0.6962036827
 40
0.8135940917
 40
0.9130655393
 40
1.0
 40
1.0
 40
1.0
 40
1.0
 10
396.6187842063
 20
309.761928843
 30
0.0
 10
397.4700806594
 20
310.2534221456
 30
0.0
 10
399.3975091463
 20
311.0487024206
 30
0.0
 10
402.5388097269
 20
311.6770977349
 30
0.0
 10
405.8615088925
 20
311.7690289605
 30
0.0
 10
409.093300069
 20
311.315065138
 30
0.0
 10
411.9762332
 20
310.3518976502
 30
0.0
 10
414.28555847
 20
308.9448628707
 30
0.0
 10
415.849978054
 20
307.1657703964
 30
0.0
 10
416.2505838018
 20
305.7304718094
 30
0.0
 10
416.2504931703
 20
305.0671602973
 30
0.0
  0
SPLINE
  5
327
100
AcDbEntity
  8
0
100
AcDbSpline
 62
7
  6
CONTINUOUS
 70
0
 71
3
 72
9
 73
5
 74
0
 42
0.0000001
 43
0.0000001
 44
0.0000000001
 40
0.0
 40
0.0
 40
0.0
 40
0.0
 40
0.2549253982
 40
1.0
 40
1.0
 40
1.0
 40
1.0
 10
396.6187842063
 20
309.3536776345
 30
0.0
 10
396.547857518
 20
309.3127283363
 30
0.0
 10
396.2714874725
 20
309.1489144732
 30
0.0
 10
396.0026959328
 20
308.9722313632
 30
0.0
 10
395.8079230565
 20
308.8330900941
 30
0.0
  0
SPLINE
  5
328
100
AcDbEntity
  8
0
100
AcDbSpline
 62
7
  6
CONTINUOUS
 70
0
 71
3
 72
9
 73
5
 74
0
 42
0.0000001
 43
0.0000001
 44
0.0000000001
 40
0.0
 40
0.0
 40
0.0
 40
0.0
 40
0.5400979608
 40
1.0
 40
1.0
 40
1.0
 40
1.0
 10
395.8079230565
 20
308.8330900941
 30
0.0
 10
395.1251950084
 20
308.3453648581
 30
0.0
 10
393.9585152805
 20
307.266715158
 30
0.0
 10
393.3433848562
 20
305.7602465561
 30
0.0
 10
393.2706032725
 20
305.0495046517
 30
0.0
  0
SPLINE
  5
329
100
AcDbEntity
  8
0
100
AcDbSpline
 62
7
  6
CONTINUOUS
 70
0
 71
3
 72
9
 73
5
 74
0
 42
0.0000001
 43
0.0000001
 44
0.0000000001
 40
0.0
 40
0.0
 40
0.0
 40
0.0
 40
0.4491565434
 40
1.0
 40
1.0
 40
1.0
 40
1.0
 10
101.3510434055
 20
396.921004213
 30
0.0
 10
101.3510283704
 20
397.3103872157
 30
0.0
 10
101.6911424157
 20
398.1795204712
 30
0.0
 10
102.4017161157
 20
398.723439958
 30
0.0
 10
102.8152763131
 20
398.962207624
 30
0.0
  0
SPLINE
  5
32A
100
AcDbEntity
  8
0
100
AcDbSpline
 62
7
  6
CONTINUOUS
 70
0
 71
3
 72
9
 73
5
 74
0
 42
0.0000001
 43
0.0000001
 44
0.0000000001
 40
0.0
 40
0.0
 40
0.0
 40
0.0
 40
0.2595995917
 40
1.0
 40
1.0
 40
1.0
 40
1.0
 10
222.3164813068
 20
376.509151134
 30
0.0
 10
222.1972940693
 20
376.4403387611
 30
0.0
 10
221.7438805681
 20
376.1656430737
 30
0.0
 10
221.3137443578
 20
375.8514818152
 30
0.0
 10
221.0164026189
 20
375.5952409828
 30
0.0
  0
SPLINE
  5
32B
100
AcDbEntity
  8
0
100
AcDbSpline
 62
7
  6
CONTINUOUS
 70
0
 71
3
 72
9
 73
5
 74
0
 42
0.0000001
 43
0.0000001
 44
0.0000000001
 40
0.0
 40
0.0
 40
0.0
 40
0.0
 40
0.5322772393
 40
1.0
 40
1.0
 40
1.0
 40
1.0
 10
221.0164026189
 20
375.5952409828
 30
0.0
 10
220.5431502017
 20
375.1874052254
 30
0.0
 10
219.7405565378
 20
374.300165022
 30
0.0
 10
219.3243162871
 20
373.1589144696
 30
0.0
 10
219.2631068955
 20
372.6133674219
 30
0.0
  0
SPLINE
  5
32C
100
AcDbEntity
  8
0
100
AcDbSpline
 62
7
  6
CONTINUOUS
 70
0
 71
3
 72
9
 73
5
 74
0
 42
0.0000001
 43
0.0000001
 44
0.0000000001
 40
0.0
 40
0.0
 40
0.0
 40
0.0
 40
0.4611488261
 40
1.0
 40
1.0
 40
1.0
 40
1.0
 10
289.18426027
 20
366.3032724568
 30
0.0
 10
289.1845249565
 20
366.9059962283
 30
0.0
 10
289.5917722811
 20
368.2233489809
 30
0.0
 10
290.5394731921
 20
369.1766063099
 30
0.0
 10
291.0985778186
 20
369.6048749273
 30
0.0
  0
SPLINE
  5
32D
100
AcDbEntity
  8
0
100
AcDbSpline
 62
7
  6
CONTINUOUS
 70
0
 71
3
 72
9
 73
5
 74
0
 42
0.0000001
 43
0.0000001
 44
0.0000000001
 40
0.0
 40
0.0
 40
0.0
 40
0.0
 40
0.2434498555
 40
1.0
 40
1.0
 40
1.0
 40
1.0
 10
291.0985778186
 20
369.6048749273
 30
0.0
 10
291.1657379037
 20
369.6563188886
 30
0.0
 10
291.4453099654
 20
369.862773266
 30
0.0
 10
291.7388654955
 20
370.0501105402
 30
0.0
 10
291.9665448845
 20
370.181560512
 30
0.0
  0
SPLINE
  5
32E
100
AcDbEntity
  8
0
100
AcDbSpline
 62
7
  6
CONTINUOUS
 70
0
 71
3
 72
9
 73
5
 74
0
 42
0.0000001
 43
0.0000001
 44
0.0000000001
 40
0.0
 40
0.0
 40
0.0
 40
0.0
 40
0.2595995917
 40
1.0
 40
1.0
 40
1.0
 40
1.0
 10
200.0425249646
 20
389.3687349014
 30
0.0
 10
199.9233377271
 20
389.2999225285
 30
0.0
 10
199.469924226
 20
389.0252268411
 30
0.0
 10
199.0397880157
 20
388.7110655826
 30
0.0
 10
198.7424462768
 20
388.4548247502
 30
0.0
  0
SPLINE
  5
32F
100
AcDbEntity
  8
0
100
AcDbSpline
 62
7
  6
CONTINUOUS
 70
0
 71
3
 72
9
 73
5
 74
0
 42
0.0000001
 43
0.0000001
 44
0.0000000001
 40
0.0
 40
0.0
 40
0.0
 40
0.0
 40
0.5322772393
 40
1.0
 40
1.0
 40
1.0
 40
1.0
 10
198.7424462768
 20
388.4548247502
 30
0.0
 10
198.2691938596
 20
388.0469889928
 30
0.0
 10
197.4666001957
 20
387.1597487894
 30
0.0
 10
197.050359945
 20
386.018498237
 30
0.0
 10
196.9891505533
 20
385.4729511893
 30
0.0
  0
SPLINE
  5
330
100
AcDbEntity
  8
0
100
AcDbSpline
 62
7
  6
CONTINUOUS
 70
0
 71
3
 72
9
 73
5
 74
0
 42
0.0000001
 43
0.0000001
 44
0.0000000001
 40
0.0
 40
0.0
 40
0.0
 40
0.0
 40
0.2586112592
 40
1.0
 40
1.0
 40
1.0
 40
1.0
 10
156.3431439506
 20
414.5980135308
 30
0.0
 10
156.2468243283
 20
414.5424037029
 30
0.0
 10
155.8785943158
 20
414.3202245643
 30
0.0
 10
155.5276111056
 20
414.068851033
 30
0.0
 10
155.2823322927
 20
413.8651316692
 30
0.0
  0
SPLINE
  5
331
100
AcDbEntity
  8
0
100
AcDbSpline
 62
7
  6
CONTINUOUS
 70
0
 71
3
 72
9
 73
5
 74
0
 42
0.0000001
 43
0.0000001
 44
0.0000000001
 40
0.0
 40
0.0
 40
0.0
 40
0.0
 40
0.5338364161
 40
1.0
 40
1.0
 40
1.0
 40
1.0
 10
155.2823322927
 20
413.8651316692
 30
0.0
 10
154.8395099696
 20
413.4973400899
 30
0.0
 10
154.0871812804
 20
412.6951128571
 30
0.0
 10
153.695006254
 20
411.6477920016
 30
0.0
 10
153.6389524855
 20
411.1482586282
 30
0.0
  0
SPLINE
  5
332
100
AcDbEntity
  8
0
100
AcDbSpline
 62
7
  6
CONTINUOUS
 70
0
 71
3
 72
9
 73
5
 74
0
 42
0.0000001
 43
0.0000001
 44
0.0000000001
 40
0.0
 40
0.0
 40
0.0
 40
0.0
 40
0.2595995917
 40
1.0
 40
1.0
 40
1.0
 40
1.0
 10
266.864393991
 20
350.7899835992
 30
0.0
 10
266.7452067535
 20
350.7211712263
 30
0.0
 10
266.2917932524
 20
350.4464755389
 30
0.0
 10
265.8616570421
 20
350.1323142804
 30
0.0
 10
265.5643153032
 20
349.876073448
 30
0.0
  0
SPLINE
  5
333
100
AcDbEntity
  8
0
100
AcDbSpline
 62
7
  6
CONTINUOUS
 70
0
 71
3
 72
9
 73
5
 74
0
 42
0.0000001
 43
0.0000001
 44
0.0000000001
 40
0.0
 40
0.0
 40
0.0
 40
0.0
 40
0.5322772393
 40
1.0
 40
1.0
 40
1.0
 40
1.0
 10
265.5643153032
 20
349.876073448
 30
0.0
 10
265.0910628859
 20
349.4682376906
 30
0.0
 10
264.288469222
 20
348.5809974873
 30
0.0
 10
263.8722289714
 20
347.4397469349
 30
0.0
 10
263.8110195797
 20
346.8941998871
 30
0.0
  0
SPLINE
  5
334
100
AcDbEntity
  8
0
100
AcDbSpline
 62
7
  6
CONTINUOUS
 70
0
 71
3
 72
9
 73
5
 74
0
 42
0.0000001
 43
0.0000001
 44
0.0000000001
 40
0.0
 40
0.0
 40
0.0
 40
0.0
 40
0.4998374618
 40
1.0
 40
1.0
 40
1.0
 40
1.0
 10
109.2988901707
 20
447.8330161072
 30
0.0
 10
108.378389082
 20
448.2210744673
 30
0.0
 10
106.3532945953
 20
448.5549841879
 30
0.0
 10
104.3280909243
 20
448.2223292728
 30
0.0
 10
103.4066259503
 20
447.8348860113
 30
0.0
  0
SPLINE
  5
335
100
AcDbEntity
  8
0
100
AcDbSpline
 62
7
  6
CONTINUOUS
 70
0
 71
3
 72
9
 73
5
 74
0
 42
0.0000001
 43
0.0000001
 44
0.0000000001
 40
0.0
 40
0.0
 40
0.0
 40
0.0
 40
0.2595995917
 40
1.0
 40
1.0
 40
1.0
 40
1.0
 10
289.1383503332
 20
337.9303998319
 30
0.0
 10
289.0191630957
 20
337.861587459
 30
0.0
 10
288.5657495945
 20
337.5868917715
 30
0.0
 10
288.1356133842
 20
337.272730513
 30
0.0
 10
287.8382716453
 20
337.0164896806
 30
0.0
  0
SPLINE
  5
336
100
AcDbEntity
  8
0
100
AcDbSpline
 62
7
  6
CONTINUOUS
 70
0
 71
3
 72
9
 73
5
 74
0
 42
0.0000001
 43
0.0000001
 44
0.0000000001
 40
0.0
 40
0.0
 40
0.0
 40
0.0
 40
0.5322772393
 40
1.0
 40
1.0
 40
1.0
 40
1.0
 10
287.8382716453
 20
337.0164896806
 30
0.0
 10
287.3650192281
 20
336.6086539232
 30
0.0
 10
286.5624255642
 20
335.7214137199
 30
0.0
 10
286.1461853135
 20
334.5801631675
 30
0.0
 10
286.0849759219
 20
334.0346161198
 30
0.0
  0
SPLINE
  5
337
100
AcDbEntity
  8
0
100
AcDbSpline
 62
7
  6
CONTINUOUS
 70
0
 71
3
 72
15
 73
11
 74
0
 42
0.0000001
 43
0.0000001
 44
0.0000000001
 40
0.0
 40
0.0
 40
0.0
 40
0.0
 40
0.0875794572
 40
0.1886027818
 40
0.307206575
 40
0.4413847164
 40
0.5853993683
 40
0.7316639052
 40
0.8721781302
 40
1.0
 40
1.0
 40
1.0
 40
1.0
 10
313.1674111987
 20
366.7030416592
 30
0.0
 10
313.0987752911
 20
367.5312939793
 30
0.0
 10
312.4615888767
 20
369.2862933967
 30
0.0
 10
310.4009035903
 20
371.4251050739
 30
0.0
 10
307.4588988096
 20
373.1096537917
 30
0.0
 10
303.8446556364
 20
374.2468218187
 30
0.0
 10
299.8308110994
 20
374.7616439471
 30
0.0
 10
295.7264948063
 20
374.613460775
 30
0.0
 10
291.8553466333
 20
373.8162181804
 30
0.0
 10
289.4814645488
 20
372.8292488144
 30
0.0
 10
288.4309962588
 20
372.2227642846
 30
0.0
  0
SPLINE
  5
338
100
AcDbEntity
  8
0
100
AcDbSpline
 62
7
  6
CONTINUOUS
 70
0
 71
3
 72
9
 73
5
 74
0
 42
0.0000001
 43
0.0000001
 44
0.0000000001
 40
0.0
 40
0.0
 40
0.0
 40
0.0
 40
0.2586112592
 40
1.0
 40
1.0
 40
1.0
 40
1.0
 10
334.5347946876
 20
311.7213433917
 30
0.0
 10
334.4384750653
 20
311.6657335637
 30
0.0
 10
334.0702450529
 20
311.4435544252
 30
0.0
 10
333.7192618426
 20
311.1921808939
 30
0.0
 10
333.4739830297
 20
310.9884615301
 30
0.0
  0
SPLINE
  5
339
100
AcDbEntity
  8
0
100
AcDbSpline
 62
7
  6
CONTINUOUS
 70
0
 71
3
 72
9
 73
5
 74
0
 42
0.0000001
 43
0.0000001
 44
0.0000000001
 40
0.0
 40
0.0
 40
0.0
 40
0.0
 40
0.5338364161
 40
1.0
 40
1.0
 40
1.0
 40
1.0
 10
333.4739830297
 20
310.9884615301
 30
0.0
 10
333.0311607066
 20
310.6206699508
 30
0.0
 10
332.2788320174
 20
309.818442718
 30
0.0
 10
331.8866569911
 20
308.7711218624
 30
0.0
 10
331.8306032225
 20
308.2715884891
 30
0.0
  0
SPLINE
  5
33A
100
AcDbEntity
  8
0
100
AcDbSpline
 62
7
  6
CONTINUOUS
 70
0
 71
3
 72
9
 73
5
 74
0
 42
0.0000001
 43
0.0000001
 44
0.0000000001
 40
0.0
 40
0.0
 40
0.0
 40
0.0
 40
0.4491565434
 40
1.0
 40
1.0
 40
1.0
 40
1.0
 10
101.3506606899
 20
449.9925232584
 30
0.0
 10
101.3506456547
 20
450.3819062611
 30
0.0
 10
101.6907597001
 20
451.2510395167
 30
0.0
 10
102.4013334001
 20
451.7949590034
 30
0.0
 10
102.8148935974
 20
452.0337266695
 30
0.0
  0
SPLINE
  5
33B
100
AcDbEntity
  8
0
100
AcDbSpline
 62
7
  6
CONTINUOUS
 70
0
 71
3
 72
9
 73
5
 74
0
 42
0.0000001
 43
0.0000001
 44
0.0000000001
 40
0.0
 40
0.0
 40
0.0
 40
0.0
 40
0.2586592185
 40
1.0
 40
1.0
 40
1.0
 40
1.0
 10
130.74597209
 20
401.6158419591
 30
0.0
 10
130.6269284381
 20
401.5471124849
 30
0.0
 10
130.171895324
 20
401.2725913051
 30
0.0
 10
129.7381196896
 20
400.9620701825
 30
0.0
 10
129.4350034725
 20
400.7104073863
 30
0.0
  0
SPLINE
  5
33C
100
AcDbEntity
  8
0
100
AcDbSpline
 62
7
  6
CONTINUOUS
 70
0
 71
3
 72
9
 73
5
 74
0
 42
0.0000001
 43
0.0000001
 44
0.0000000001
 40
0.0
 40
0.0
 40
0.0
 40
0.0
 40
0.5339386437
 40
1.0
 40
1.0
 40
1.0
 40
1.0
 10
129.4350034725
 20
400.7104073863
 30
0.0
 10
128.8819157407
 20
400.2512052805
 30
0.0
 10
127.943100538
 20
399.2480378963
 30
0.0
 10
127.4617124956
 20
397.9358869749
 30
0.0
 10
127.3977911562
 20
397.3116689763
 30
0.0
  0
SPLINE
  5
33D
100
AcDbEntity
  8
0
100
AcDbSpline
 62
7
  6
CONTINUOUS
 70
0
 71
3
 72
15
 73
11
 74
0
 42
0.0000001
 43
0.0000001
 44
0.0000000001
 40
0.0
 40
0.0
 40
0.0
 40
0.0
 40
0.0878686368
 40
0.1894444813
 40
0.3084556794
 40
0.4427388696
 40
0.5865674024
 40
0.7324557064
 40
0.8725388453
 40
1.0
 40
1.0
 40
1.0
 40
1.0
 10
195.6712939656
 20
398.3325718108
 30
0.0
 10
195.6043483186
 20
398.9297136673
 30
0.0
 10
195.1111967277
 20
400.1857780908
 30
0.0
 10
193.5979639175
 20
401.7085730856
 30
0.0
 10
191.4608376833
 20
402.9058191015
 30
0.0
 10
188.8496764768
 20
403.7099659921
 30
0.0
 10
185.9590278242
 20
404.0684838365
 30
0.0
 10
183.0086782697
 20
403.9532527063
 30
0.0
 10
180.2281775946
 20
403.3747907174
 30
0.0
 10
178.5234261648
 20
402.6641332726
 30
0.0
 10
177.7685686225
 20
402.2283186688
 30
0.0
  0
SPLINE
  5
33E
100
AcDbEntity
  8
0
100
AcDbSpline
 62
7
  6
CONTINUOUS
 70
0
 71
3
 72
9
 73
5
 74
0
 42
0.0000001
 43
0.0000001
 44
0.0000000001
 40
0.0
 40
0.0
 40
0.0
 40
0.0
 40
0.2586592185
 40
1.0
 40
1.0
 40
1.0
 40
1.0
 10
308.937622827
 20
298.73917182
 30
0.0
 10
308.8185791752
 20
298.6704423458
 30
0.0
 10
308.363546061
 20
298.395921166
 30
0.0
 10
307.9297704267
 20
298.0854000434
 30
0.0
 10
307.6266542096
 20
297.8337372471
 30
0.0
  0
SPLINE
  5
33F
100
AcDbEntity
  8
0
100
AcDbSpline
 62
7
  6
CONTINUOUS
 70
0
 71
3
 72
9
 73
5
 74
0
 42
0.0000001
 43
0.0000001
 44
0.0000000001
 40
0.0
 40
0.0
 40
0.0
 40
0.0
 40
0.5339386437
 40
1.0
 40
1.0
 40
1.0
 40
1.0
 10
307.6266542096
 20
297.8337372471
 30
0.0
 10
307.0735664777
 20
297.3745351414
 30
0.0
 10
306.1347512751
 20
296.3713677571
 30
0.0
 10
305.6533632326
 20
295.0592168358
 30
0.0
 10
305.5894418932
 20
294.4349988372
 30
0.0
  0
SPLINE
  5
340
100
AcDbEntity
  8
0
100
AcDbSpline
 62
7
  6
CONTINUOUS
 70
0
 71
3
 72
9
 73
5
 74
0
 42
0.0000001
 43
0.0000001
 44
0.0000000001
 40
0.0
 40
0.0
 40
0.0
 40
0.0
 40
0.2595995917
 40
1.0
 40
1.0
 40
1.0
 40
1.0
 10
177.7685686225
 20
402.2283186688
 30
0.0
 10
177.649381385
 20
402.1595062959
 30
0.0
 10
177.1959678838
 20
401.8848106085
 30
0.0
 10
176.7658316736
 20
401.57064935
 30
0.0
 10
176.4684899347
 20
401.3144085176
 30
0.0
  0
SPLINE
  5
341
100
AcDbEntity
  8
0
100
AcDbSpline
 62
7
  6
CONTINUOUS
 70
0
 71
3
 72
9
 73
5
 74
0
 42
0.0000001
 43
0.0000001
 44
0.0000000001
 40
0.0
 40
0.0
 40
0.0
 40
0.0
 40
0.5322772393
 40
1.0
 40
1.0
 40
1.0
 40
1.0
 10
176.4684899347
 20
401.3144085176
 30
0.0
 10
175.9952375174
 20
400.9065727602
 30
0.0
 10
175.1926438535
 20
400.0193325568
 30
0.0
 10
174.7764036029
 20
398.8780820044
 30
0.0
 10
174.7151942112
 20
398.3325349567
 30
0.0
  0
SPLINE
  5
342
100
AcDbEntity
  8
0
100
AcDbSpline
 62
7
  6
CONTINUOUS
 70
0
 71
3
 72
9
 73
5
 74
0
 42
0.0000001
 43
0.0000001
 44
0.0000000001
 40
0.0
 40
0.0
 40
0.0
 40
0.0
 40
0.2595995917
 40
1.0
 40
1.0
 40
1.0
 40
1.0
 10
244.5904376489
 20
363.6495673666
 30
0.0
 10
244.4712504114
 20
363.5807549937
 30
0.0
 10
244.0178369102
 20
363.3060593063
 30
0.0
 10
243.5877007
 20
362.9918980478
 30
0.0
 10
243.290358961
 20
362.7356572154
 30
0.0
  0
SPLINE
  5
343
100
AcDbEntity
  8
0
100
AcDbSpline
 62
7
  6
CONTINUOUS
 70
0
 71
3
 72
9
 73
5
 74
0
 42
0.0000001
 43
0.0000001
 44
0.0000000001
 40
0.0
 40
0.0
 40
0.0
 40
0.0
 40
0.5322772393
 40
1.0
 40
1.0
 40
1.0
 40
1.0
 10
243.290358961
 20
362.7356572154
 30
0.0
 10
242.8171065438
 20
362.327821458
 30
0.0
 10
242.0145128799
 20
361.4405812546
 30
0.0
 10
241.5982726292
 20
360.2993307023
 30
0.0
 10
241.5370632376
 20
359.7537836545
 30
0.0
  0
SPLINE
  5
344
100
AcDbEntity
  8
0
100
AcDbSpline
 62
7
  6
CONTINUOUS
 70
0
 71
3
 72
9
 73
5
 74
0
 42
0.0000001
 43
0.0000001
 44
0.0000000001
 40
0.0
 40
0.0
 40
0.0
 40
0.0
 40
0.4998374618
 40
1.0
 40
1.0
 40
1.0
 40
1.0
 10
201.2227717241
 20
447.8332370651
 30
0.0
 10
200.3022706355
 20
448.2212954251
 30
0.0
 10
198.2771761487
 20
448.5552051458
 30
0.0
 10
196.2519724777
 20
448.2225502306
 30
0.0
 10
195.3305075038
 20
447.8351069691
 30
0.0
  0
SPLINE
  5
345
100
AcDbEntity
  8
0
100
AcDbSpline
 62
7
  6
CONTINUOUS
 70
0
 71
3
 72
9
 73
5
 74
0
 42
0.0000001
 43
0.0000001
 44
0.0000000001
 40
0.0
 40
0.0
 40
0.0
 40
0.0
 40
0.2564800546
 40
1.0
 40
1.0
 40
1.0
 40
1.0
 10
219.1342431944
 20
412.2303582276
 30
0.0
 10
219.019424809
 20
412.1640681976
 30
0.0
 10
218.5755948444
 20
411.899052828
 30
0.0
 10
218.1474824211
 20
411.6074072474
 30
0.0
 10
217.8414721656
 20
411.3748617573
 30
0.0
  0
SPLINE
  5
346
100
AcDbEntity
  8
0
100
AcDbSpline
 62
7
  6
CONTINUOUS
 70
0
 71
3
 72
9
 73
5
 74
0
 42
0.0000001
 43
0.0000001
 44
0.0000000001
 40
0.0
 40
0.0
 40
0.0
 40
0.0
 40
0.5379054778
 40
1.0
 40
1.0
 40
1.0
 40
1.0
 10
217.8414721656
 20
411.3748617573
 30
0.0
 10
217.0346412088
 20
410.7617290373
 30
0.0
 10
215.6616969462
 20
409.408840688
 30
0.0
 10
214.9716600347
 20
407.5628530075
 30
0.0
 10
214.9026437625
 20
406.6950493491
 30
0.0
  0
SPLINE
  5
347
100
AcDbEntity
  8
0
100
AcDbSpline
 62
7
  6
CONTINUOUS
 70
0
 71
3
 72
11
 73
7
 74
0
 42
0.0000001
 43
0.0000001
 44
0.0000000001
 40
0.0
 40
0.0
 40
0.0
 40
0.0
 40
0.217779011
 40
0.4509222696
 40
0.7102587576
 40
1.0
 40
1.0
 40
1.0
 40
1.0
 10
284.1841727866
 20
366.7115245224
 30
0.0
 10
284.1840763264
 20
367.2637943662
 30
0.0
 10
284.3883138826
 20
368.4149516838
 30
0.0
 10
285.2608627438
 20
370.0187445191
 30
0.0
 10
286.6403036274
 20
371.4687347054
 30
0.0
 10
287.7946742965
 20
372.2636370299
 30
0.0
 10
288.4309962588
 20
372.6310154932
 30
0.0
  0
SPLINE
  5
348
100
AcDbEntity
  8
0
100
AcDbSpline
 62
7
  6
CONTINUOUS
 70
0
 71
3
 72
15
 73
11
 74
0
 42
0.0000001
 43
0.0000001
 44
0.0000000001
 40
0.0
 40
0.0
 40
0.0
 40
0.0
 40
0.1288282493
 40
0.2705764289
 40
0.4178924529
 40
0.5623916177
 40
0.6962056481
 40
0.8135944279
 40
0.9130651203
 40
1.0
 40
1.0
 40
1.0
 40
1.0
 10
222.6697918201
 20
410.189154455
 30
0.0
 10
223.3730155329
 20
410.5951584314
 30
0.0
 10
224.9652792942
 20
411.252086694
 30
0.0
 10
227.560252782
 20
411.7713049311
 30
0.0
 10
230.305133825
 20
411.847233274
 30
0.0
 10
232.9748669809
 20
411.4722643425
 30
0.0
 10
235.3563951374
 20
410.6765570679
 30
0.0
 10
237.264061349
 20
409.5141834869
 30
0.0
 10
238.5563705415
 20
408.044545474
 30
0.0
 10
238.8874018474
 20
406.8588234812
 30
0.0
 10
238.8871612125
 20
406.3108681743
 30
0.0
  0
SPLINE
  5
349
100
AcDbEntity
  8
0
100
AcDbSpline
 62
7
  6
CONTINUOUS
 70
0
 71
3
 72
9
 73
5
 74
0
 42
0.0000001
 43
0.0000001
 44
0.0000000001
 40
0.0
 40
0.0
 40
0.0
 40
0.0
 40
0.5401134168
 40
1.0
 40
1.0
 40
1.0
 40
1.0
 10
222.0076560642
 20
409.3562784932
 30
0.0
 10
221.4452982778
 20
408.9554921501
 30
0.0
 10
220.4837583601
 20
408.0700043198
 30
0.0
 10
219.9708066575
 20
406.8338479538
 30
0.0
 10
219.9066073183
 20
406.249375214
 30
0.0
  0
SPLINE
  5
34A
100
AcDbEntity
  8
0
100
AcDbSpline
 62
7
  6
CONTINUOUS
 70
0
 71
3
 72
9
 73
5
 74
0
 42
0.0000001
 43
0.0000001
 44
0.0000000001
 40
0.0
 40
0.0
 40
0.0
 40
0.0
 40
0.4491565434
 40
1.0
 40
1.0
 40
1.0
 40
1.0
 10
193.2745422433
 20
449.9927442163
 30
0.0
 10
193.2745272082
 20
450.382127219
 30
0.0
 10
193.6146412535
 20
451.2512604745
 30
0.0
 10
194.3252149535
 20
451.7951799613
 30
0.0
 10
194.7387751509
 20
452.0339476273
 30
0.0
  0
SPLINE
  5
34B
100
AcDbEntity
  8
0
100
AcDbSpline
 62
7
  6
CONTINUOUS
 70
0
 71
3
 72
9
 73
5
 74
0
 42
0.0000001
 43
0.0000001
 44
0.0000000001
 40
0.0
 40
0.0
 40
0.0
 40
0.0
 40
0.2564800546
 40
1.0
 40
1.0
 40
1.0
 40
1.0
 10
323.079372791
 20
352.2189673131
 30
0.0
 10
322.9645544056
 20
352.1526772831
 30
0.0
 10
322.520724441
 20
351.8876619135
 30
0.0
 10
322.0926120177
 20
351.5960163329
 30
0.0
 10
321.7866017622
 20
351.3634708428
 30
0.0
  0
SPLINE
  5
34C
100
AcDbEntity
  8
0
100
AcDbSpline
 62
7
  6
CONTINUOUS
 70
0
 71
3
 72
9
 73
5
 74
0
 42
0.0000001
 43
0.0000001
 44
0.0000000001
 40
0.0
 40
0.0
 40
0.0
 40
0.0
 40
0.5379054778
 40
1.0
 40
1.0
 40
1.0
 40
1.0
 10
321.7866017622
 20
351.3634708428
 30
0.0
 10
320.9797708054
 20
350.7503381228
 30
0.0
 10
319.6068265428
 20
349.3974497735
 30
0.0
 10
318.9167896313
 20
347.551462093
 30
0.0
 10
318.8477733591
 20
346.6836584347
 30
0.0
  0
SPLINE
  5
34D
100
AcDbEntity
  8
0
100
AcDbSpline
 62
7
  6
CONTINUOUS
 70
0
 71
3
 72
16
 73
12
 74
0
 42
0.0000001
 43
0.0000001
 44
0.0000000001
 40
0.0
 40
0.0
 40
0.0
 40
0.0
 40
0.0429293127
 40
0.0879632972
 40
0.1885732623
 40
0.3068398482
 40
0.4408621605
 40
0.5849062327
 40
0.7313196739
 40
0.8720266369
 40
1.0
 40
1.0
 40
1.0
 40
1.0
 10
134.5299504637
 20
423.0454031728
 30
0.0
 10
134.4957739644
 20
423.5801194965
 30
0.0
 10
134.2839205951
 20
424.6708725936
 30
0.0
 10
133.2939373125
 20
426.8266127585
 30
0.0
 10
130.9882352706
 20
429.289553638
 30
0.0
 10
127.1415392459
 20
431.5150554025
 30
0.0
 10
122.3989185534
 20
433.0307721546
 30
0.0
 10
117.1209977364
 20
433.7214233288
 30
0.0
 10
111.717568374
 20
433.5368425681
 30
0.0
 10
106.6185052445
 20
432.493412792
 30
0.0
 10
103.4912027674
 20
431.1954815086
 30
0.0
 10
102.1079369585
 20
430.3968573887
 30
0.0
  0
SPLINE
  5
34E
100
AcDbEntity
  8
0
100
AcDbSpline
 62
7
  6
CONTINUOUS
 70
0
 71
3
 72
15
 73
11
 74
0
 42
0.0000001
 43
0.0000001
 44
0.0000000001
 40
0.0
 40
0.0
 40
0.0
 40
0.0
 40
0.1288282493
 40
0.2705764289
 40
0.4178924529
 40
0.5623916177
 40
0.6962056481
 40
0.8135944279
 40
0.9130651203
 40
1.0
 40
1.0
 40
1.0
 40
1.0
 10
326.6149214167
 20
350.1777635405
 30
0.0
 10
327.3181451295
 20
350.5837675169
 30
0.0
 10
328.9104088909
 20
351.2406957795
 30
0.0
 10
331.5053823786
 20
351.7599140166
 30
0.0
 10
334.2502634216
 20
351.8358423595
 30
0.0
 10
336.9199965775
 20
351.460873428
 30
0.0
 10
339.301524734
 20
350.6651661534
 30
0.0
 10
341.2091909456
 20
349.5027925724
 30
0.0
 10
342.5015001382
 20
348.0331545595
 30
0.0
 10
342.832531444
 20
346.8474325667
 30
0.0
 10
342.8322908091
 20
346.2994772599
 30
0.0
  0
SPLINE
  5
34F
100
AcDbEntity
  8
0
100
AcDbSpline
 62
7
  6
CONTINUOUS
 70
0
 71
3
 72
9
 73
5
 74
0
 42
0.0000001
 43
0.0000001
 44
0.0000000001
 40
0.0
 40
0.0
 40
0.0
 40
0.0
 40
0.5401134168
 40
1.0
 40
1.0
 40
1.0
 40
1.0
 10
325.9527856608
 20
349.3448875788
 30
0.0
 10
325.3904278744
 20
348.9441012356
 30
0.0
 10
324.4288879567
 20
348.0586134053
 30
0.0
 10
323.9159362541
 20
346.8224570393
 30
0.0
 10
323.8517369149
 20
346.2379842995
 30
0.0
  0
SPLINE
  5
350
100
AcDbEntity
  8
0
100
AcDbSpline
 62
7
  6
CONTINUOUS
 70
0
 71
3
 72
9
 73
5
 74
0
 42
0.0000001
 43
0.0000001
 44
0.0000000001
 40
0.0
 40
0.0
 40
0.0
 40
0.0
 40
0.2595995917
 40
1.0
 40
1.0
 40
1.0
 40
1.0
 10
311.4123066753
 20
325.0708160645
 30
0.0
 10
311.2931194378
 20
325.0020036916
 30
0.0
 10
310.8397059366
 20
324.7273080042
 30
0.0
 10
310.4095697264
 20
324.4131467456
 30
0.0
 10
310.1122279874
 20
324.1569059133
 30
0.0
  0
SPLINE
  5
351
100
AcDbEntity
  8
0
100
AcDbSpline
 62
7
  6
CONTINUOUS
 70
0
 71
3
 72
9
 73
5
 74
0
 42
0.0000001
 43
0.0000001
 44
0.0000000001
 40
0.0
 40
0.0
 40
0.0
 40
0.0
 40
0.5322772393
 40
1.0
 40
1.0
 40
1.0
 40
1.0
 10
310.1122279874
 20
324.1569059133
 30
0.0
 10
309.6389755702
 20
323.7490701558
 30
0.0
 10
308.8363819063
 20
322.8618299525
 30
0.0
 10
308.4201416556
 20
321.7205794001
 30
0.0
 10
308.358932264
 20
321.1750323524
 30
0.0
  0
SPLINE
  5
352
100
AcDbEntity
  8
0
100
AcDbSpline
 62
7
  6
CONTINUOUS
 70
0
 71
3
 72
11
 73
7
 74
0
 42
0.0000001
 43
0.0000001
 44
0.0000000001
 40
0.0
 40
0.0
 40
0.0
 40
0.0
 40
0.2177648073
 40
0.4508950352
 40
0.7103684932
 40
1.0
 40
1.0
 40
1.0
 40
1.0
 10
153.6194593395
 20
411.2096250946
 30
0.0
 10
153.6196000293
 20
411.563814094
 30
0.0
 10
153.7499351888
 20
412.3021483536
 30
0.0
 10
154.3099562882
 20
413.3309299714
 30
0.0
 10
155.194912478
 20
414.2606539803
 30
0.0
 10
155.9351774617
 20
414.7707265831
 30
0.0
 10
156.3431439506
 20
415.0062647393
 30
0.0
  0
SPLINE
  5
353
100
AcDbEntity
  8
0
100
AcDbSpline
 62
7
  6
CONTINUOUS
 70
0
 71
3
 72
11
 73
7
 74
0
 42
0.0000001
 43
0.0000001
 44
0.0000000001
 40
0.0
 40
0.0
 40
0.0
 40
0.0
 40
0.2222189479
 40
0.4573157506
 40
0.7148633777
 40
1.0
 40
1.0
 40
1.0
 40
1.0
 10
96.5431613185
 20
423.0485342608
 30
0.0
 10
96.5431449525
 20
423.6974562247
 30
0.0
 10
96.7551157749
 20
425.0405622599
 30
0.0
 10
97.6735870585
 20
426.942312107
 30
0.0
 10
99.1422870054
 20
428.6990284536
 30
0.0
 10
100.3889401697
 20
429.6934572555
 30
0.0
 10
101.078082397
 20
430.1607848529
 30
0.0
  0
SPLINE
  5
354
100
AcDbEntity
  8
0
100
AcDbSpline
 62
7
  6
CONTINUOUS
 70
0
 71
3
 72
17
 73
13
 74
0
 42
0.0000001
 43
0.0000001
 44
0.0000000001
 40
0.0
 40
0.0
 40
0.0
 40
0.0
 40
0.0428934023
 40
0.087824345
 40
0.1361053538
 40
0.1885459954
 40
0.3065692511
 40
0.4404794205
 40
0.5845450919
 40
0.7310697223
 40
0.8719169753
 40
1.0
 40
1.0
 40
1.0
 40
1.0
 10
139.5326145251
 20
423.4535683889
 30
0.0
 10
139.4983688696
 20
424.1307275801
 30
0.0
 10
139.2482228561
 20
425.5134932072
 30
0.0
 10
138.3645734356
 20
427.4941582305
 30
0.0
 10
136.9986720935
 20
429.3659933526
 30
0.0
 10
134.4848529604
 20
431.7617014297
 30
0.0
 10
130.2801770595
 20
434.2246788851
 30
0.0
 10
124.2885465947
 20
436.1548550678
 30
0.0
 10
117.6038214206
 20
437.0440381293
 30
0.0
 10
110.7560139542
 20
436.819015146
 30
0.0
 10
104.2910596961
 20
435.5023549689
 30
0.0
 10
100.3257754022
 20
433.8586248237
 30
0.0
 10
98.5723883328
 20
432.8463123698
 30
0.0
  0
SPLINE
  5
355
100
AcDbEntity
  8
0
100
AcDbSpline
 62
7
  6
CONTINUOUS
 70
0
 71
3
 72
9
 73
5
 74
0
 42
0.0000001
 43
0.0000001
 44
0.0000000001
 40
0.0
 40
0.0
 40
0.0
 40
0.0
 40
0.4611488261
 40
1.0
 40
1.0
 40
1.0
 40
1.0
 10
219.8875072056
 20
406.3108663998
 30
0.0
 10
219.8877718921
 20
406.9135901713
 30
0.0
 10
220.2950192167
 20
408.2309429239
 30
0.0
 10
221.2427201277
 20
409.1842002529
 30
0.0
 10
221.8018247542
 20
409.6124688703
 30
0.0
  0
SPLINE
  5
356
100
AcDbEntity
  8
0
100
AcDbSpline
 62
7
  6
CONTINUOUS
 70
0
 71
3
 72
9
 73
5
 74
0
 42
0.0000001
 43
0.0000001
 44
0.0000000001
 40
0.0
 40
0.0
 40
0.0
 40
0.0
 40
0.2434498555
 40
1.0
 40
1.0
 40
1.0
 40
1.0
 10
221.8018247542
 20
409.6124688703
 30
0.0
 10
221.8689848393
 20
409.6639128316
 30
0.0
 10
222.148556901
 20
409.870367209
 30
0.0
 10
222.4421124311
 20
410.0577044832
 30
0.0
 10
222.6697918201
 20
410.189154455
 30
0.0
  0
SPLINE
  5
357
100
AcDbEntity
  8
0
100
AcDbSpline
 62
7
  6
CONTINUOUS
 70
0
 71
3
 72
15
 73
11
 74
0
 42
0.0000001
 43
0.0000001
 44
0.0000000001
 40
0.0
 40
0.0
 40
0.0
 40
0.0
 40
0.0878686368
 40
0.1894444813
 40
0.3084556794
 40
0.4427388696
 40
0.5865674024
 40
0.7324557064
 40
0.8725388453
 40
1.0
 40
1.0
 40
1.0
 40
1.0
 10
217.9452503077
 20
385.4729880434
 30
0.0
 10
217.8783046607
 20
386.0701298999
 30
0.0
 10
217.3851530698
 20
387.3261943234
 30
0.0
 10
215.8719202596
 20
388.8489893182
 30
0.0
 10
213.7347940255
 20
390.0462353341
 30
0.0
 10
211.1236328189
 20
390.8503822248
 30
0.0
 10
208.2329841663
 20
391.2089000691
 30
0.0
 10
205.2826346119
 20
391.0936689389
 30
0.0
 10
202.5021339367
 20
390.5152069501
 30
0.0
 10
200.797382507
 20
389.8045495052
 30
0.0
 10
200.0425249646
 20
389.3687349014
 30
0.0
  0
SPLINE
  5
358
100
AcDbEntity
  8
0
100
AcDbSpline
 62
7
  6
CONTINUOUS
 70
0
 71
3
 72
15
 73
11
 74
0
 42
0.0000001
 43
0.0000001
 44
0.0000000001
 40
0.0
 40
0.0
 40
0.0
 40
0.0
 40
0.0880012136
 40
0.1898156826
 40
0.3089994579
 40
0.4433245753
 40
0.5870726722
 40
0.7327924291
 40
0.8726993398
 40
1.0
 40
1.0
 40
1.0
 40
1.0
 10
342.8080356674
 20
346.2841436989
 30
0.0
 10
342.741017512
 20
346.823332902
 30
0.0
 10
342.2825646886
 20
347.9539213706
 30
0.0
 10
340.9055575327
 20
349.321658625
 30
0.0
 10
338.969453646
 20
350.3961307636
 30
0.0
 10
336.6094140806
 20
351.1162615246
 30
0.0
 10
334.0003063189
 20
351.4350259835
 30
0.0
 10
331.3393556404
 20
351.3277619026
 30
0.0
 10
328.832518861
 20
350.8038463498
 30
0.0
 10
327.2956022722
 20
350.1625012613
 30
0.0
 10
326.6149214167
 20
349.769512332
 30
0.0
  0
SPLINE
  5
359
100
AcDbEntity
  8
0
100
AcDbSpline
 62
7
  6
CONTINUOUS
 70
0
 71
3
 72
15
 73
11
 74
0
 42
0.0000001
 43
0.0000001
 44
0.0000000001
 40
0.0
 40
0.0
 40
0.0
 40
0.0
 40
0.0875794572
 40
0.1886027818
 40
0.307206575
 40
0.4413847164
 40
0.5853993683
 40
0.7316639052
 40
0.8721781302
 40
1.0
 40
1.0
 40
1.0
 40
1.0
 10
243.8706581343
 20
406.7106356022
 30
0.0
 10
243.8020222267
 20
407.5388879223
 30
0.0
 10
243.1648358123
 20
409.2938873397
 30
0.0
 10
241.1041505259
 20
411.4326990169
 30
0.0
 10
238.1621457452
 20
413.1172477347
 30
0.0
 10
234.547902572
 20
414.2544157617
 30
0.0
 10
230.534058035
 20
414.7692378901
 30
0.0
 10
226.4297417419
 20
414.621054718
 30
0.0
 10
222.5585935689
 20
413.8238121234
 30
0.0
 10
220.1847114843
 20
412.8368427574
 30
0.0
 10
219.1342431944
 20
412.2303582276
 30
0.0
  0
SPLINE
  5
35A
100
AcDbEntity
  8
0
100
AcDbSpline
 62
7
  6
CONTINUOUS
 70
0
 71
3
 72
11
 73
7
 74
0
 42
0.0000001
 43
0.0000001
 44
0.0000000001
 40
0.0
 40
0.0
 40
0.0
 40
0.0
 40
0.2177827477
 40
0.4509152641
 40
0.7103063952
 40
1.0
 40
1.0
 40
1.0
 40
1.0
 10
174.6932690139
 20
398.3500418351
 30
0.0
 10
174.6933236578
 20
398.7499675008
 30
0.0
 10
174.8410286722
 20
399.5835487382
 30
0.0
 10
175.4729992866
 20
400.745000579
 30
0.0
 10
176.4719955058
 20
401.7948662784
 30
0.0
 10
177.3078603662
 20
402.3705814293
 30
0.0
 10
177.7685686225
 20
402.6365698774
 30
0.0
  0
SPLINE
  5
35B
100
AcDbEntity
  8
0
100
AcDbSpline
 62
7
  6
CONTINUOUS
 70
0
 71
3
 72
9
 73
5
 74
0
 42
0.0000001
 43
0.0000001
 44
0.0000000001
 40
0.0
 40
0.0
 40
0.0
 40
0.0
 40
0.2485473101
 40
1.0
 40
1.0
 40
1.0
 40
1.0
 10
58.593414133
 20
421.8237687379
 30
0.0
 10
58.5934141366
 20
421.4506882341
 30
0.0
 10
58.6415635779
 20
419.9499258217
 30
0.0
 10
58.8861067394
 20
418.4563052373
 30
0.0
 10
59.1701380547
 20
417.3646879225
 30
0.0
  0
SPLINE
  5
35C
100
AcDbEntity
  8
0
100
AcDbSpline
 62
7
  6
CONTINUOUS
 70
0
 71
3
 72
11
 73
7
 74
0
 42
0.0000001
 43
0.0000001
 44
0.0000000001
 40
0.0
 40
0.0
 40
0.0
 40
0.0
 40
0.2203913173
 40
0.4582178415
 40
0.717636586
 40
1.0
 40
1.0
 40
1.0
 40
1.0
 10
59.4138592226
 20
416.5116990296
 30
0.0
 10
59.8929217814
 20
414.973175464
 30
0.0
 10
61.3044890085
 20
411.8944807752
 30
0.0
 10
64.4929212255
 20
407.6862736611
 30
0.0
 10
68.7234032776
 20
403.8269105379
 30
0.0
 10
72.0359639129
 20
401.6273001777
 30
0.0
 10
73.823874733
 20
400.5950727366
 30
0.0
  0
SPLINE
  5
35D
100
AcDbEntity
  8
0
100
AcDbSpline
 62
7
  6
CONTINUOUS
 70
0
 71
3
 72
11
 73
7
 74
0
 42
0.0000001
 43
0.0000001
 44
0.0000000001
 40
0.0
 40
0.0
 40
0.0
 40
0.0
 40
0.2177724353
 40
0.4509309023
 40
0.710227729
 40
1.0
 40
1.0
 40
1.0
 40
1.0
 10
91.5431989114
 20
423.4567854939
 30
0.0
 10
91.5431780794
 20
424.3708640742
 30
0.0
 10
91.880756834
 20
426.2763337702
 30
0.0
 10
93.325302162
 20
428.9306542805
 30
0.0
 10
95.6082417355
 20
431.3308827382
 30
0.0
 10
97.5190479638
 20
432.6464208629
 30
0.0
 10
98.5723883328
 20
433.2545635784
 30
0.0
  0
SPLINE
  5
35E
100
AcDbEntity
  8
0
100
AcDbSpline
 62
7
  6
CONTINUOUS
 70
0
 71
3
 72
13
 73
9
 74
0
 42
0.0000001
 43
0.0000001
 44
0.0000000001
 40
0.0
 40
0.0
 40
0.0
 40
0.0
 40
0.0879104041
 40
0.1894644064
 40
0.3736087518
 40
0.586254702
 40
0.8036017038
 40
1.0
 40
1.0
 40
1.0
 40
1.0
 10
209.7549417098
 20
363.0194824054
 30
0.0
 10
209.6879293804
 20
363.6744984727
 30
0.0
 10
209.1596043432
 20
365.0560157381
 30
0.0
 10
207.1608485672
 20
367.0851108968
 30
0.0
 10
203.7051208075
 20
368.6992474224
 30
0.0
 10
199.1218040128
 20
369.4415821677
 30
0.0
 10
194.4039395933
 20
369.0853540372
 30
0.0
 10
191.4171075289
 20
368.0591113933
 30
0.0
 10
190.1431890023
 20
367.3236185794
 30
0.0
  0
SPLINE
  5
35F
100
AcDbEntity
  8
0
100
AcDbSpline
 62
7
  6
CONTINUOUS
 70
0
 71
3
 72
11
 73
7
 74
0
 42
0.0000001
 43
0.0000001
 44
0.0000000001
 40
0.0
 40
0.0
 40
0.0
 40
0.0
 40
0.2177827477
 40
0.4509152641
 40
0.7103063952
 40
1.0
 40
1.0
 40
1.0
 40
1.0
 10
196.967225356
 20
385.4904580677
 30
0.0
 10
196.9672799999
 20
385.8903837334
 30
0.0
 10
197.1149850144
 20
386.7239649708
 30
0.0
 10
197.7469556287
 20
387.8854168116
 30
0.0
 10
198.7459518479
 20
388.9352825111
 30
0.0
 10
199.5818167083
 20
389.5109976619
 30
0.0
 10
200.0425249646
 20
389.77698611
 30
0.0
  0
SPLINE
  5
360
100
AcDbEntity
  8
0
100
AcDbSpline
 62
7
  6
CONTINUOUS
 70
0
 71
3
 72
11
 73
7
 74
0
 42
0.0000001
 43
0.0000001
 44
0.0000000001
 40
0.0
 40
0.0
 40
0.0
 40
0.0
 40
0.2177827477
 40
0.4509152641
 40
0.7103063952
 40
1.0
 40
1.0
 40
1.0
 40
1.0
 10
186.7750037167
 20
363.0371009797
 30
0.0
 10
186.7750635647
 20
363.475114804
 30
0.0
 10
186.9368357234
 20
364.3880847307
 30
0.0
 10
187.6289940153
 20
365.6601510326
 30
0.0
 10
188.7231327316
 20
366.8100039415
 30
0.0
 10
189.6386037692
 20
367.4405491067
 30
0.0
 10
190.1431890023
 20
367.7318697879
 30
0.0
  0
SPLINE
  5
361
100
AcDbEntity
  8
0
100
AcDbSpline
 62
7
  6
CONTINUOUS
 70
0
 71
3
 72
15
 73
11
 74
0
 42
0.0000001
 43
0.0000001
 44
0.0000000001
 40
0.0
 40
0.0
 40
0.0
 40
0.0
 40
0.0880012136
 40
0.1898156826
 40
0.3089994579
 40
0.4433245753
 40
0.5870726722
 40
0.7327924291
 40
0.8726993398
 40
1.0
 40
1.0
 40
1.0
 40
1.0
 10
273.511282603
 20
386.2917376419
 30
0.0
 10
273.4442644476
 20
386.830926845
 30
0.0
 10
272.9858116242
 20
387.9615153136
 30
0.0
 10
271.6088044683
 20
389.329252568
 30
0.0
 10
269.6727005816
 20
390.4037247066
 30
0.0
 10
267.3126610162
 20
391.1238554676
 30
0.0
 10
264.7035532545
 20
391.4426199265
 30
0.0
 10
262.042602576
 20
391.3353558456
 30
0.0
 10
259.5357657966
 20
390.8114402928
 30
0.0
 10
257.9988492078
 20
390.1700952043
 30
0.0
 10
257.3181683523
 20
389.777106275
 30
0.0
  0
SPLINE
  5
362
100
AcDbEntity
  8
0
100
AcDbSpline
 62
7
  6
CONTINUOUS
 70
0
 71
3
 72
15
 73
11
 74
0
 42
0.0000001
 43
0.0000001
 44
0.0000000001
 40
0.0
 40
0.0
 40
0.0
 40
0.0
 40
0.0878686368
 40
0.1894444813
 40
0.3084556794
 40
0.4427388696
 40
0.5865674024
 40
0.7324557064
 40
0.8725388453
 40
1.0
 40
1.0
 40
1.0
 40
1.0
 10
240.2192066498
 20
372.613404276
 30
0.0
 10
240.1522610028
 20
373.2105461325
 30
0.0
 10
239.6591094119
 20
374.466610556
 30
0.0
 10
238.1458766017
 20
375.9894055508
 30
0.0
 10
236.0087503676
 20
377.1866515667
 30
0.0
 10
233.397589161
 20
377.9907984574
 30
0.0
 10
230.5069405084
 20
378.3493163017
 30
0.0
 10
227.556590954
 20
378.2340851715
 30
0.0
 10
224.7760902789
 20
377.6556231827
 30
0.0
 10
223.0713388491
 20
376.9449657378
 30
0.0
 10
222.3164813068
 20
376.509151134
 30
0.0
  0
SPLINE
  5
363
100
AcDbEntity
  8
0
100
AcDbSpline
 62
7
  6
CONTINUOUS
 70
0
 71
3
 72
9
 73
5
 74
0
 42
0.0000001
 43
0.0000001
 44
0.0000000001
 40
0.0
 40
0.0
 40
0.0
 40
0.0
 40
0.4611488261
 40
1.0
 40
1.0
 40
1.0
 40
1.0
 10
254.5358837378
 20
386.3070694283
 30
0.0
 10
254.5361484243
 20
386.9097931998
 30
0.0
 10
254.9433957489
 20
388.2271459524
 30
0.0
 10
255.8910966599
 20
389.1804032814
 30
0.0
 10
256.4502012864
 20
389.6086718988
 30
0.0
  0
SPLINE
  5
364
100
AcDbEntity
  8
0
100
AcDbSpline
 62
7
  6
CONTINUOUS
 70
0
 71
3
 72
9
 73
5
 74
0
 42
0.0000001
 43
0.0000001
 44
0.0000000001
 40
0.0
 40
0.0
 40
0.0
 40
0.0
 40
0.2434498555
 40
1.0
 40
1.0
 40
1.0
 40
1.0
 10
256.4502012864
 20
389.6086718988
 30
0.0
 10
256.5173613715
 20
389.6601158601
 30
0.0
 10
256.7969334332
 20
389.8665702375
 30
0.0
 10
257.0904889633
 20
390.0539075117
 30
0.0
 10
257.3181683523
 20
390.1853574835
 30
0.0
  0
SPLINE
  5
365
100
AcDbEntity
  8
0
100
AcDbSpline
 62
7
  6
CONTINUOUS
 70
0
 71
3
 72
15
 73
11
 74
0
 42
0.0000001
 43
0.0000001
 44
0.0000000001
 40
0.0
 40
0.0
 40
0.0
 40
0.0
 40
0.0875794572
 40
0.1886027818
 40
0.307206575
 40
0.4413847164
 40
0.5853993683
 40
0.7316639052
 40
0.8721781302
 40
1.0
 40
1.0
 40
1.0
 40
1.0
 10
278.5190346665
 20
386.7068386307
 30
0.0
 10
278.4503987589
 20
387.5350909508
 30
0.0
 10
277.8132123445
 20
389.2900903682
 30
0.0
 10
275.7525270581
 20
391.4289020454
 30
0.0
 10
272.8105222774
 20
393.1134507632
 30
0.0
 10
269.1962791042
 20
394.2506187902
 30
0.0
 10
265.1824345672
 20
394.7654409186
 30
0.0
 10
261.0781182741
 20
394.6172577465
 30
0.0
 10
257.2069701011
 20
393.8200151519
 30
0.0
 10
254.8330880165
 20
392.8330457859
 30
0.0
 10
253.7826197266
 20
392.2265612561
 30
0.0
  0
SPLINE
  5
366
100
AcDbEntity
  8
0
100
AcDbSpline
 62
7
  6
CONTINUOUS
 70
0
 71
3
 72
11
 73
7
 74
0
 42
0.0000001
 43
0.0000001
 44
0.0000000001
 40
0.0
 40
0.0
 40
0.0
 40
0.0
 40
0.217779011
 40
0.4509222696
 40
0.7102587576
 40
1.0
 40
1.0
 40
1.0
 40
1.0
 10
249.5357962544
 20
386.7153214939
 30
0.0
 10
249.5356997942
 20
387.2675913377
 30
0.0
 10
249.7399373504
 20
388.4187486553
 30
0.0
 10
250.6124862116
 20
390.0225414906
 30
0.0
 10
251.9919270952
 20
391.4725316769
 30
0.0
 10
253.1462977643
 20
392.2674340014
 30
0.0
 10
253.7826197266
 20
392.6348124647
 30
0.0
  0
SPLINE
  5
367
100
AcDbEntity
  8
0
100
AcDbSpline
 62
7
  6
CONTINUOUS
 70
0
 71
3
 72
13
 73
9
 74
0
 42
0.0000001
 43
0.0000001
 44
0.0000000001
 40
0.0
 40
0.0
 40
0.0
 40
0.0
 40
0.0879104041
 40
0.1894644064
 40
0.3736087518
 40
0.586254702
 40
0.8036017038
 40
1.0
 40
1.0
 40
1.0
 40
1.0
 10
328.5493755345
 20
294.435035646
 30
0.0
 10
328.4823632051
 20
295.0900517133
 30
0.0
 10
327.9540381679
 20
296.4715689786
 30
0.0
 10
325.9552823919
 20
298.5006641374
 30
0.0
 10
322.4995546322
 20
300.114800663
 30
0.0
 10
317.9162378375
 20
300.8571354083
 30
0.0
 10
313.198373418
 20
300.5009072778
 30
0.0
 10
310.2115413536
 20
299.4746646339
 30
0.0
 10
308.937622827
 20
298.73917182
 30
0.0
  0
SPLINE
  5
368
100
AcDbEntity
  8
0
100
AcDbSpline
 62
7
  6
CONTINUOUS
 70
0
 71
3
 72
11
 73
7
 74
0
 42
0.0000001
 43
0.0000001
 44
0.0000000001
 40
0.0
 40
0.0
 40
0.0
 40
0.0
 40
0.2177827477
 40
0.4509152641
 40
0.7103063952
 40
1.0
 40
1.0
 40
1.0
 40
1.0
 10
219.2411816982
 20
372.6308743003
 30
0.0
 10
219.241236342
 20
373.030799966
 30
0.0
 10
219.3889413565
 20
373.8643812034
 30
0.0
 10
220.0209119709
 20
375.0258330442
 30
0.0
 10
221.0199081901
 20
376.0756987437
 30
0.0
 10
221.8557730505
 20
376.6514138945
 30
0.0
 10
222.3164813068
 20
376.9174023426
 30
0.0
  0
SPLINE
  5
369
100
AcDbEntity
  8
0
100
AcDbSpline
 62
7
  6
CONTINUOUS
 70
0
 71
3
 72
9
 73
5
 74
0
 42
0.0000001
 43
0.0000001
 44
0.0000000001
 40
0.0
 40
0.0
 40
0.0
 40
0.0
 40
0.4999988716
 40
1.0
 40
1.0
 40
1.0
 40
1.0
 10
439.3989490734
 20
281.7974323154
 30
0.0
 10
439.8187107991
 20
281.5550882525
 30
0.0
 10
440.4819690564
 20
280.7897230545
 30
0.0
 10
440.8131685237
 20
279.8326445093
 30
0.0
 10
440.8131685237
 20
279.3479459721
 30
0.0
  0
SPLINE
  5
36A
100
AcDbEntity
  8
0
100
AcDbSpline
 62
7
  6
CONTINUOUS
 70
0
 71
3
 72
11
 73
7
 74
0
 42
0.0000001
 43
0.0000001
 44
0.0000000001
 40
0.0
 40
0.0
 40
0.0
 40
0.0
 40
0.2823630165
 40
0.5417816097
 40
0.779608274
 40
1.0
 40
1.0
 40
1.0
 40
1.0
 10
440.8131685237
 20
279.3479459721
 30
0.0
 10
442.6010422165
 20
280.3801691684
 30
0.0
 10
445.9135337106
 20
282.5797668972
 30
0.0
 10
450.1439252499
 20
286.439095205
 30
0.0
 10
453.3322899852
 20
290.6472557775
 30
0.0
 10
454.7438289985
 20
293.725910338
 30
0.0
 10
455.2228835848
 20
295.2644138713
 30
0.0
  0
SPLINE
  5
36B
100
AcDbEntity
  8
0
100
AcDbSpline
 62
7
  6
CONTINUOUS
 70
0
 71
3
 72
9
 73
5
 74
0
 42
0.0000001
 43
0.0000001
 44
0.0000000001
 40
0.0
 40
0.0
 40
0.0
 40
0.0
 40
0.2526337161
 40
1.0
 40
1.0
 40
1.0
 40
1.0
 10
455.4665994922
 20
296.1173862133
 30
0.0
 10
455.5620875064
 20
296.484375389
 30
0.0
 10
455.8955939732
 20
297.9481962481
 30
0.0
 10
456.043322962
 20
299.4546530344
 30
0.0
 10
456.0433229511
 20
300.5764652071
 30
0.0
  0
SPLINE
  5
36C
100
AcDbEntity
  8
0
100
AcDbSpline
 62
7
  6
CONTINUOUS
 70
0
 71
3
 72
9
 73
5
 74
0
 42
0.0000001
 43
0.0000001
 44
0.0000000001
 40
0.0
 40
0.0
 40
0.0
 40
0.0
 40
0.4999983278
 40
1.0
 40
1.0
 40
1.0
 40
1.0
 10
326.9691445597
 20
257.7108572694
 30
0.0
 10
326.5493852271
 20
257.4685105523
 30
0.0
 10
325.8861330643
 20
256.7031410926
 30
0.0
 10
325.5549368853
 20
255.7460629734
 30
0.0
 10
325.5549368853
 20
255.2613641274
 30
0.0
  0
SPLINE
  5
36D
100
AcDbEntity
  8
0
100
AcDbSpline
 62
7
  6
CONTINUOUS
 70
0
 71
3
 72
9
 73
5
 74
0
 42
0.0000001
 43
0.0000001
 44
0.0000000001
 40
0.0
 40
0.0
 40
0.0
 40
0.0
 40
0.5000011284
 40
1.0
 40
1.0
 40
1.0
 40
1.0
 10
399.094042128
 20
255.2615408936
 30
0.0
 10
399.094042128
 20
255.7462394309
 30
0.0
 10
398.7628426608
 20
256.7033179761
 30
0.0
 10
398.0995844035
 20
257.4686831741
 30
0.0
 10
397.6798226778
 20
257.7110272369
 30
0.0
  0
SPLINE
  5
36E
100
AcDbEntity
  8
0
100
AcDbSpline
 62
7
  6
CONTINUOUS
 70
0
 71
3
 72
13
 73
9
 74
0
 42
0.0000001
 43
0.0000001
 44
0.0000000001
 40
0.0
 40
0.0
 40
0.0
 40
0.0
 40
0.1142595933
 40
0.23753674
 40
0.5000005226
 40
0.7624640191
 40
0.8857408319
 40
1.0
 40
1.0
 40
1.0
 40
1.0
 10
325.5549368853
 20
255.2613641274
 30
0.0
 10
328.0721787491
 20
253.8080667377
 30
0.0
 10
333.5766217718
 20
251.2443628644
 30
0.0
 10
345.7765922733
 20
247.5399346514
 30
0.0
 10
362.3245471103
 20
245.7392120848
 30
0.0
 10
378.8724860309
 20
247.5400111639
 30
0.0
 10
391.0724108191
 20
251.2444993887
 30
0.0
 10
396.5768201098
 20
253.8082307589
 30
0.0
 10
399.094042128
 20
255.2615408936
 30
0.0
  0
SPLINE
  5
36F
100
AcDbEntity
  8
0
100
AcDbSpline
 62
7
  6
CONTINUOUS
 70
0
 71
3
 72
9
 73
5
 74
0
 42
0.0000001
 43
0.0000001
 44
0.0000000001
 40
0.0
 40
0.0
 40
0.0
 40
0.0
 40
0.5000016722
 40
1.0
 40
1.0
 40
1.0
 40
1.0
 10
73.823874733
 20
400.5950727366
 30
0.0
 10
73.823874733
 20
401.0797715826
 30
0.0
 10
74.1550709119
 20
402.0368497019
 30
0.0
 10
74.8183230748
 20
402.8022191616
 30
0.0
 10
75.2380824074
 20
403.0445658786
 30
0.0
  0
SPLINE
  5
370
100
AcDbEntity
  8
0
100
AcDbSpline
 62
7
  6
CONTINUOUS
 70
0
 71
3
 72
9
 73
5
 74
0
 42
0.0000001
 43
0.0000001
 44
0.0000000001
 40
0.0
 40
0.0
 40
0.0
 40
0.0
 40
0.4998374618
 40
1.0
 40
1.0
 40
1.0
 40
1.0
 10
214.3050670706
 20
334.1377450155
 30
0.0
 10
213.384565982
 20
334.5258033755
 30
0.0
 10
211.3594714953
 20
334.8597130962
 30
0.0
 10
209.3342678242
 20
334.5270581811
 30
0.0
 10
208.4128028503
 20
334.1396149195
 30
0.0
  0
SPLINE
  5
371
100
AcDbEntity
  8
0
100
AcDbSpline
 62
7
  6
CONTINUOUS
 70
0
 71
3
 72
13
 73
9
 74
0
 42
0.0000001
 43
0.0000001
 44
0.0000000001
 40
0.0
 40
0.0
 40
0.0
 40
0.0
 40
0.0879104041
 40
0.1894644064
 40
0.3736087518
 40
0.586254702
 40
0.8036017038
 40
1.0
 40
1.0
 40
1.0
 40
1.0
 10
416.2305369138
 20
305.0495414605
 30
0.0
 10
416.1635245844
 20
305.7045575278
 30
0.0
 10
415.6351995472
 20
307.0860747931
 30
0.0
 10
413.6364437712
 20
309.1151699519
 30
0.0
 10
410.1807160115
 20
310.7293064775
 30
0.0
 10
405.5973992167
 20
311.4716412228
 30
0.0
 10
400.8795347972
 20
311.1154130923
 30
0.0
 10
397.8927027328
 20
310.0891704484
 30
0.0
 10
396.6187842063
 20
309.3536776345
 30
0.0
  0
SPLINE
  5
372
100
AcDbEntity
  8
0
100
AcDbSpline
 62
7
  6
CONTINUOUS
 70
0
 71
3
 72
9
 73
5
 74
0
 42
0.0000001
 43
0.0000001
 44
0.0000000001
 40
0.0
 40
0.0
 40
0.0
 40
0.0
 40
0.4491565434
 40
1.0
 40
1.0
 40
1.0
 40
1.0
 10
206.3568375898
 20
336.2972521667
 30
0.0
 10
206.3568225547
 20
336.6866351694
 30
0.0
 10
206.6969366001
 20
337.5557684249
 30
0.0
 10
207.4075103001
 20
338.0996879117
 30
0.0
 10
207.8210704974
 20
338.3384555777
 30
0.0
  0
SPLINE
  5
373
100
AcDbEntity
  8
0
100
AcDbSpline
 62
7
  6
CONTINUOUS
 70
0
 71
3
 72
15
 73
11
 74
0
 42
0.0000001
 43
0.0000001
 44
0.0000000001
 40
0.0
 40
0.0
 40
0.0
 40
0.0
 40
0.0878686368
 40
0.1894444813
 40
0.3084556794
 40
0.4427388696
 40
0.5865674024
 40
0.7324557064
 40
0.8725388453
 40
1.0
 40
1.0
 40
1.0
 40
1.0
 10
329.3150320183
 20
321.1750692064
 30
0.0
 10
329.2480863713
 20
321.7722110629
 30
0.0
 10
328.7549347805
 20
323.0282754864
 30
0.0
 10
327.2417019703
 20
324.5510704813
 30
0.0
 10
325.1045757361
 20
325.7483164972
 30
0.0
 10
322.4934145295
 20
326.5524633878
 30
0.0
 10
319.602765877
 20
326.9109812321
 30
0.0
 10
316.6524163225
 20
326.7957501019
 30
0.0
 10
313.8719156474
 20
326.2172881131
 30
0.0
 10
312.1671642176
 20
325.5066306683
 30
0.0
 10
311.4123066753
 20
325.0708160645
 30
0.0
  0
SPLINE
  5
374
100
AcDbEntity
  8
0
100
AcDbSpline
 62
7
  6
CONTINUOUS
 70
0
 71
3
 72
15
 73
11
 74
0
 42
0.0000001
 43
0.0000001
 44
0.0000000001
 40
0.0
 40
0.0
 40
0.0
 40
0.0
 40
0.1453704381
 40
0.2755872371
 40
0.3928075926
 40
0.5021517488
 40
0.6111068872
 40
0.7272898039
 40
0.8561008782
 40
1.0
 40
1.0
 40
1.0
 40
1.0
 10
439.3989269872
 20
281.797419564
 30
0.0
 10
441.5688320324
 20
283.0502073478
 30
0.0
 10
445.5090920377
 20
285.7577512018
 30
0.0
 10
450.2334978438
 20
290.6867773056
 30
0.0
 10
453.2587688382
 20
296.1382710458
 30
0.0
 10
454.3717211394
 20
301.9250081603
 30
0.0
 10
453.4539475669
 20
307.7292613618
 30
0.0
 10
450.6051499148
 20
313.2232639931
 30
0.0
 10
446.036996207
 20
318.209164628
 30
0.0
 10
442.1852367661
 20
320.9582902183
 30
0.0
 10
440.0580688301
 20
322.2337055751
 30
0.0
  0
SPLINE
  5
375
100
AcDbEntity
  8
0
100
AcDbSpline
 62
7
  6
CONTINUOUS
 70
0
 71
3
 72
13
 73
9
 74
0
 42
0.0000001
 43
0.0000001
 44
0.0000000001
 40
0.0
 40
0.0
 40
0.0
 40
0.0
 40
0.1142600422
 40
0.2375373354
 40
0.5000005127
 40
0.7624634095
 40
0.8857403755
 40
1.0
 40
1.0
 40
1.0
 40
1.0
 10
326.9691224733
 20
257.7108700207
 30
0.0
 10
329.389557963
 20
256.3134625527
 30
0.0
 10
334.6823107754
 20
253.8483614827
 30
0.0
 10
346.4130625482
 20
250.2864289142
 30
0.0
 10
362.3245384113
 20
248.5549821802
 30
0.0
 10
378.2359991674
 20
250.2865022678
 30
0.0
 10
389.9667074881
 20
253.8484925538
 30
0.0
 10
395.2594281999
 20
256.313620175
 30
0.0
 10
397.6798447634
 20
257.711039988
 30
0.0
  0
ENDSEC
  0
SECTION
  2
OBJECTS
  0
DICTIONARY
  5
C
100
AcDbDictionary
280
0
281
1
  3
ACAD_GROUP
350
D
  3
ACAD_MLINESTYLE
350
17
  3
ACAD_LAYOUT
350
1A
  3
ACAD_PLOTSETTINGS
350
19
  3
ACAD_PLOTSTYLENAME
350
E
  0
DICTIONARY
  5
D
102
{ACAD_REACTORS
330
C
102
}
100
AcDbDictionary
280
0
281
1
  0
ACDBDICTIONARYWDFLT
  5
E
102
{ACAD_REACTORS
330
C
102
}
100
AcDbDictionary
281
1
  3
Normal
350
F
100
AcDbDictionaryWithDefault
340
F
  0
DICTIONARY
  5
17
102
{ACAD_REACTORS
330
C
102
}
100
AcDbDictionary
280
0
281
1
  3
Standard
350
18
  0
DICTIONARY
  5
19
102
{ACAD_REACTORS
330
C
102
}
100
AcDbDictionary
281
1
  0
DICTIONARY
  5
1A
102
{ACAD_REACTORS
330
C
102
}
100
AcDbDictionary
281
1
  3
Model
350
376
  3
Layout1
350
377
  0
ACDBPLACEHOLDER
  5
F
102
{ACAD_REACTORS
330
E
102
}
  0
MLINESTYLE
  5
18
102
{ACAD_REACTORS
330
17
102
}
100
AcDbMlineStyle
  2
STANDARD
 70
0
  3

 62
256
 51
90.0
 52
90.0
 71
2
 49
0.5
 62
256
  6
BYLAYER
 49
-0.5
 62
256
  6
BYLAYER
  0
LAYOUT
  5
376
102
{ACAD_REACTORS
330
1A
102
}
100
AcDbPlotSettings
  1

  2
none_device
  4

  6

 40
0.0
 41
0.0
 42
0.0
 43
0.0
 44
210.0
 45
297.0
 46
0.0
 47
0.0
 48
0.0
 49
0.0
140
0.0
141
0.0
142
1.0
143
1.0
 70
1024
 72
1
 73
0
 74
0
  7

 75
0
147
1.0
148
0.0
149
0.0
100
AcDbLayout
  1
Model
 70
0
 71
0
 10
0.0
 20
0.0
 11
210.0
 21
297.0
 12
0.0
 22
0.0
 32
0.0
 14
0.0
 24
0.0
 34
0.0
 15
0.0
 25
0.0
 35
0.0
146
0.0
 13
0.0
 23
0.0
 33
0.0
 16
1.0
 26
0.0
 36
0.0
 17
0.0
 27
1.0
 37
0.0
 76
0
330
210
345
0
346
0
  0
LAYOUT
  5
377
102
{ACAD_REACTORS
330
1A
102
}
100
AcDbPlotSettings
  1

  2
none_device
  4

  6

 40
0.0
 41
0.0
 42
0.0
 43
0.0
 44
210.0
 45
297.0
 46
0.0
 47
0.0
 48
0.0
 49
0.0
140
0.0
141
0.0
142
1.0
143
1.0
 70
0
 72
1
 73
0
 74
0
  7

 75
0
147
1.0
148
0.0
149
0.0
100
AcDbLayout
  1
Layout1
 70
0
 71
1
 10
0.0
 20
0.0
 11
210.0
 21
297.0
 12
0.0
 22
0.0
 32
0.0
 14
0.0
 24
0.0
 34
0.0
 15
0.0
 25
0.0
 35
0.0
146
0.0
 13
0.0
 23
0.0
 33
0.0
 16
1.0
 26
0.0
 36
0.0
 17
0.0
 27
1.0
 37
0.0
 76
0
330
211
345
0
346
0
  0
ENDSEC
  0
EOF
