ISO-10303-21;
HEADER;
FILE_DESCRIPTION(('STEP AP242'),'1');
FILE_NAME('tag_xghb320345_.stp','2021-02-05T12:58:04',('TraceParts'),('TraceParts S.A.'),'Spatial InterOp 3D',' ',' ');
FILE_SCHEMA(('AP242_MANAGED_MODEL_BASED_3D_ENGINEERING_MIM_LF  {1 0 10303 442 1 1 4}'));
ENDSEC;
DATA;
#1=PRODUCT_DEFINITION_CONTEXT('',#9,'design');
#2=APPLICATION_PROTOCOL_DEFINITION('INTERNATIONAL STANDARD','ap242_managed_model_based_3d_engineering',2014,#9);
#3=PRODUCT_CATEGORY_RELATIONSHIP('NONE','NONE',#10,#11);
#4=SHAPE_DEFINITION_REPRESENTATION(#12,#13);
#5= (GEOMETRIC_REPRESENTATION_CONTEXT(3)GLOBAL_UNCERTAINTY_ASSIGNED_CONTEXT((#16))GLOBAL_UNIT_ASSIGNED_CONTEXT((#18,#19,#20))REPRESENTATION_CONTEXT('NONE','WORKSPACE'));
#9=APPLICATION_CONTEXT('managed model based 3d engineering');
#10=PRODUCT_CATEGORY('part','NONE');
#11=PRODUCT_RELATED_PRODUCT_CATEGORY('detail',' ',(#22));
#12=PRODUCT_DEFINITION_SHAPE('NONE','NONE',#23);
#13=ADVANCED_BREP_SHAPE_REPRESENTATION('tag_xghb320345_',(#24,#25),#5);
#16=UNCERTAINTY_MEASURE_WITH_UNIT(LENGTH_MEASURE(1.0E-06),#18,'','');
#18= (CONVERSION_BASED_UNIT('MILLIMETRE',#28)LENGTH_UNIT()NAMED_UNIT(#31));
#19= (NAMED_UNIT(#33)PLANE_ANGLE_UNIT()SI_UNIT($,.RADIAN.));
#20= (NAMED_UNIT(#33)SOLID_ANGLE_UNIT()SI_UNIT($,.STERADIAN.));
#22=PRODUCT('tag_xghb320345_','tag_xghb320345_','PART-tag_xghb320345_-DESC',(#39));
#23=PRODUCT_DEFINITION('','NONE',#40,#1);
#24=MANIFOLD_SOLID_BREP('tag_xghb320345_',#41);
#25=AXIS2_PLACEMENT_3D('',#42,#43,#44);
#28=LENGTH_MEASURE_WITH_UNIT(LENGTH_MEASURE(1.0),#45);
#31=DIMENSIONAL_EXPONENTS(1.0,0.0,0.0,0.0,0.0,0.0,0.0);
#33=DIMENSIONAL_EXPONENTS(0.0,0.0,0.0,0.0,0.0,0.0,0.0);
#39=PRODUCT_CONTEXT('',#9,'mechanical');
#40=PRODUCT_DEFINITION_FORMATION_WITH_SPECIFIED_SOURCE(' ','NONE',#22,.NOT_KNOWN.);
#41=CLOSED_SHELL('',(#46,#47,#48,#49,#50,#51,#52,#53,#54,#55,#56,#57));
#42=CARTESIAN_POINT('',(0.0,0.0,0.0));
#43=DIRECTION('',(0.0,0.0,1.0));
#44=DIRECTION('',(1.0,0.0,0.0));
#45= (NAMED_UNIT(#31)LENGTH_UNIT()SI_UNIT(.MILLI.,.METRE.));
#46=ADVANCED_FACE('',(#59),#60,.F.);
#47=ADVANCED_FACE('',(#61),#62,.T.);
#48=ADVANCED_FACE('',(#63),#64,.T.);
#49=ADVANCED_FACE('',(#65),#66,.T.);
#50=ADVANCED_FACE('',(#67),#68,.T.);
#51=ADVANCED_FACE('',(#69,#70),#71,.F.);
#52=ADVANCED_FACE('',(#72),#73,.T.);
#53=ADVANCED_FACE('',(#74),#75,.T.);
#54=ADVANCED_FACE('',(#76),#77,.T.);
#55=ADVANCED_FACE('',(#78),#79,.T.);
#56=ADVANCED_FACE('',(#80,#81),#82,.T.);
#57=ADVANCED_FACE('',(#83),#84,.F.);
#59=FACE_OUTER_BOUND('',#85,.T.);
#60=CYLINDRICAL_SURFACE('',#86,2.5);
#61=FACE_OUTER_BOUND('',#87,.T.);
#62=TOROIDAL_SURFACE('',#88,14.48246877105,0.5);
#63=FACE_OUTER_BOUND('',#89,.T.);
#64=CONICAL_SURFACE('',#90,14.99119630931,0.0174532925199416);
#65=FACE_OUTER_BOUND('',#91,.T.);
#66=CONICAL_SURFACE('',#92,14.99119630931,0.0174532925199416);
#67=FACE_OUTER_BOUND('',#93,.T.);
#68=TOROIDAL_SURFACE('',#94,14.48246877105,0.5);
#69=FACE_OUTER_BOUND('',#95,.T.);
#70=FACE_BOUND('',#96,.T.);
#71=PLANE('',#97);
#72=FACE_OUTER_BOUND('',#98,.T.);
#73=TOROIDAL_SURFACE('',#99,14.48246877105,0.5);
#74=FACE_OUTER_BOUND('',#100,.T.);
#75=CONICAL_SURFACE('',#101,14.99119630931,0.0174532925199416);
#76=FACE_OUTER_BOUND('',#102,.T.);
#77=CONICAL_SURFACE('',#103,14.99119630931,0.0174532925199416);
#78=FACE_OUTER_BOUND('',#104,.T.);
#79=TOROIDAL_SURFACE('',#105,14.48246877105,0.5);
#80=FACE_OUTER_BOUND('',#106,.T.);
#81=FACE_BOUND('',#107,.T.);
#82=PLANE('',#108);
#83=FACE_OUTER_BOUND('',#109,.T.);
#84=CYLINDRICAL_SURFACE('',#110,2.5);
#85=EDGE_LOOP('',(#111,#112,#113,#114));
#86=AXIS2_PLACEMENT_3D('',#115,#116,#117);
#87=EDGE_LOOP('',(#118,#119,#120,#121,#122));
#88=AXIS2_PLACEMENT_3D('',#123,#124,#125);
#89=EDGE_LOOP('',(#126,#127,#128,#129,#130));
#90=AXIS2_PLACEMENT_3D('',#131,#132,#133);
#91=EDGE_LOOP('',(#134,#135,#136,#137,#138));
#92=AXIS2_PLACEMENT_3D('',#139,#140,#141);
#93=EDGE_LOOP('',(#142,#143,#144,#145,#146));
#94=AXIS2_PLACEMENT_3D('',#147,#148,#149);
#95=EDGE_LOOP('',(#150,#151));
#96=EDGE_LOOP('',(#152,#153));
#97=AXIS2_PLACEMENT_3D('',#154,#155,#156);
#98=EDGE_LOOP('',(#157,#158,#159,#160,#161));
#99=AXIS2_PLACEMENT_3D('',#162,#163,#164);
#100=EDGE_LOOP('',(#165,#166,#167,#168,#169));
#101=AXIS2_PLACEMENT_3D('',#170,#171,#172);
#102=EDGE_LOOP('',(#173,#174,#175,#176,#177));
#103=AXIS2_PLACEMENT_3D('',#178,#179,#180);
#104=EDGE_LOOP('',(#181,#182,#183,#184,#185));
#105=AXIS2_PLACEMENT_3D('',#186,#187,#188);
#106=EDGE_LOOP('',(#189,#190));
#107=EDGE_LOOP('',(#191,#192));
#108=AXIS2_PLACEMENT_3D('',#193,#194,#195);
#109=EDGE_LOOP('',(#196,#197,#198,#199));
#110=AXIS2_PLACEMENT_3D('',#200,#201,#202);
#111=ORIENTED_EDGE('',*,*,#203,.F.);
#112=ORIENTED_EDGE('',*,*,#204,.T.);
#113=ORIENTED_EDGE('',*,*,#205,.F.);
#114=ORIENTED_EDGE('',*,*,#206,.T.);
#115=CARTESIAN_POINT('',(0.0,-1.5,0.0));
#116=DIRECTION('',(0.0,-1.0,0.0));
#117=DIRECTION('',(1.0,0.0,0.0));
#118=ORIENTED_EDGE('',*,*,#207,.F.);
#119=ORIENTED_EDGE('',*,*,#208,.F.);
#120=ORIENTED_EDGE('',*,*,#209,.F.);
#121=ORIENTED_EDGE('',*,*,#210,.F.);
#122=ORIENTED_EDGE('',*,*,#211,.T.);
#123=CARTESIAN_POINT('',(0.0,1.0,0.0));
#124=DIRECTION('',(-0.0,1.0,0.0));
#125=DIRECTION('',(0.999990479035498,0.0,0.00436369549287199));
#126=ORIENTED_EDGE('',*,*,#212,.F.);
#127=ORIENTED_EDGE('',*,*,#213,.T.);
#128=ORIENTED_EDGE('',*,*,#209,.T.);
#129=ORIENTED_EDGE('',*,*,#214,.F.);
#130=ORIENTED_EDGE('',*,*,#215,.F.);
#131=CARTESIAN_POINT('',(0.0,0.504363101842,0.0));
#132=DIRECTION('',(-0.0,-1.0,0.0));
#133=DIRECTION('',(-1.0,0.0,0.0));
#134=ORIENTED_EDGE('',*,*,#216,.F.);
#135=ORIENTED_EDGE('',*,*,#217,.T.);
#136=ORIENTED_EDGE('',*,*,#218,.T.);
#137=ORIENTED_EDGE('',*,*,#219,.F.);
#138=ORIENTED_EDGE('',*,*,#215,.T.);
#139=CARTESIAN_POINT('',(0.0,-0.5043631018419,0.0));
#140=DIRECTION('',(-0.0,1.0,-0.0));
#141=DIRECTION('',(1.0,0.0,0.0));
#142=ORIENTED_EDGE('',*,*,#220,.F.);
#143=ORIENTED_EDGE('',*,*,#221,.T.);
#144=ORIENTED_EDGE('',*,*,#222,.F.);
#145=ORIENTED_EDGE('',*,*,#217,.F.);
#146=ORIENTED_EDGE('',*,*,#223,.F.);
#147=CARTESIAN_POINT('',(0.0,-1.0,0.0));
#148=DIRECTION('',(0.0,1.0,0.0));
#149=DIRECTION('',(-0.999980786930965,0.0,0.00619885222672278));
#150=ORIENTED_EDGE('',*,*,#224,.F.);
#151=ORIENTED_EDGE('',*,*,#221,.F.);
#152=ORIENTED_EDGE('',*,*,#225,.F.);
#153=ORIENTED_EDGE('',*,*,#206,.F.);
#154=CARTESIAN_POINT('',(0.0,-1.5,0.0));
#155=DIRECTION('',(-0.0,1.0,0.0));
#156=DIRECTION('',(1.0,0.0,0.0));
#157=ORIENTED_EDGE('',*,*,#220,.T.);
#158=ORIENTED_EDGE('',*,*,#226,.F.);
#159=ORIENTED_EDGE('',*,*,#218,.F.);
#160=ORIENTED_EDGE('',*,*,#222,.T.);
#161=ORIENTED_EDGE('',*,*,#224,.T.);
#162=CARTESIAN_POINT('',(0.0,-1.0,0.0));
#163=DIRECTION('',(0.0,1.0,0.0));
#164=DIRECTION('',(-0.999980786930965,0.0,0.00619885222672278));
#165=ORIENTED_EDGE('',*,*,#216,.T.);
#166=ORIENTED_EDGE('',*,*,#227,.T.);
#167=ORIENTED_EDGE('',*,*,#219,.T.);
#168=ORIENTED_EDGE('',*,*,#226,.T.);
#169=ORIENTED_EDGE('',*,*,#223,.T.);
#170=CARTESIAN_POINT('',(0.0,-0.5043631018419,0.0));
#171=DIRECTION('',(-0.0,1.0,-0.0));
#172=DIRECTION('',(1.0,0.0,0.0));
#173=ORIENTED_EDGE('',*,*,#212,.T.);
#174=ORIENTED_EDGE('',*,*,#227,.F.);
#175=ORIENTED_EDGE('',*,*,#214,.T.);
#176=ORIENTED_EDGE('',*,*,#208,.T.);
#177=ORIENTED_EDGE('',*,*,#228,.T.);
#178=CARTESIAN_POINT('',(0.0,0.504363101842,0.0));
#179=DIRECTION('',(-0.0,-1.0,0.0));
#180=DIRECTION('',(-1.0,0.0,0.0));
#181=ORIENTED_EDGE('',*,*,#207,.T.);
#182=ORIENTED_EDGE('',*,*,#229,.T.);
#183=ORIENTED_EDGE('',*,*,#210,.T.);
#184=ORIENTED_EDGE('',*,*,#213,.F.);
#185=ORIENTED_EDGE('',*,*,#228,.F.);
#186=CARTESIAN_POINT('',(0.0,1.0,0.0));
#187=DIRECTION('',(-0.0,1.0,0.0));
#188=DIRECTION('',(0.999990479035498,0.0,0.00436369549287199));
#189=ORIENTED_EDGE('',*,*,#229,.F.);
#190=ORIENTED_EDGE('',*,*,#211,.F.);
#191=ORIENTED_EDGE('',*,*,#230,.F.);
#192=ORIENTED_EDGE('',*,*,#204,.F.);
#193=CARTESIAN_POINT('',(0.0,1.5,0.0));
#194=DIRECTION('',(-0.0,1.0,0.0));
#195=DIRECTION('',(1.0,0.0,0.0));
#196=ORIENTED_EDGE('',*,*,#203,.T.);
#197=ORIENTED_EDGE('',*,*,#225,.T.);
#198=ORIENTED_EDGE('',*,*,#205,.T.);
#199=ORIENTED_EDGE('',*,*,#230,.T.);
#200=CARTESIAN_POINT('',(0.0,-1.5,0.0));
#201=DIRECTION('',(0.0,-1.0,0.0));
#202=DIRECTION('',(1.0,0.0,0.0));
#203=EDGE_CURVE('',#231,#232,#233,.T.);
#204=EDGE_CURVE('',#231,#234,#235,.T.);
#205=EDGE_CURVE('',#236,#234,#237,.T.);
#206=EDGE_CURVE('',#236,#232,#238,.T.);
#207=EDGE_CURVE('',#239,#240,#241,.T.);
#208=EDGE_CURVE('',#242,#239,#243,.T.);
#209=EDGE_CURVE('',#244,#242,#245,.T.);
#210=EDGE_CURVE('',#246,#244,#247,.T.);
#211=EDGE_CURVE('',#246,#240,#248,.T.);
#212=EDGE_CURVE('',#249,#250,#251,.T.);
#213=EDGE_CURVE('',#249,#244,#252,.T.);
#214=EDGE_CURVE('',#253,#242,#254,.T.);
#215=EDGE_CURVE('',#250,#253,#255,.T.);
#216=EDGE_CURVE('',#256,#253,#257,.T.);
#217=EDGE_CURVE('',#256,#258,#259,.T.);
#218=EDGE_CURVE('',#258,#260,#261,.T.);
#219=EDGE_CURVE('',#250,#260,#262,.T.);
#220=EDGE_CURVE('',#263,#264,#265,.T.);
#221=EDGE_CURVE('',#263,#266,#267,.T.);
#222=EDGE_CURVE('',#258,#266,#268,.T.);
#223=EDGE_CURVE('',#264,#256,#269,.T.);
#224=EDGE_CURVE('',#266,#263,#270,.T.);
#225=EDGE_CURVE('',#232,#236,#271,.T.);
#226=EDGE_CURVE('',#260,#264,#272,.T.);
#227=EDGE_CURVE('',#253,#250,#273,.T.);
#228=EDGE_CURVE('',#239,#249,#274,.T.);
#229=EDGE_CURVE('',#240,#246,#275,.T.);
#230=EDGE_CURVE('',#234,#231,#276,.T.);
#231=VERTEX_POINT('',#277);
#232=VERTEX_POINT('',#278);
#233=LINE('',#279,#280);
#234=VERTEX_POINT('',#281);
#235=CIRCLE('',#282,2.5);
#236=VERTEX_POINT('',#283);
#237=LINE('',#284,#285);
#238=CIRCLE('',#286,2.5);
#239=VERTEX_POINT('',#287);
#240=VERTEX_POINT('',#288);
#241=CIRCLE('',#289,0.5);
#242=VERTEX_POINT('',#290);
#243=CIRCLE('',#291,14.98239261862);
#244=VERTEX_POINT('',#292);
#245=CIRCLE('',#293,14.98239261862);
#246=VERTEX_POINT('',#294);
#247=CIRCLE('',#295,0.5);
#248=CIRCLE('',#296,14.48246874639);
#249=VERTEX_POINT('',#297);
#250=VERTEX_POINT('',#298);
#251=LINE('',#299,#300);
#252=CIRCLE('',#301,14.98239261862);
#253=VERTEX_POINT('',#302);
#254=LINE('',#303,#304);
#255=CIRCLE('',#305,15.0);
#256=VERTEX_POINT('',#306);
#257=LINE('',#307,#308);
#258=VERTEX_POINT('',#309);
#259=CIRCLE('',#310,14.98239261862);
#260=VERTEX_POINT('',#311);
#261=CIRCLE('',#312,14.98239261862);
#262=LINE('',#313,#314);
#263=VERTEX_POINT('',#315);
#264=VERTEX_POINT('',#316);
#265=CIRCLE('',#317,0.5);
#266=VERTEX_POINT('',#318);
#267=CIRCLE('',#319,14.48246874638);
#268=CIRCLE('',#320,0.5);
#269=CIRCLE('',#321,14.98239261862);
#270=CIRCLE('',#322,14.48246874638);
#271=CIRCLE('',#323,2.5);
#272=CIRCLE('',#324,14.98239261862);
#273=CIRCLE('',#325,15.0);
#274=CIRCLE('',#326,14.98239261862);
#275=CIRCLE('',#327,14.48246874639);
#276=CIRCLE('',#328,2.5);
#277=CARTESIAN_POINT('',(2.5,1.5,-3.06151588455594E-16));
#278=CARTESIAN_POINT('',(2.5,-1.5,0.0));
#279=CARTESIAN_POINT('',(2.5,-1.5,-3.06151588455594E-16));
#280=VECTOR('',#329,1.0);
#281=CARTESIAN_POINT('',(-2.5,1.5,0.0));
#282=AXIS2_PLACEMENT_3D('',#330,#331,#332);
#283=CARTESIAN_POINT('',(-2.5,-1.5,3.06151588455594E-16));
#284=CARTESIAN_POINT('',(-2.5,-1.5,3.06151588455594E-16));
#285=VECTOR('',#333,1.0);
#286=AXIS2_PLACEMENT_3D('',#334,#335,#336);
#287=CARTESIAN_POINT('',(14.98224997179,1.008726203684,0.06537859914231));
#288=CARTESIAN_POINT('',(14.48233086023,1.5,0.06319687586823));
#289=AXIS2_PLACEMENT_3D('',#337,#338,#339);
#290=CARTESIAN_POINT('',(14.98239261862,1.008726203684,1.83475331962235E-15));
#291=AXIS2_PLACEMENT_3D('',#340,#341,#342);
#292=CARTESIAN_POINT('',(-14.9822499717917,1.008726203684,-0.0653785991423125));
#293=AXIS2_PLACEMENT_3D('',#343,#344,#345);
#294=CARTESIAN_POINT('',(-14.4823308593192,1.5,-0.0631970835942833));
#295=AXIS2_PLACEMENT_3D('',#346,#347,#348);
#296=AXIS2_PLACEMENT_3D('',#349,#350,#351);
#297=CARTESIAN_POINT('',(-14.98239261862,1.008726203684,-1.83475331962235E-15));
#298=CARTESIAN_POINT('',(-15.0,3.410605131648E-13,0.0));
#299=CARTESIAN_POINT('',(-14.99119630931,0.504363101842,-1.83583142517796E-15));
#300=VECTOR('',#352,1.0);
#301=AXIS2_PLACEMENT_3D('',#353,#354,#355);
#302=CARTESIAN_POINT('',(15.0,3.41060513164848E-13,-1.83690953073357E-15));
#303=CARTESIAN_POINT('',(14.99119630931,0.504363101842,1.83583142517796E-15));
#304=VECTOR('',#356,1.0);
#305=AXIS2_PLACEMENT_3D('',#357,#358,#359);
#306=CARTESIAN_POINT('',(14.98239261862,-1.008726203684,0.0));
#307=CARTESIAN_POINT('',(14.99119630931,-0.5043631018419,-1.83583142517796E-15));
#308=VECTOR('',#360,1.0);
#309=CARTESIAN_POINT('',(14.9821047608763,-1.008726203684,-0.0928736378455657));
#310=AXIS2_PLACEMENT_3D('',#361,#362,#363);
#311=CARTESIAN_POINT('',(-14.98239261862,-1.008726203684,1.83475331962235E-15));
#312=AXIS2_PLACEMENT_3D('',#364,#365,#366);
#313=CARTESIAN_POINT('',(-14.99119630931,-0.5043631018419,1.83583142517796E-15));
#314=VECTOR('',#367,1.0);
#315=CARTESIAN_POINT('',(-14.4821904937082,-1.5,0.089774683636939));
#316=CARTESIAN_POINT('',(-14.9821047608763,-1.008726203684,0.0928736378455657));
#317=AXIS2_PLACEMENT_3D('',#368,#369,#370);
#318=CARTESIAN_POINT('',(14.4821904974,-1.5,-0.08977408816979));
#319=AXIS2_PLACEMENT_3D('',#371,#372,#373);
#320=AXIS2_PLACEMENT_3D('',#374,#375,#376);
#321=AXIS2_PLACEMENT_3D('',#377,#378,#379);
#322=AXIS2_PLACEMENT_3D('',#380,#381,#382);
#323=AXIS2_PLACEMENT_3D('',#383,#384,#385);
#324=AXIS2_PLACEMENT_3D('',#386,#387,#388);
#325=AXIS2_PLACEMENT_3D('',#389,#390,#391);
#326=AXIS2_PLACEMENT_3D('',#392,#393,#394);
#327=AXIS2_PLACEMENT_3D('',#395,#396,#397);
#328=AXIS2_PLACEMENT_3D('',#398,#399,#400);
#329=DIRECTION('',(-0.0,-1.0,0.0));
#330=CARTESIAN_POINT('',(0.0,1.5,0.0));
#331=DIRECTION('',(0.0,1.0,0.0));
#332=DIRECTION('',(-1.0,0.0,0.0));
#333=DIRECTION('',(-0.0,1.0,0.0));
#334=CARTESIAN_POINT('',(0.0,-1.5,0.0));
#335=DIRECTION('',(0.0,-1.0,0.0));
#336=DIRECTION('',(1.0,0.0,0.0));
#337=CARTESIAN_POINT('',(14.4823308839789,1.0,0.063197083701892));
#338=DIRECTION('',(-0.00436369549287212,-0.0,0.999990479035498));
#339=DIRECTION('',(0.999990479035498,0.0,0.00436369549287212));
#340=CARTESIAN_POINT('',(0.0,1.008726203684,0.0));
#341=DIRECTION('',(0.0,-1.0,-0.0));
#342=DIRECTION('',(-0.999990479035498,0.0,-0.00436369549287199));
#343=CARTESIAN_POINT('',(0.0,1.008726203684,0.0));
#344=DIRECTION('',(0.0,-1.0,-0.0));
#345=DIRECTION('',(-0.999990479035498,0.0,-0.00436369549287199));
#346=CARTESIAN_POINT('',(-14.4823308839789,1.0,-0.063197083701892));
#347=DIRECTION('',(-0.00436369549287212,-0.0,0.999990479035498));
#348=DIRECTION('',(-0.999990479035498,0.0,-0.00436369549287212));
#349=CARTESIAN_POINT('',(0.0,1.5,0.0));
#350=DIRECTION('',(0.0,-1.0,-0.0));
#351=DIRECTION('',(-0.999990479098088,0.0,-0.00436368114959495));
#352=DIRECTION('',(-0.0174524064372818,-0.999847695156391,-2.13723278125858E-18));
#353=CARTESIAN_POINT('',(0.0,1.008726203684,0.0));
#354=DIRECTION('',(0.0,-1.0,-0.0));
#355=DIRECTION('',(-0.999990479035498,0.0,-0.00436369549287199));
#356=DIRECTION('',(-0.0174524064372818,0.999847695156391,-2.13723278125858E-18));
#357=CARTESIAN_POINT('',(0.0,3.410605131648E-13,0.0));
#358=DIRECTION('',(0.0,-1.0,0.0));
#359=DIRECTION('',(1.0,0.0,1.320021161559E-14));
#360=DIRECTION('',(0.0174524064372818,0.999847695156391,-2.13723278125858E-18));
#361=CARTESIAN_POINT('',(0.0,-1.008726203684,0.0));
#362=DIRECTION('',(-0.0,1.0,0.0));
#363=DIRECTION('',(1.0,0.0,0.0));
#364=CARTESIAN_POINT('',(0.0,-1.008726203684,0.0));
#365=DIRECTION('',(-0.0,1.0,0.0));
#366=DIRECTION('',(1.0,0.0,0.0));
#367=DIRECTION('',(0.0174524064372818,-0.999847695156391,-2.13723278125858E-18));
#368=CARTESIAN_POINT('',(-14.4821905183777,-1.0,0.0897746837898647));
#369=DIRECTION('',(-0.00619885222672266,0.0,-0.999980786930965));
#370=DIRECTION('',(-0.999980786930965,-0.0,0.00619885222672266));
#371=CARTESIAN_POINT('',(0.0,-1.5,0.0));
#372=DIRECTION('',(0.0,1.0,0.0));
#373=DIRECTION('',(0.999980787185843,0.0,-0.00619881111031127));
#374=CARTESIAN_POINT('',(14.4821905183777,-1.0,-0.0897746837898647));
#375=DIRECTION('',(-0.00619885222672266,0.0,-0.999980786930965));
#376=DIRECTION('',(0.999980786930965,0.0,-0.00619885222672266));
#377=CARTESIAN_POINT('',(0.0,-1.008726203684,0.0));
#378=DIRECTION('',(-0.0,1.0,0.0));
#379=DIRECTION('',(1.0,0.0,0.0));
#380=CARTESIAN_POINT('',(0.0,-1.5,0.0));
#381=DIRECTION('',(0.0,1.0,0.0));
#382=DIRECTION('',(0.999980787185843,0.0,-0.00619881111031127));
#383=CARTESIAN_POINT('',(0.0,-1.5,0.0));
#384=DIRECTION('',(0.0,-1.0,0.0));
#385=DIRECTION('',(1.0,0.0,0.0));
#386=CARTESIAN_POINT('',(0.0,-1.008726203684,0.0));
#387=DIRECTION('',(-0.0,1.0,0.0));
#388=DIRECTION('',(1.0,0.0,0.0));
#389=CARTESIAN_POINT('',(0.0,3.410605131648E-13,0.0));
#390=DIRECTION('',(0.0,-1.0,0.0));
#391=DIRECTION('',(1.0,0.0,1.320021161559E-14));
#392=CARTESIAN_POINT('',(0.0,1.008726203684,0.0));
#393=DIRECTION('',(0.0,-1.0,-0.0));
#394=DIRECTION('',(-0.999990479035498,0.0,-0.00436369549287199));
#395=CARTESIAN_POINT('',(0.0,1.5,0.0));
#396=DIRECTION('',(0.0,-1.0,-0.0));
#397=DIRECTION('',(-0.999990479098088,0.0,-0.00436368114959495));
#398=CARTESIAN_POINT('',(0.0,1.5,0.0));
#399=DIRECTION('',(0.0,1.0,0.0));
#400=DIRECTION('',(-1.0,0.0,0.0));
ENDSEC;
END-ISO-10303-21;
