999
DXF file: C:\Users\sesa63760\Dev\_Creo\CAD\MCADID0003947_3D-CAD\drw0001_5.dxf
999
Pro/ENGINEER 2019471 by Parametric Technology Corporation
  0
SECTION
  2
HEADER
  9
$ACADVER
  1
AC1024
  9
$DWGCODEPAGE
  3
ANSI_1252
  9
$EXTMAX
 10
68.7171056975
 20
97.185620915
 30
0.0
  9
$EXTMIN
 10
0.0
 20
0.0
 30
0.0
  9
$LIMMIN
 10
0.0
 20
0.0
  9
$LIMMAX
 10
68.7171056975
 20
97.185620915
  9
$VIEWCTR
 10
34.3585528487
 20
48.5928104575
  9
$VIEWSIZE
 40
97.185620915
  9
$CLAYER
  8
0
  9
$LTSCALE
 40
6.3350626967
  9
$CELTYPE
  6
BYLAYER
  9
$DIMSCALE
 40
1.0
  9
$DIMASZ
 40
0.8180607821
  9
$DIMEXO
 40
1.0
  9
$DIMDLI
 40
4.3769524086
  9
$DIMEXE
 40
1.0
  9
$DIMCEN
 40
1.0366466231
  9
$DIMLFAC
 40
1.0
  9
$DIMBLK
  1
_FILLED
  9
$DIMALT
 70
0
  9
$DIMALTF
 40
0.0393700787
  9
$DIMTXT
 40
1.145285095
  9
$DIMTOL
 70
1
  9
$DIMLIM
 70
0
  9
$DIMTFAC
 40
1.0
  9
$DIMTP
 40
0.01
  9
$DIMTM
 40
0.01
  9
$DIMGAP
 40
0.625
  9
$DIMDSEP
 70
46
  9
$AUNITS
 70
0
  9
$PDMODE
 70
3
  9
$PDSIZE
 40
0.3125
  9
$HANDSEED
  5
29A
  9
$TILEMODE
 70
1
  9
$MEASUREMENT
 70
1
  9
$INSUNITS
 70
4
  0
ENDSEC
  0
SECTION
  2
CLASSES
  0
CLASS
  1
ACDBDICTIONARYWDFLT
  2
AcDbDictionaryWithDefault
  3
AutoCAD 2000
 90
0
 91
1
280
0
281
0
  0
CLASS
  1
ACDBPLACEHOLDER
  2
AcDbPlaceHolder
  3
AutoCAD 2000
 90
0
 91
1
280
0
281
0
  0
CLASS
  1
LAYOUT
  2
AcDbLayout
  3
AutoCAD 2000
 90
0
 91
0
280
0
281
0
  0
ENDSEC
  0
SECTION
  2
TABLES
  0
TABLE
  2
VPORT
  5
8
100
AcDbSymbolTable
 70
2
  0
VPORT
  5
1F4
100
AcDbSymbolTableRecord
100
AcDbViewportTableRecord
  2
*ACTIVE
 70
0
 10
0.0
 20
0.0
 11
1.0
 21
1.0
 12
34.3585528487
 22
48.5928104575
 13
0.0
 23
0.0
 14
1.0
 24
1.0
 15
0.0
 25
0.0
 16
0.0
 26
0.0
 36
1.0
 17
0.0
 27
0.0
 37
0.0
 40
97.185620915
 41
0.7070707071
 42
50.0
 43
0.0
 44
0.0
 50
0.0
 51
0.0
 71
0
 72
100
 73
1
 74
1
 75
0
 76
0
 77
0
 78
0
  0
ENDTAB
  0
TABLE
  2
LTYPE
  5
5
100
AcDbSymbolTable
 70
6
  0
LTYPE
  5
14
100
AcDbSymbolTableRecord
100
AcDbLinetypeTableRecord
  2
BYBLOCK
 70
0
  3

 72
65
 73
0
 40
0.0
  0
LTYPE
  5
15
100
AcDbSymbolTableRecord
100
AcDbLinetypeTableRecord
  2
BYLAYER
 70
0
  3

 72
65
 73
0
 40
0.0
  0
LTYPE
  5
16
100
AcDbSymbolTableRecord
100
AcDbLinetypeTableRecord
  2
CONTINUOUS
 70
64
  3
Solid line
 72
65
 73
0
 40
0.0
  0
LTYPE
  5
1F5
100
AcDbSymbolTableRecord
100
AcDbLinetypeTableRecord
  2
CENTER
 70
64
  3
____ _ ____ _ ____ _ ____ _ ____ _ ____ _ ____
 72
65
 73
4
 40
0.6
 49
0.375
 74
0
 49
-0.075
 74
0
 49
0.075
 74
0
 49
-0.075
 74
0
  0
LTYPE
  5
1F6
100
AcDbSymbolTableRecord
100
AcDbLinetypeTableRecord
  2
HIDDEN
 70
64
  3
- - - - - - - - - - - - - - - - - - - -
 72
65
 73
2
 40
0.2
 49
0.1
 74
0
 49
-0.1
 74
0
  0
LTYPE
  5
1F7
100
AcDbSymbolTableRecord
100
AcDbLinetypeTableRecord
  2
PHANTOM
 70
64
  3
_____ _ _ _____ _ _ _____ _ _ _____
 72
65
 73
6
 40
0.8
 49
0.45
 74
0
 49
-0.05
 74
0
 49
0.1
 74
0
 49
-0.05
 74
0
 49
0.1
 74
0
 49
-0.05
 74
0
  0
LTYPE
  5
1F8
100
AcDbSymbolTableRecord
100
AcDbLinetypeTableRecord
  2
DOT
 70
64
  3
. . . . . . . . . . . . . . . . . . . .
 72
65
 73
2
 40
0.2
 49
0.1
 74
0
 49
-0.1
 74
0
  0
LTYPE
  5
1F9
100
AcDbSymbolTableRecord
100
AcDbLinetypeTableRecord
  2
DASHED
 70
64
  3
- - - - - - - - - - - - - - - - - - - -
 72
65
 73
2
 40
0.2
 49
0.1
 74
0
 49
-0.1
 74
0
  0
ENDTAB
  0
TABLE
  2
LAYER
  5
2
100
AcDbSymbolTable
 70
36
  0
LAYER
  5
10
100
AcDbSymbolTableRecord
100
AcDbLayerTableRecord
  2
0
 70
0
 62
7
  6
CONTINUOUS
370
-3
390
F
  0
LAYER
  5
1FA
100
AcDbSymbolTableRecord
100
AcDbLayerTableRecord
  2
DEFAULT_1
 70
0
 62
7
  6
CENTER
370
-3
390
F
  0
LAYER
  5
1FB
100
AcDbSymbolTableRecord
100
AcDbLayerTableRecord
  2
DEFAULT_2
 70
0
 62
7
  6
HIDDEN
370
-3
390
F
  0
LAYER
  5
1FC
100
AcDbSymbolTableRecord
100
AcDbLayerTableRecord
  2
DEFAULT_3
 70
0
 62
7
  6
PHANTOM
370
-3
390
F
  0
LAYER
  5
1FD
100
AcDbSymbolTableRecord
100
AcDbLayerTableRecord
  2
00_COMPONENTS
 70
0
 62
7
  6
CONTINUOUS
370
-3
390
F
  0
LAYER
  5
1FE
100
AcDbSymbolTableRecord
100
AcDbLayerTableRecord
  2
01_1_DEFAULT_DATUMS
 70
0
 62
7
  6
CONTINUOUS
370
-3
390
F
  0
LAYER
  5
1FF
100
AcDbSymbolTableRecord
100
AcDbLayerTableRecord
  2
01_PLANES
 70
0
 62
7
  6
CONTINUOUS
370
-3
390
F
  0
LAYER
  5
200
100
AcDbSymbolTableRecord
100
AcDbLayerTableRecord
  2
02_COORD_SYS
 70
0
 62
7
  6
CONTINUOUS
370
-3
390
F
  0
LAYER
  5
201
100
AcDbSymbolTableRecord
100
AcDbLayerTableRecord
  2
03_AXES
 70
0
 62
7
  6
CONTINUOUS
370
-3
390
F
  0
LAYER
  5
202
100
AcDbSymbolTableRecord
100
AcDbLayerTableRecord
  2
04_POINTS
 70
0
 62
7
  6
CONTINUOUS
370
-3
390
F
  0
LAYER
  5
203
100
AcDbSymbolTableRecord
100
AcDbLayerTableRecord
  2
05_CURVES
 70
0
 62
7
  6
CONTINUOUS
370
-3
390
F
  0
LAYER
  5
204
100
AcDbSymbolTableRecord
100
AcDbLayerTableRecord
  2
06_SURFS
 70
0
 62
7
  6
CONTINUOUS
370
-3
390
F
  0
LAYER
  5
205
100
AcDbSymbolTableRecord
100
AcDbLayerTableRecord
  2
07_COSMETICS
 70
0
 62
7
  6
CONTINUOUS
370
-3
390
F
  0
LAYER
  5
206
100
AcDbSymbolTableRecord
100
AcDbLayerTableRecord
  2
10_NOTES
 70
0
 62
7
  6
CONTINUOUS
370
-3
390
F
  0
LAYER
  5
207
100
AcDbSymbolTableRecord
100
AcDbLayerTableRecord
  2
11_NOTES_PUB
 70
0
 62
7
  6
CONTINUOUS
370
-3
390
F
  0
LAYER
  5
208
100
AcDbSymbolTableRecord
100
AcDbLayerTableRecord
  2
13_REF_GTOL
 70
0
 62
7
  6
CONTINUOUS
370
-3
390
F
  0
LAYER
  5
209
100
AcDbSymbolTableRecord
100
AcDbLayerTableRecord
  2
16_MISC
 70
0
 62
7
  6
CONTINUOUS
370
-3
390
F
  0
LAYER
  5
20A
100
AcDbSymbolTableRecord
100
AcDbLayerTableRecord
  2
17_NO_PRINT
 70
0
 62
7
  6
CONTINUOUS
370
-3
390
F
  0
LAYER
  5
20B
100
AcDbSymbolTableRecord
100
AcDbLayerTableRecord
  2
18_DATUM_CAMS_JOINTS
 70
0
 62
7
  6
CONTINUOUS
370
-3
390
F
  0
LAYER
  5
20C
100
AcDbSymbolTableRecord
100
AcDbLayerTableRecord
  2
19_DATUM_FUNCTIONAL
 70
0
 62
7
  6
CONTINUOUS
370
-3
390
F
  0
LAYER
  5
20D
100
AcDbSymbolTableRecord
100
AcDbLayerTableRecord
  2
20_DATUM_KINEMATIC_SCHEME
 70
0
 62
7
  6
CONTINUOUS
370
-3
390
F
  0
ENDTAB
  0
TABLE
  2
STYLE
  5
3
100
AcDbSymbolTable
 70
1
  0
STYLE
  5
11
100
AcDbSymbolTableRecord
100
AcDbTextStyleTableRecord
  2
STANDARD
 70
0
 40
0.0
 41
1.0
 50
0.0
 71
0
 42
0.2
  3
ARIAL.TTF
  4

  0
STYLE
  5
20E
100
AcDbSymbolTableRecord
100
AcDbTextStyleTableRecord
  2
TEXTSTYLE_1
 70
0
 40
0.0
 41
0.8
 50
0.0
 71
0
 42
0.2
  3
gdt
  4

  0
ENDTAB
  0
TABLE
  2
VIEW
  5
6
100
AcDbSymbolTable
 70
0
  0
ENDTAB
  0
TABLE
  2
UCS
  5
7
100
AcDbSymbolTable
 70
0
  0
ENDTAB
  0
TABLE
  2
APPID
  5
9
100
AcDbSymbolTable
 70
1
  0
APPID
  5
20F
100
AcDbSymbolTableRecord
100
AcDbRegAppTableRecord
  2
ACAD
 70
0
  0
ENDTAB
  0
TABLE
  2
BLOCK_RECORD
  5
1
100
AcDbSymbolTable
 70
0
  0
BLOCK_RECORD
  5
210
100
AcDbSymbolTableRecord
100
AcDbBlockTableRecord
  2
*Model_Space
  0
BLOCK_RECORD
  5
211
100
AcDbSymbolTableRecord
100
AcDbBlockTableRecord
  2
*Paper_Space
  0
BLOCK_RECORD
  5
212
100
AcDbSymbolTableRecord
100
AcDbBlockTableRecord
  2
_FILLED
  0
ENDTAB
  0
TABLE
  2
DIMSTYLE
  5
A
100
AcDbSymbolTable
 70
1
100
AcDbDimStyleTable
 71
0
  0
DIMSTYLE
105
213
100
AcDbSymbolTableRecord
100
AcDbDimStyleTableRecord
  2
STANDARD
 70
0
  3

  4

 40
1.0
 41
0.8180607821
 42
1.0
 43
0.38
 44
1.0
 45
0.0
 46
0.0
 47
0.01
 48
0.01
140
1.145285095
141
0.09
142
0.0
143
25.4
144
1.0
145
0.0
146
1.0
147
0.625
 71
1
 72
0
 73
0
 74
0
 75
0
 76
0
 77
1
 78
8
 79
2
170
0
171
1
172
0
173
0
174
0
175
0
176
0
177
0
178
0
270
2
179
2
271
2
272
2
273
2
274
2
275
0
280
0
281
0
282
0
283
1
284
8
285
0
286
0
287
3
288
0
340
11
278
46
341
212
342
212
343
212
344
212
  0
ENDTAB
  0
ENDSEC
  0
SECTION
  2
BLOCKS
  0
BLOCK
  5
20
100
AcDbEntity
  8
0
100
AcDbBlockBegin
  2
*Model_Space
 70
0
 10
0.0
 20
0.0
 30
0.0
  3
*Model_Space
  1

  0
ENDBLK
  5
21
100
AcDbEntity
  8
0
100
AcDbBlockEnd
  0
BLOCK
  5
1C
100
AcDbEntity
  8
0
100
AcDbBlockBegin
  2
*Paper_Space
 70
0
 10
0.0
 20
0.0
 30
0.0
  3
*Paper_Space
  1

  0
ENDBLK
  5
1D
100
AcDbEntity
  8
0
100
AcDbBlockEnd
  0
BLOCK
  5
214
100
AcDbEntity
  8
0
100
AcDbBlockBegin
  2
_FILLED
 70
64
 10
0.0
 20
0.0
  3
_FILLED
  1

  0
SOLID
  5
215
100
AcDbEntity
  8
0
  6
BYBLOCK
 62
0
100
AcDbTrace
 10
0.0
 20
0.0
 11
-1.0
 21
0.25
 12
-1.0
 22
-0.25
 13
-1.0
 23
-0.25
  0
ENDBLK
  5
216
100
AcDbEntity
  8
0
  6
BYBLOCK
 62
0
100
AcDbBlockEnd
  0
ENDSEC
  0
SECTION
  2
ENTITIES
  0
LINE
  5
217
100
AcDbEntity
  8
0
100
AcDbLine
 62
7
  6
BYLAYER
 10
8.0101868357
 20
40.6617668307
 11
8.0101868357
 21
56.7617624284
  0
LINE
  5
218
100
AcDbEntity
  8
0
100
AcDbLine
 62
7
  6
BYLAYER
 10
8.2101868357
 20
40.5117647059
 11
8.2101868357
 21
56.9117647059
  0
LINE
  5
219
100
AcDbEntity
  8
0
100
AcDbLine
 62
7
  6
BYLAYER
 10
16.0101868357
 20
39.911753689
 11
16.0101868357
 21
57.5116759739
  0
LINE
  5
21A
100
AcDbEntity
  8
0
100
AcDbLine
 62
7
  6
BYLAYER
 10
16.2101868357
 20
39.7117647059
 11
16.2101868357
 21
57.7117647059
  0
LINE
  5
21B
100
AcDbEntity
  8
0
100
AcDbLine
 62
7
  6
BYLAYER
 10
16.0101868357
 20
57.5117647059
 11
16.2101868357
 21
57.7117647059
  0
LINE
  5
21C
100
AcDbEntity
  8
0
100
AcDbLine
 62
7
  6
BYLAYER
 10
16.0101868357
 20
39.9117647059
 11
16.2101868357
 21
39.7117647059
  0
LINE
  5
21D
100
AcDbEntity
  8
0
100
AcDbLine
 62
7
  6
BYLAYER
 10
20.0101868357
 20
60.7117647059
 11
20.457368974
 21
62.3806711665
  0
LINE
  5
21E
100
AcDbEntity
  8
0
100
AcDbLine
 62
7
  6
BYLAYER
 10
20.0101868357
 20
36.7117647059
 11
20.457368974
 21
35.0428582453
  0
LINE
  5
21F
100
AcDbEntity
  8
0
100
AcDbLine
 62
7
  6
BYLAYER
 10
20.0101868357
 20
36.7117687542
 11
20.0101868357
 21
60.7117606576
  0
LINE
  5
220
100
AcDbEntity
  8
0
100
AcDbLine
 62
7
  6
BYLAYER
 10
23.552296879
 20
35.0053582453
 11
20.4680767916
 21
35.0053582453
  0
LINE
  5
221
100
AcDbEntity
  8
0
100
AcDbLine
 62
7
  6
BYLAYER
 10
28.4680767646
 20
35.0053582453
 11
31.5522969068
 21
35.0053582453
  0
LINE
  5
222
100
AcDbEntity
  8
0
100
AcDbLine
 62
7
  6
BYLAYER
 10
23.5779058618
 20
35.1053582453
 11
20.4424678095
 21
35.1053582453
  0
LINE
  5
223
100
AcDbEntity
  8
0
100
AcDbLine
 62
7
  6
BYLAYER
 10
28.4424678708
 20
35.1053582453
 11
31.5779058006
 21
35.1053582453
  0
LINE
  5
224
100
AcDbEntity
  8
0
100
AcDbLine
 62
7
  6
BYLAYER
 10
24.0101868357
 20
60.7117606576
 11
24.0101868357
 21
36.7117687542
  0
LINE
  5
225
100
AcDbEntity
  8
0
100
AcDbLine
 62
7
  6
BYLAYER
 10
28.0101868357
 20
60.7117647059
 11
28.457368974
 21
62.3806711665
  0
LINE
  5
226
100
AcDbEntity
  8
0
100
AcDbLine
 62
7
  6
BYLAYER
 10
28.0101868357
 20
36.7117647059
 11
28.457368974
 21
35.0428582453
  0
LINE
  5
227
100
AcDbEntity
  8
0
100
AcDbLine
 62
7
  6
BYLAYER
 10
50.4449164712
 20
42.4087059294
 11
47.9101868357
 21
41.9617647059
  0
LINE
  5
228
100
AcDbEntity
  8
0
100
AcDbLine
 62
7
  6
BYLAYER
 10
16.2101868357
 20
39.7117647059
 11
20.0101868357
 21
39.7117647059
  0
LINE
  5
229
100
AcDbEntity
  8
0
100
AcDbLine
 62
7
  6
BYLAYER
 10
24.0101868357
 20
39.7117647059
 11
28.0101868357
 21
39.7117647059
  0
LINE
  5
22A
100
AcDbEntity
  8
0
100
AcDbLine
 62
7
  6
BYLAYER
 10
32.0101868357
 20
39.7117647059
 11
39.6101868357
 21
39.7117647059
  0
LINE
  5
22B
100
AcDbEntity
  8
0
100
AcDbLine
 62
7
  6
BYLAYER
 10
8.0778683693
 20
40.5117647059
 11
16.0101868357
 21
40.5117647059
  0
LINE
  5
22C
100
AcDbEntity
  8
0
100
AcDbLine
 62
7
  6
BYLAYER
 10
40.6101868357
 20
40.7117647059
 11
43.5101868357
 21
40.7117647059
  0
LINE
  5
22D
100
AcDbEntity
  8
0
100
AcDbLine
 62
7
  6
BYLAYER
 10
43.6101868357
 20
40.7117647059
 11
47.2101868357
 21
40.7117647059
  0
LINE
  5
22E
100
AcDbEntity
  8
0
100
AcDbLine
 62
7
  6
BYLAYER
 10
43.5101868357
 20
40.7617647059
 11
43.6101868357
 21
40.7617647059
  0
LINE
  5
22F
100
AcDbEntity
  8
0
100
AcDbLine
 62
7
  6
BYLAYER
 10
28.0101868357
 20
36.7117687542
 11
28.0101868357
 21
60.7117606576
  0
LINE
  5
230
100
AcDbEntity
  8
0
100
AcDbLine
 62
7
  6
BYLAYER
 10
24.0101868357
 20
36.7117647059
 11
23.5630046973
 21
35.0428582453
  0
LINE
  5
231
100
AcDbEntity
  8
0
100
AcDbLine
 62
7
  6
BYLAYER
 10
23.5779058
 20
41.5335614756
 11
20.4424678714
 21
41.5335614756
  0
LINE
  5
232
100
AcDbEntity
  8
0
100
AcDbLine
 62
7
  6
BYLAYER
 10
28.4424678104
 20
41.5335614756
 11
31.577905861
 21
41.5335614756
  0
LINE
  5
233
100
AcDbEntity
  8
0
100
AcDbLine
 62
7
  6
BYLAYER
 10
47.4101868357
 20
41.9617647059
 11
47.9101868357
 21
41.9617647059
  0
LINE
  5
234
100
AcDbEntity
  8
0
100
AcDbLine
 62
7
  6
BYLAYER
 10
23.552296887
 20
42.0835614756
 11
20.4680767844
 21
42.0835614756
  0
LINE
  5
235
100
AcDbEntity
  8
0
100
AcDbLine
 62
7
  6
BYLAYER
 10
28.4680767925
 20
42.0835614756
 11
31.552296879
 21
42.0835614756
  0
LINE
  5
236
100
AcDbEntity
  8
0
100
AcDbLine
 62
7
  6
BYLAYER
 10
24.0101868357
 20
60.7117647059
 11
23.5630046973
 21
62.3806711665
  0
LINE
  5
237
100
AcDbEntity
  8
0
100
AcDbLine
 62
7
  6
BYLAYER
 10
32.0101868357
 20
60.7117606576
 11
32.0101868357
 21
36.7117687542
  0
LINE
  5
238
100
AcDbEntity
  8
0
100
AcDbLine
 62
7
  6
BYLAYER
 10
32.0101868357
 20
36.7117647059
 11
31.5630046973
 21
35.0428582453
  0
LINE
  5
239
100
AcDbEntity
  8
0
100
AcDbLine
 62
7
  6
BYLAYER
 10
32.0101868357
 20
60.7117647059
 11
31.5630046973
 21
62.3806711665
  0
LINE
  5
23A
100
AcDbEntity
  8
0
100
AcDbLine
 62
7
  6
BYLAYER
 10
52.4206540269
 20
51.5066472709
 11
50.7997196445
 21
51.4216976995
  0
LINE
  5
23B
100
AcDbEntity
  8
0
100
AcDbLine
 62
7
  6
BYLAYER
 10
39.6101868357
 20
57.7117647059
 11
39.6101868357
 21
39.7117647059
  0
LINE
  5
23C
100
AcDbEntity
  8
0
100
AcDbLine
 62
7
  6
BYLAYER
 10
62.6101868357
 20
51.9117647059
 11
52.6101868357
 21
51.9117647059
  0
LINE
  5
23D
100
AcDbEntity
  8
0
100
AcDbLine
 62
7
  6
BYLAYER
 10
40.6101868357
 20
40.7117647059
 11
40.6101868357
 21
56.7117647059
  0
LINE
  5
23E
100
AcDbEntity
  8
0
100
AcDbLine
 62
7
  6
BYLAYER
 10
62.6101868357
 20
53.9117647059
 11
52.6101868357
 21
53.9117647059
  0
LINE
  5
23F
100
AcDbEntity
  8
0
100
AcDbLine
 62
7
  6
BYLAYER
 10
43.5101868357
 20
56.7117743938
 11
43.5101868357
 21
40.711755018
  0
LINE
  5
240
100
AcDbEntity
  8
0
100
AcDbLine
 62
7
  6
BYLAYER
 10
43.6101868357
 20
40.7117553219
 11
43.6101868357
 21
56.7117424795
  0
LINE
  5
241
100
AcDbEntity
  8
0
100
AcDbLine
 62
7
  6
BYLAYER
 10
23.5522966942
 20
55.3399679362
 11
20.4680769761
 21
55.3399679362
  0
LINE
  5
242
100
AcDbEntity
  8
0
100
AcDbLine
 62
7
  6
BYLAYER
 10
28.4680769145
 20
55.3399679362
 11
31.5522967568
 21
55.3399679362
  0
LINE
  5
243
100
AcDbEntity
  8
0
100
AcDbLine
 62
7
  6
BYLAYER
 10
47.4101868357
 20
55.4617647059
 11
47.9101868357
 21
55.4617647059
  0
LINE
  5
244
100
AcDbEntity
  8
0
100
AcDbLine
 62
7
  6
BYLAYER
 10
23.5779058618
 20
55.8899679362
 11
20.4424678095
 21
55.8899679362
  0
LINE
  5
245
100
AcDbEntity
  8
0
100
AcDbLine
 62
7
  6
BYLAYER
 10
28.4424678708
 20
55.8899679362
 11
31.5779058006
 21
55.8899679362
  0
LINE
  5
246
100
AcDbEntity
  8
0
100
AcDbLine
 62
7
  6
BYLAYER
 10
43.5101868357
 20
56.6617647059
 11
43.6101868357
 21
56.6617647059
  0
LINE
  5
247
100
AcDbEntity
  8
0
100
AcDbLine
 62
7
  6
BYLAYER
 10
40.6101868357
 20
56.7117647059
 11
43.5101868357
 21
56.7117647059
  0
LINE
  5
248
100
AcDbEntity
  8
0
100
AcDbLine
 62
7
  6
BYLAYER
 10
43.6101868357
 20
56.7117647059
 11
47.2101868357
 21
56.7117647059
  0
LINE
  5
249
100
AcDbEntity
  8
0
100
AcDbLine
 62
7
  6
BYLAYER
 10
16.0101868357
 20
56.9117647059
 11
8.0778683693
 21
56.9117647059
  0
LINE
  5
24A
100
AcDbEntity
  8
0
100
AcDbLine
 62
7
  6
BYLAYER
 10
52.4206540269
 20
54.3168821409
 11
50.7997196445
 21
54.4018317123
  0
LINE
  5
24B
100
AcDbEntity
  8
0
100
AcDbLine
 62
7
  6
BYLAYER
 10
40.6101868357
 20
40.7117647059
 11
39.6101868357
 21
39.7117647059
  0
LINE
  5
24C
100
AcDbEntity
  8
0
100
AcDbLine
 62
7
  6
BYLAYER
 10
16.2101868357
 20
57.7117647059
 11
20.0101868357
 21
57.7117647059
  0
LINE
  5
24D
100
AcDbEntity
  8
0
100
AcDbLine
 62
7
  6
BYLAYER
 10
24.0101868357
 20
57.7117647059
 11
28.0101868357
 21
57.7117647059
  0
LINE
  5
24E
100
AcDbEntity
  8
0
100
AcDbLine
 62
7
  6
BYLAYER
 10
32.0101868357
 20
57.7117647059
 11
39.6101868357
 21
57.7117647059
  0
LINE
  5
24F
100
AcDbEntity
  8
0
100
AcDbLine
 62
7
  6
BYLAYER
 10
50.4449164712
 20
55.0148234824
 11
47.9101868357
 21
55.4617647059
  0
LINE
  5
250
100
AcDbEntity
  8
0
100
AcDbLine
 62
7
  6
BYLAYER
 10
40.6101868357
 20
56.7117647059
 11
39.6101868357
 21
57.7117647059
  0
LINE
  5
251
100
AcDbEntity
  8
0
100
AcDbLine
 62
7
  6
BYLAYER
 10
47.2101868357
 20
56.7117647059
 11
47.2101868357
 21
40.7117647059
  0
LINE
  5
252
100
AcDbEntity
  8
0
100
AcDbLine
 62
7
  6
BYLAYER
 10
47.4101868357
 20
56.5117743222
 11
47.4101868357
 21
40.9117550896
  0
LINE
  5
253
100
AcDbEntity
  8
0
100
AcDbLine
 62
7
  6
BYLAYER
 10
47.9101868357
 20
55.4617647059
 11
47.9101868357
 21
41.9617647059
  0
LINE
  5
254
100
AcDbEntity
  8
0
100
AcDbLine
 62
7
  6
BYLAYER
 10
23.5779058
 20
62.3181711665
 11
20.4424678714
 21
62.3181711665
  0
LINE
  5
255
100
AcDbEntity
  8
0
100
AcDbLine
 62
7
  6
BYLAYER
 10
28.4424678104
 20
62.3181711665
 11
31.577905861
 21
62.3181711665
  0
LINE
  5
256
100
AcDbEntity
  8
0
100
AcDbLine
 62
7
  6
BYLAYER
 10
23.552296907
 20
62.4181711665
 11
20.4680767644
 21
62.4181711665
  0
LINE
  5
257
100
AcDbEntity
  8
0
100
AcDbLine
 62
7
  6
BYLAYER
 10
28.4680767922
 20
62.4181711665
 11
31.5522968798
 21
62.4181711665
  0
LINE
  5
258
100
AcDbEntity
  8
0
100
AcDbLine
 62
7
  6
BYLAYER
 10
50.4449164712
 20
55.0148234824
 11
50.4449164712
 21
42.4087059294
  0
LINE
  5
259
100
AcDbEntity
  8
0
100
AcDbLine
 62
7
  6
BYLAYER
 10
50.6101868357
 20
54.817814078
 11
50.6101868357
 21
42.6056701858
  0
LINE
  5
25A
100
AcDbEntity
  8
0
100
AcDbLine
 62
7
  6
BYLAYER
 10
50.7997196445
 20
51.4216976995
 11
50.7997196445
 21
54.4018317123
  0
LINE
  5
25B
100
AcDbEntity
  8
0
100
AcDbLine
 62
7
  6
BYLAYER
 10
52.4206540269
 20
54.3168821409
 11
52.4206540269
 21
51.5066472709
  0
LINE
  5
25C
100
AcDbEntity
  8
0
100
AcDbLine
 62
7
  6
BYLAYER
 10
52.6101868357
 20
54.1171183185
 11
52.6101868357
 21
51.7064148149
  0
LINE
  5
25D
100
AcDbEntity
  8
0
100
AcDbLine
 62
7
  6
BYLAYER
 10
62.6101868357
 20
53.9116310795
 11
62.6101868357
 21
51.9118983323
  0
ARC
  5
25E
100
AcDbEntity
  8
0
100
AcDbCircle
 62
7
  6
BYLAYER
 10
60.5974806177
 20
40.3119633357
 40
32.1782092518
100
AcDbArc
 50
176.8439373014
 51
177.8243276199
  0
ARC
  5
25F
100
AcDbEntity
  8
0
100
AcDbCircle
 62
7
  6
BYLAYER
 10
52.5974806176
 20
40.3119633357
 40
32.1782092517
100
AcDbArc
 50
176.8439373014
 51
177.8243276199
  0
ARC
  5
260
100
AcDbEntity
  8
0
100
AcDbCircle
 62
7
  6
BYLAYER
 10
-0.5771069455
 20
40.3119633357
 40
32.1782092509
100
AcDbArc
 50
2.1756723801
 51
3.1560626986
  0
ARC
  5
261
100
AcDbEntity
  8
0
100
AcDbCircle
 62
7
  6
BYLAYER
 10
-8.5771069452
 20
40.3119633357
 40
32.1782092507
100
AcDbArc
 50
2.1756723801
 51
3.1560626986
  0
ARC
  5
262
100
AcDbEntity
  8
0
100
AcDbCircle
 62
7
  6
BYLAYER
 10
-0.5770804056
 20
57.1115724934
 40
32.1781829747
100
AcDbArc
 50
356.8439232778
 51
357.8243144077
  0
ARC
  5
263
100
AcDbEntity
  8
0
100
AcDbCircle
 62
7
  6
BYLAYER
 10
-8.5770804055
 20
57.1115724934
 40
32.1781829746
100
AcDbArc
 50
356.8439232778
 51
357.8243144077
  0
ARC
  5
264
100
AcDbEntity
  8
0
100
AcDbCircle
 62
7
  6
BYLAYER
 10
60.5974540606
 20
57.1115724926
 40
32.1781829583
100
AcDbArc
 50
182.175685592
 51
183.1560767225
  0
ARC
  5
265
100
AcDbEntity
  8
0
100
AcDbCircle
 62
7
  6
BYLAYER
 10
52.5974540605
 20
57.1115724926
 40
32.1781829582
100
AcDbArc
 50
182.175685592
 51
183.1560767225
  0
ARC
  5
266
100
AcDbEntity
  8
0
100
AcDbCircle
 62
7
  6
BYLAYER
 10
22.4033745387
 20
35.3537049363
 40
1.2005698751
100
AcDbArc
 50
343.1329965758
 51
344.9942517305
  0
ARC
  5
267
100
AcDbEntity
  8
0
100
AcDbCircle
 62
7
  6
BYLAYER
 10
21.6169991323
 20
35.3537049362
 40
1.2005698748
100
AcDbArc
 50
195.0057482692
 51
196.8670034245
  0
ARC
  5
268
100
AcDbEntity
  8
0
100
AcDbCircle
 62
7
  6
BYLAYER
 10
21.6169987734
 20
62.0698245899
 40
1.2005694983
100
AcDbArc
 50
163.1329968277
 51
164.9942525617
  0
ARC
  5
269
100
AcDbEntity
  8
0
100
AcDbCircle
 62
7
  6
BYLAYER
 10
22.4033748983
 20
62.06982459
 40
1.2005694979
100
AcDbArc
 50
15.0057474382
 51
16.8670031728
  0
ARC
  5
26A
100
AcDbEntity
  8
0
100
AcDbCircle
 62
7
  6
BYLAYER
 10
30.4053131412
 20
35.3531799752
 40
1.1985623532
100
AcDbArc
 50
343.1301230907
 51
344.9945079235
  0
ARC
  5
26B
100
AcDbEntity
  8
0
100
AcDbCircle
 62
7
  6
BYLAYER
 10
29.6150605298
 20
35.3531799751
 40
1.1985623528
100
AcDbArc
 50
195.0054920762
 51
196.8698769096
  0
ARC
  5
26C
100
AcDbEntity
  8
0
100
AcDbCircle
 62
7
  6
BYLAYER
 10
29.6150601575
 20
62.0703495553
 40
1.1985619622
100
AcDbArc
 50
163.1301233541
 51
164.9945087898
  0
ARC
  5
26D
100
AcDbEntity
  8
0
100
AcDbCircle
 62
7
  6
BYLAYER
 10
30.4053135142
 20
62.0703495554
 40
1.1985619619
100
AcDbArc
 50
15.00549121
 51
16.8698766463
  0
ARC
  5
26E
100
AcDbEntity
  8
0
100
AcDbCircle
 62
7
  6
BYLAYER
 10
30.4457823824
 20
35.3422326967
 40
1.1566386983
100
AcDbArc
 50
344.9992649144
 51
348.182469348
  0
ARC
  5
26F
100
AcDbEntity
  8
0
100
AcDbCircle
 62
7
  6
BYLAYER
 10
29.574591254
 20
62.0812967355
 40
1.156638659
100
AcDbArc
 50
164.9992654384
 51
168.1824699725
  0
ARC
  5
270
100
AcDbEntity
  8
0
100
AcDbCircle
 62
7
  6
BYLAYER
 10
21.5708725692
 20
35.3413626486
 40
1.1528206192
100
AcDbArc
 50
191.8130561133
 51
195.0068162929
  0
ARC
  5
271
100
AcDbEntity
  8
0
100
AcDbCircle
 62
7
  6
BYLAYER
 10
22.4495011632
 20
62.0821667901
 40
1.1528205531
100
AcDbArc
 50
11.813055437
 51
15.0068157921
  0
ARC
  5
272
100
AcDbEntity
  8
0
100
AcDbCircle
 62
7
  6
BYLAYER
 10
30.4563583353
 20
62.0838180559
 40
1.1457705847
100
AcDbArc
 50
11.8024291285
 51
15.0158354608
  0
ARC
  5
273
100
AcDbEntity
  8
0
100
AcDbCircle
 62
7
  6
BYLAYER
 10
29.5640151656
 20
35.3397113271
 40
1.1457704128
100
AcDbArc
 50
191.8024294576
 51
195.0158362799
  0
ARC
  5
274
100
AcDbEntity
  8
0
100
AcDbCircle
 62
7
  6
BYLAYER
 10
21.5610828614
 20
62.0845008069
 40
1.1427604602
100
AcDbArc
 50
164.9791226618
 51
168.2010061091
  0
ARC
  5
275
100
AcDbEntity
  8
0
100
AcDbCircle
 62
7
  6
BYLAYER
 10
22.4592909726
 20
35.3390285783
 40
1.1427602963
100
AcDbArc
 50
344.9791218383
 51
348.2010057555
  0
ARC
  5
276
100
AcDbEntity
  8
0
100
AcDbCircle
 62
7
  6
BYLAYER
 10
8.2101868357
 20
40.6617647059
 40
0.2
100
AcDbArc
 50
180.0
 51
228.5903778907
  0
ARC
  5
277
100
AcDbEntity
  8
0
100
AcDbCircle
 62
7
  6
BYLAYER
 10
8.2101868357
 20
56.7617647059
 40
0.2
100
AcDbArc
 50
131.4096221093
 51
180.0
  0
ARC
  5
278
100
AcDbEntity
  8
0
100
AcDbCircle
 62
7
  6
BYLAYER
 10
52.4101868357
 20
51.7063731778
 40
0.2
100
AcDbArc
 50
273.0
 51
359.9999999991
  0
ARC
  5
279
100
AcDbEntity
  8
0
100
AcDbCircle
 62
7
  6
BYLAYER
 10
52.4101868357
 20
54.117156234
 40
0.2
100
AcDbArc
 50
0.0
 51
87.0
  0
ARC
  5
27A
100
AcDbEntity
  8
0
100
AcDbCircle
 62
7
  6
BYLAYER
 10
50.8101868357
 20
54.6015576192
 40
0.2
100
AcDbArc
 50
180.0
 51
267.0
  0
ARC
  5
27B
100
AcDbEntity
  8
0
100
AcDbCircle
 62
7
  6
BYLAYER
 10
50.8101868357
 20
51.2219717926
 40
0.2
100
AcDbArc
 50
93.0
 51
180.0
  0
ARC
  5
27C
100
AcDbEntity
  8
0
100
AcDbCircle
 62
7
  6
BYLAYER
 10
47.2101868357
 20
56.5117647059
 40
0.2
100
AcDbArc
 50
0.0
 51
90.0
  0
ARC
  5
27D
100
AcDbEntity
  8
0
100
AcDbCircle
 62
7
  6
BYLAYER
 10
50.4101868357
 20
42.60566748
 40
0.2
100
AcDbArc
 50
280.0
 51
360.0
  0
ARC
  5
27E
100
AcDbEntity
  8
0
100
AcDbCircle
 62
7
  6
BYLAYER
 10
47.2101868357
 20
40.9117647059
 40
0.2
100
AcDbArc
 50
270.0
 51
360.0
  0
ARC
  5
27F
100
AcDbEntity
  8
0
100
AcDbCircle
 62
7
  6
BYLAYER
 10
50.4101868357
 20
54.8178619317
 40
0.2
100
AcDbArc
 50
0.0
 51
80.0
  0
SPLINE
  5
280
100
AcDbEntity
  8
0
100
AcDbSpline
 62
7
  6
BYLAYER
 70
0
 71
3
 72
11
 73
7
 74
0
 42
0.0000001
 43
0.0000001
 44
0.0000000001
 40
0.0
 40
0.0
 40
0.0
 40
0.0
 40
0.2525682076
 40
0.5030987665
 40
0.7520053249
 40
1.0
 40
1.0
 40
1.0
 40
1.0
 10
31.5779058
 20
62.3181711665
 30
0.0
 10
31.6450499674
 20
62.0528331154
 30
0.0
 10
31.7667368611
 20
61.5211207702
 30
0.0
 10
31.9046654459
 20
60.7174675005
 30
0.0
 10
31.990667978
 20
59.9114868594
 30
0.0
 10
32.0101864896
 20
59.3728150847
 30
0.0
 10
32.0101857812
 20
59.1040696048
 30
0.0
  0
SPLINE
  5
281
100
AcDbEntity
  8
0
100
AcDbSpline
 62
7
  6
BYLAYER
 70
0
 71
3
 72
10
 73
6
 74
0
 42
0.0000001
 43
0.0000001
 44
0.0000000001
 40
0.0
 40
0.0
 40
0.0
 40
0.0
 40
0.499977649
 40
0.7499894072
 40
1.0
 40
1.0
 40
1.0
 40
1.0
 10
31.5522966942
 20
55.3399679362
 30
0.0
 10
31.6946464705
 20
54.2411893934
 30
0.0
 10
31.8681014124
 20
52.5870207392
 30
0.0
 10
31.9895080765
 20
50.3739713987
 30
0.0
 10
32.010186833
 20
49.2657936404
 30
0.0
 10
32.010186838
 20
48.7117648636
 30
0.0
  0
SPLINE
  5
282
100
AcDbEntity
  8
0
100
AcDbSpline
 62
7
  6
BYLAYER
 70
0
 71
3
 72
11
 73
7
 74
0
 42
0.0000001
 43
0.0000001
 44
0.0000000001
 40
0.0
 40
0.0
 40
0.0
 40
0.0
 40
0.247994677
 40
0.496901236
 40
0.7474317938
 40
1.0
 40
1.0
 40
1.0
 40
1.0
 10
32.0101857812
 20
59.1040696048
 30
0.0
 10
32.0101864921
 20
58.8353241141
 30
0.0
 10
31.9906679753
 20
58.2966523193
 30
0.0
 10
31.9046654577
 20
57.4906716485
 30
0.0
 10
31.7667368644
 20
56.6870183549
 30
0.0
 10
31.6450499699
 20
56.1553059945
 30
0.0
 10
31.5779058006
 20
55.8899679362
 30
0.0
  0
SPLINE
  5
283
100
AcDbEntity
  8
0
100
AcDbSpline
 62
7
  6
BYLAYER
 70
0
 71
3
 72
11
 73
7
 74
0
 42
0.0000001
 43
0.0000001
 44
0.0000000001
 40
0.0
 40
0.0
 40
0.0
 40
0.0
 40
0.2525682079
 40
0.5030987666
 40
0.7520053248
 40
1.0
 40
1.0
 40
1.0
 40
1.0
 10
28.4424678708
 20
35.1053582453
 30
0.0
 10
28.375323701
 20
35.3706963053
 30
0.0
 10
28.2536367988
 20
35.902408667
 30
0.0
 10
28.1157082163
 20
36.7060619645
 30
0.0
 10
28.0297056974
 20
37.5120426331
 30
0.0
 10
28.0101871792
 20
38.0507144252
 30
0.0
 10
28.0101878901
 20
38.3194599139
 30
0.0
  0
SPLINE
  5
284
100
AcDbEntity
  8
0
100
AcDbSpline
 62
7
  6
BYLAYER
 70
0
 71
3
 72
11
 73
7
 74
0
 42
0.0000001
 43
0.0000001
 44
0.0000000001
 40
0.0
 40
0.0
 40
0.0
 40
0.0
 40
0.247994677
 40
0.496901236
 40
0.7474317938
 40
1.0
 40
1.0
 40
1.0
 40
1.0
 10
32.0101857812
 20
38.3194599139
 30
0.0
 10
32.0101864921
 20
38.0507144232
 30
0.0
 10
31.9906679753
 20
37.5120426284
 30
0.0
 10
31.9046654577
 20
36.7060619576
 30
0.0
 10
31.7667368644
 20
35.902408664
 30
0.0
 10
31.6450499699
 20
35.3706963036
 30
0.0
 10
31.5779058006
 20
35.1053582453
 30
0.0
  0
SPLINE
  5
285
100
AcDbEntity
  8
0
100
AcDbSpline
 62
7
  6
BYLAYER
 70
0
 71
3
 72
11
 73
7
 74
0
 42
0.0000001
 43
0.0000001
 44
0.0000000001
 40
0.0
 40
0.0
 40
0.0
 40
0.0
 40
0.2479946769
 40
0.4969012361
 40
0.747431794
 40
1.0
 40
1.0
 40
1.0
 40
1.0
 10
28.0101878901
 20
59.1040696048
 30
0.0
 10
28.0101871818
 20
59.3728150866
 30
0.0
 10
28.0297056921
 20
59.9114868641
 30
0.0
 10
28.1157082228
 20
60.7174675074
 30
0.0
 10
28.2536368184
 20
61.5211207732
 30
0.0
 10
28.3753237043
 20
62.0528331172
 30
0.0
 10
28.4424678714
 20
62.3181711665
 30
0.0
  0
SPLINE
  5
286
100
AcDbEntity
  8
0
100
AcDbSpline
 62
7
  6
BYLAYER
 70
0
 71
3
 72
11
 73
7
 74
0
 42
0.0000001
 43
0.0000001
 44
0.0000000001
 40
0.0
 40
0.0
 40
0.0
 40
0.0
 40
0.2525682079
 40
0.5030987666
 40
0.7520053248
 40
1.0
 40
1.0
 40
1.0
 40
1.0
 10
28.4424678708
 20
55.8899679362
 30
0.0
 10
28.375323701
 20
56.1553059962
 30
0.0
 10
28.2536367988
 20
56.6870183579
 30
0.0
 10
28.1157082163
 20
57.4906716554
 30
0.0
 10
28.0297056974
 20
58.296652324
 30
0.0
 10
28.0101871792
 20
58.835324116
 30
0.0
 10
28.0101878901
 20
59.1040696048
 30
0.0
  0
SPLINE
  5
287
100
AcDbEntity
  8
0
100
AcDbSpline
 62
7
  6
BYLAYER
 70
0
 71
3
 72
10
 73
6
 74
0
 42
0.0000001
 43
0.0000001
 44
0.0000000001
 40
0.0
 40
0.0
 40
0.0
 40
0.0
 40
0.2500118702
 40
0.5000238402
 40
1.0
 40
1.0
 40
1.0
 40
1.0
 10
28.0101868334
 20
48.7117649547
 30
0.0
 10
28.0101868384
 20
49.2657965313
 30
0.0
 10
28.0308698981
 20
50.3739774738
 30
0.0
 10
28.1522769217
 20
52.587026543
 30
0.0
 10
28.3257276316
 20
54.2411927273
 30
0.0
 10
28.4680769761
 20
55.3399679362
 30
0.0
  0
SPLINE
  5
288
100
AcDbEntity
  8
0
100
AcDbSpline
 62
7
  6
BYLAYER
 70
0
 71
3
 72
10
 73
6
 74
0
 42
0.0000001
 43
0.0000001
 44
0.0000000001
 40
0.0
 40
0.0
 40
0.0
 40
0.0
 40
0.4999776493
 40
0.7499894074
 40
1.0
 40
1.0
 40
1.0
 40
1.0
 10
28.4680767925
 20
42.0835614756
 30
0.0
 10
28.3257269971
 20
43.1823400817
 30
0.0
 10
28.1522722852
 20
44.8365088578
 30
0.0
 10
28.0308655733
 20
47.0495583225
 30
0.0
 10
28.0101868334
 20
48.157736146
 30
0.0
 10
28.0101868334
 20
48.7117649547
 30
0.0
  0
SPLINE
  5
289
100
AcDbEntity
  8
0
100
AcDbSpline
 62
7
  6
BYLAYER
 70
0
 71
3
 72
11
 73
7
 74
0
 42
0.0000001
 43
0.0000001
 44
0.0000000001
 40
0.0
 40
0.0
 40
0.0
 40
0.0
 40
0.2479946769
 40
0.4969012361
 40
0.747431794
 40
1.0
 40
1.0
 40
1.0
 40
1.0
 10
28.0101878901
 20
38.3194599139
 30
0.0
 10
28.0101871818
 20
38.5882053957
 30
0.0
 10
28.029705692
 20
39.1268771732
 30
0.0
 10
28.1157082228
 20
39.9328578166
 30
0.0
 10
28.2536368184
 20
40.7365110823
 30
0.0
 10
28.3753237043
 20
41.2682234263
 30
0.0
 10
28.4424678714
 20
41.5335614756
 30
0.0
  0
SPLINE
  5
28A
100
AcDbEntity
  8
0
100
AcDbSpline
 62
7
  6
BYLAYER
 70
0
 71
3
 72
10
 73
6
 74
0
 42
0.0000001
 43
0.0000001
 44
0.0000000001
 40
0.0
 40
0.0
 40
0.0
 40
0.0
 40
0.2500118673
 40
0.5000238427
 40
1.0
 40
1.0
 40
1.0
 40
1.0
 10
32.010186838
 20
48.7117648636
 30
0.0
 10
32.010186838
 20
48.1577332661
 30
0.0
 10
31.9894998686
 20
47.0495523671
 30
0.0
 10
31.8680996497
 20
44.8365028714
 30
0.0
 10
31.6946462405
 20
43.1823367316
 30
0.0
 10
31.552296879
 20
42.0835614756
 30
0.0
  0
SPLINE
  5
28B
100
AcDbEntity
  8
0
100
AcDbSpline
 62
7
  6
BYLAYER
 70
0
 71
3
 72
11
 73
7
 74
0
 42
0.0000001
 43
0.0000001
 44
0.0000000001
 40
0.0
 40
0.0
 40
0.0
 40
0.0
 40
0.2525682076
 40
0.5030987665
 40
0.7520053249
 40
1.0
 40
1.0
 40
1.0
 40
1.0
 10
31.5779058
 20
41.5335614756
 30
0.0
 10
31.6450499675
 20
41.2682234246
 30
0.0
 10
31.7667368611
 20
40.7365110793
 30
0.0
 10
31.9046654459
 20
39.9328578096
 30
0.0
 10
31.990667978
 20
39.1268771685
 30
0.0
 10
32.0101864896
 20
38.5882053938
 30
0.0
 10
32.0101857812
 20
38.3194599139
 30
0.0
  0
SPLINE
  5
28C
100
AcDbEntity
  8
0
100
AcDbSpline
 62
7
  6
BYLAYER
 70
0
 71
3
 72
11
 73
7
 74
0
 42
0.0000001
 43
0.0000001
 44
0.0000000001
 40
0.0
 40
0.0
 40
0.0
 40
0.0
 40
0.2525682076
 40
0.5030987665
 40
0.7520053249
 40
1.0
 40
1.0
 40
1.0
 40
1.0
 10
23.5779058
 20
62.3181711665
 30
0.0
 10
23.6450499674
 20
62.0528331154
 30
0.0
 10
23.7667368611
 20
61.5211207702
 30
0.0
 10
23.9046654459
 20
60.7174675005
 30
0.0
 10
23.990667978
 20
59.9114868594
 30
0.0
 10
24.0101864896
 20
59.3728150847
 30
0.0
 10
24.0101857812
 20
59.1040696048
 30
0.0
  0
SPLINE
  5
28D
100
AcDbEntity
  8
0
100
AcDbSpline
 62
7
  6
BYLAYER
 70
0
 71
3
 72
11
 73
7
 74
0
 42
0.0000001
 43
0.0000001
 44
0.0000000001
 40
0.0
 40
0.0
 40
0.0
 40
0.0
 40
0.247994677
 40
0.496901236
 40
0.7474317938
 40
1.0
 40
1.0
 40
1.0
 40
1.0
 10
24.0101857812
 20
59.1040696048
 30
0.0
 10
24.0101864921
 20
58.8353241141
 30
0.0
 10
23.9906679753
 20
58.2966523193
 30
0.0
 10
23.9046654577
 20
57.4906716485
 30
0.0
 10
23.7667368644
 20
56.6870183549
 30
0.0
 10
23.6450499699
 20
56.1553059945
 30
0.0
 10
23.5779058006
 20
55.8899679362
 30
0.0
  0
SPLINE
  5
28E
100
AcDbEntity
  8
0
100
AcDbSpline
 62
7
  6
BYLAYER
 70
0
 71
3
 72
10
 73
6
 74
0
 42
0.0000001
 43
0.0000001
 44
0.0000000001
 40
0.0
 40
0.0
 40
0.0
 40
0.0
 40
0.499977649
 40
0.7499894072
 40
1.0
 40
1.0
 40
1.0
 40
1.0
 10
23.5522966942
 20
55.3399679362
 30
0.0
 10
23.6946464705
 20
54.2411893934
 30
0.0
 10
23.8681014124
 20
52.5870207392
 30
0.0
 10
23.9895080765
 20
50.3739713987
 30
0.0
 10
24.010186833
 20
49.2657936404
 30
0.0
 10
24.010186838
 20
48.7117648636
 30
0.0
  0
SPLINE
  5
28F
100
AcDbEntity
  8
0
100
AcDbSpline
 62
7
  6
BYLAYER
 70
0
 71
3
 72
10
 73
6
 74
0
 42
0.0000001
 43
0.0000001
 44
0.0000000001
 40
0.0
 40
0.0
 40
0.0
 40
0.0
 40
0.2500118673
 40
0.5000238427
 40
1.0
 40
1.0
 40
1.0
 40
1.0
 10
24.010186838
 20
48.7117648636
 30
0.0
 10
24.010186838
 20
48.1577332661
 30
0.0
 10
23.9894998686
 20
47.0495523671
 30
0.0
 10
23.8680996497
 20
44.8365028714
 30
0.0
 10
23.6946462405
 20
43.1823367316
 30
0.0
 10
23.552296879
 20
42.0835614756
 30
0.0
  0
SPLINE
  5
290
100
AcDbEntity
  8
0
100
AcDbSpline
 62
7
  6
BYLAYER
 70
0
 71
3
 72
11
 73
7
 74
0
 42
0.0000001
 43
0.0000001
 44
0.0000000001
 40
0.0
 40
0.0
 40
0.0
 40
0.0
 40
0.2525682076
 40
0.5030987665
 40
0.7520053249
 40
1.0
 40
1.0
 40
1.0
 40
1.0
 10
23.5779058
 20
41.5335614756
 30
0.0
 10
23.6450499675
 20
41.2682234246
 30
0.0
 10
23.7667368611
 20
40.7365110793
 30
0.0
 10
23.9046654459
 20
39.9328578096
 30
0.0
 10
23.990667978
 20
39.1268771685
 30
0.0
 10
24.0101864896
 20
38.5882053938
 30
0.0
 10
24.0101857812
 20
38.3194599139
 30
0.0
  0
SPLINE
  5
291
100
AcDbEntity
  8
0
100
AcDbSpline
 62
7
  6
BYLAYER
 70
0
 71
3
 72
10
 73
6
 74
0
 42
0.0000001
 43
0.0000001
 44
0.0000000001
 40
0.0
 40
0.0
 40
0.0
 40
0.0
 40
0.4999776493
 40
0.7499894074
 40
1.0
 40
1.0
 40
1.0
 40
1.0
 10
20.4680767925
 20
42.0835614756
 30
0.0
 10
20.3257269971
 20
43.1823400817
 30
0.0
 10
20.1522722852
 20
44.8365088578
 30
0.0
 10
20.0308655733
 20
47.0495583225
 30
0.0
 10
20.0101868334
 20
48.157736146
 30
0.0
 10
20.0101868334
 20
48.7117649547
 30
0.0
  0
SPLINE
  5
292
100
AcDbEntity
  8
0
100
AcDbSpline
 62
7
  6
BYLAYER
 70
0
 71
3
 72
11
 73
7
 74
0
 42
0.0000001
 43
0.0000001
 44
0.0000000001
 40
0.0
 40
0.0
 40
0.0
 40
0.0
 40
0.2479946769
 40
0.4969012361
 40
0.747431794
 40
1.0
 40
1.0
 40
1.0
 40
1.0
 10
20.0101878901
 20
38.3194599139
 30
0.0
 10
20.0101871818
 20
38.5882053957
 30
0.0
 10
20.029705692
 20
39.1268771732
 30
0.0
 10
20.1157082228
 20
39.9328578166
 30
0.0
 10
20.2536368184
 20
40.7365110823
 30
0.0
 10
20.3753237043
 20
41.2682234263
 30
0.0
 10
20.4424678714
 20
41.5335614756
 30
0.0
  0
SPLINE
  5
293
100
AcDbEntity
  8
0
100
AcDbSpline
 62
7
  6
BYLAYER
 70
0
 71
3
 72
10
 73
6
 74
0
 42
0.0000001
 43
0.0000001
 44
0.0000000001
 40
0.0
 40
0.0
 40
0.0
 40
0.0
 40
0.2500118702
 40
0.5000238402
 40
1.0
 40
1.0
 40
1.0
 40
1.0
 10
20.0101868334
 20
48.7117649547
 30
0.0
 10
20.0101868384
 20
49.2657965313
 30
0.0
 10
20.0308698981
 20
50.3739774738
 30
0.0
 10
20.1522769217
 20
52.587026543
 30
0.0
 10
20.3257276316
 20
54.2411927273
 30
0.0
 10
20.4680769761
 20
55.3399679362
 30
0.0
  0
SPLINE
  5
294
100
AcDbEntity
  8
0
100
AcDbSpline
 62
7
  6
BYLAYER
 70
0
 71
3
 72
11
 73
7
 74
0
 42
0.0000001
 43
0.0000001
 44
0.0000000001
 40
0.0
 40
0.0
 40
0.0
 40
0.0
 40
0.2525682079
 40
0.5030987666
 40
0.7520053248
 40
1.0
 40
1.0
 40
1.0
 40
1.0
 10
20.4424678708
 20
55.8899679362
 30
0.0
 10
20.375323701
 20
56.1553059962
 30
0.0
 10
20.2536367988
 20
56.6870183579
 30
0.0
 10
20.1157082163
 20
57.4906716554
 30
0.0
 10
20.0297056974
 20
58.296652324
 30
0.0
 10
20.0101871792
 20
58.835324116
 30
0.0
 10
20.0101878901
 20
59.1040696048
 30
0.0
  0
SPLINE
  5
295
100
AcDbEntity
  8
0
100
AcDbSpline
 62
7
  6
BYLAYER
 70
0
 71
3
 72
11
 73
7
 74
0
 42
0.0000001
 43
0.0000001
 44
0.0000000001
 40
0.0
 40
0.0
 40
0.0
 40
0.0
 40
0.2479946769
 40
0.4969012361
 40
0.747431794
 40
1.0
 40
1.0
 40
1.0
 40
1.0
 10
20.0101878901
 20
59.1040696048
 30
0.0
 10
20.0101871818
 20
59.3728150866
 30
0.0
 10
20.0297056921
 20
59.9114868641
 30
0.0
 10
20.1157082228
 20
60.7174675074
 30
0.0
 10
20.2536368184
 20
61.5211207732
 30
0.0
 10
20.3753237043
 20
62.0528331172
 30
0.0
 10
20.4424678714
 20
62.3181711665
 30
0.0
  0
SPLINE
  5
296
100
AcDbEntity
  8
0
100
AcDbSpline
 62
7
  6
BYLAYER
 70
0
 71
3
 72
11
 73
7
 74
0
 42
0.0000001
 43
0.0000001
 44
0.0000000001
 40
0.0
 40
0.0
 40
0.0
 40
0.0
 40
0.247994677
 40
0.496901236
 40
0.7474317938
 40
1.0
 40
1.0
 40
1.0
 40
1.0
 10
24.0101857812
 20
38.3194599139
 30
0.0
 10
24.0101864921
 20
38.0507144232
 30
0.0
 10
23.9906679753
 20
37.5120426284
 30
0.0
 10
23.9046654577
 20
36.7060619576
 30
0.0
 10
23.7667368644
 20
35.902408664
 30
0.0
 10
23.6450499699
 20
35.3706963036
 30
0.0
 10
23.5779058006
 20
35.1053582453
 30
0.0
  0
SPLINE
  5
297
100
AcDbEntity
  8
0
100
AcDbSpline
 62
7
  6
BYLAYER
 70
0
 71
3
 72
11
 73
7
 74
0
 42
0.0000001
 43
0.0000001
 44
0.0000000001
 40
0.0
 40
0.0
 40
0.0
 40
0.0
 40
0.2525682079
 40
0.5030987666
 40
0.7520053248
 40
1.0
 40
1.0
 40
1.0
 40
1.0
 10
20.4424678708
 20
35.1053582453
 30
0.0
 10
20.375323701
 20
35.3706963053
 30
0.0
 10
20.2536367988
 20
35.902408667
 30
0.0
 10
20.1157082163
 20
36.7060619645
 30
0.0
 10
20.0297056974
 20
37.5120426331
 30
0.0
 10
20.0101871792
 20
38.0507144252
 30
0.0
 10
20.0101878901
 20
38.3194599139
 30
0.0
  0
ENDSEC
  0
SECTION
  2
OBJECTS
  0
DICTIONARY
  5
C
100
AcDbDictionary
280
0
281
1
  3
ACAD_GROUP
350
D
  3
ACAD_MLINESTYLE
350
17
  3
ACAD_LAYOUT
350
1A
  3
ACAD_PLOTSETTINGS
350
19
  3
ACAD_PLOTSTYLENAME
350
E
  0
DICTIONARY
  5
D
102
{ACAD_REACTORS
330
C
102
}
100
AcDbDictionary
280
0
281
1
  0
ACDBDICTIONARYWDFLT
  5
E
102
{ACAD_REACTORS
330
C
102
}
100
AcDbDictionary
281
1
  3
Normal
350
F
100
AcDbDictionaryWithDefault
340
F
  0
DICTIONARY
  5
17
102
{ACAD_REACTORS
330
C
102
}
100
AcDbDictionary
280
0
281
1
  3
Standard
350
18
  0
DICTIONARY
  5
19
102
{ACAD_REACTORS
330
C
102
}
100
AcDbDictionary
281
1
  0
DICTIONARY
  5
1A
102
{ACAD_REACTORS
330
C
102
}
100
AcDbDictionary
281
1
  3
Model
350
298
  3
Layout1
350
299
  0
ACDBPLACEHOLDER
  5
F
102
{ACAD_REACTORS
330
E
102
}
  0
MLINESTYLE
  5
18
102
{ACAD_REACTORS
330
17
102
}
100
AcDbMlineStyle
  2
STANDARD
 70
0
  3

 62
256
 51
90.0
 52
90.0
 71
2
 49
0.5
 62
256
  6
BYLAYER
 49
-0.5
 62
256
  6
BYLAYER
  0
LAYOUT
  5
298
102
{ACAD_REACTORS
330
1A
102
}
100
AcDbPlotSettings
  1

  2
none_device
  4

  6

 40
0.0
 41
0.0
 42
0.0
 43
0.0
 44
210.0
 45
297.0
 46
0.0
 47
0.0
 48
0.0
 49
0.0
140
0.0
141
0.0
142
1.0
143
1.0
 70
1024
 72
1
 73
0
 74
0
  7

 75
0
147
1.0
148
0.0
149
0.0
100
AcDbLayout
  1
Model
 70
0
 71
0
 10
0.0
 20
0.0
 11
210.0
 21
297.0
 12
0.0
 22
0.0
 32
0.0
 14
0.0
 24
0.0
 34
0.0
 15
0.0
 25
0.0
 35
0.0
146
0.0
 13
0.0
 23
0.0
 33
0.0
 16
1.0
 26
0.0
 36
0.0
 17
0.0
 27
1.0
 37
0.0
 76
0
330
210
345
0
346
0
  0
LAYOUT
  5
299
102
{ACAD_REACTORS
330
1A
102
}
100
AcDbPlotSettings
  1

  2
none_device
  4

  6

 40
0.0
 41
0.0
 42
0.0
 43
0.0
 44
210.0
 45
297.0
 46
0.0
 47
0.0
 48
0.0
 49
0.0
140
0.0
141
0.0
142
1.0
143
1.0
 70
0
 72
1
 73
0
 74
0
  7

 75
0
147
1.0
148
0.0
149
0.0
100
AcDbLayout
  1
Layout1
 70
0
 71
1
 10
0.0
 20
0.0
 11
210.0
 21
297.0
 12
0.0
 22
0.0
 32
0.0
 14
0.0
 24
0.0
 34
0.0
 15
0.0
 25
0.0
 35
0.0
146
0.0
 13
0.0
 23
0.0
 33
0.0
 16
1.0
 26
0.0
 36
0.0
 17
0.0
 27
1.0
 37
0.0
 76
0
330
211
345
0
346
0
  0
ENDSEC
  0
EOF
