999
DXF file: C:\Users\sesa63760\Documents\7-Dev\_Creo\CAD\MCADFD0001430_3D-CAD\drw0001_1.dxf
999
Pro/ENGINEER 2019471 by Parametric Technology Corporation
  0
SECTION
  2
HEADER
  9
$ACADVER
  1
AC1024
  9
$DWGCODEPAGE
  3
ANSI_1252
  9
$EXTMAX
 10
77.0173359826
 20
108.9245180326
 30
0.0
  9
$EXTMIN
 10
0.0
 20
0.0
 30
0.0
  9
$LIMMIN
 10
0.0
 20
0.0
  9
$LIMMAX
 10
77.0173359826
 20
108.9245180326
  9
$VIEWCTR
 10
38.5086679913
 20
54.4622590163
  9
$VIEWSIZE
 40
108.9245180326
  9
$CLAYER
  8
0
  9
$LTSCALE
 40
7.1002648792
  9
$CELTYPE
  6
BYLAYER
  9
$DIMSCALE
 40
1.0
  9
$DIMASZ
 40
0.9168730474
  9
$DIMEXO
 40
1.0
  9
$DIMDLI
 40
4.9056375529
  9
$DIMEXE
 40
1.0
  9
$DIMCEN
 40
1.1618615257
  9
$DIMLFAC
 40
1.0
  9
$DIMBLK
  1
_FILLED
  9
$DIMALT
 70
0
  9
$DIMALTF
 40
0.0393700787
  9
$DIMTXT
 40
1.2836222664
  9
$DIMTOL
 70
1
  9
$DIMLIM
 70
0
  9
$DIMTFAC
 40
1.0
  9
$DIMTP
 40
0.01
  9
$DIMTM
 40
0.01
  9
$DIMGAP
 40
0.625
  9
$DIMDSEP
 70
46
  9
$AUNITS
 70
0
  9
$PDMODE
 70
3
  9
$PDSIZE
 40
0.3125
  9
$HANDSEED
  5
3CE
  9
$TILEMODE
 70
1
  9
$MEASUREMENT
 70
1
  9
$INSUNITS
 70
4
  0
ENDSEC
  0
SECTION
  2
CLASSES
  0
CLASS
  1
ACDBDICTIONARYWDFLT
  2
AcDbDictionaryWithDefault
  3
AutoCAD 2000
 90
0
 91
1
280
0
281
0
  0
CLASS
  1
ACDBPLACEHOLDER
  2
AcDbPlaceHolder
  3
AutoCAD 2000
 90
0
 91
1
280
0
281
0
  0
CLASS
  1
LAYOUT
  2
AcDbLayout
  3
AutoCAD 2000
 90
0
 91
0
280
0
281
0
  0
ENDSEC
  0
SECTION
  2
TABLES
  0
TABLE
  2
VPORT
  5
8
100
AcDbSymbolTable
 70
2
  0
VPORT
  5
1F4
100
AcDbSymbolTableRecord
100
AcDbViewportTableRecord
  2
*ACTIVE
 70
0
 10
0.0
 20
0.0
 11
1.0
 21
1.0
 12
38.5086679913
 22
54.4622590163
 13
0.0
 23
0.0
 14
1.0
 24
1.0
 15
0.0
 25
0.0
 16
0.0
 26
0.0
 36
1.0
 17
0.0
 27
0.0
 37
0.0
 40
108.9245180326
 41
0.7070707071
 42
50.0
 43
0.0
 44
0.0
 50
0.0
 51
0.0
 71
0
 72
100
 73
1
 74
1
 75
0
 76
0
 77
0
 78
0
  0
ENDTAB
  0
TABLE
  2
LTYPE
  5
5
100
AcDbSymbolTable
 70
6
  0
LTYPE
  5
14
100
AcDbSymbolTableRecord
100
AcDbLinetypeTableRecord
  2
BYBLOCK
 70
0
  3

 72
65
 73
0
 40
0.0
  0
LTYPE
  5
15
100
AcDbSymbolTableRecord
100
AcDbLinetypeTableRecord
  2
BYLAYER
 70
0
  3

 72
65
 73
0
 40
0.0
  0
LTYPE
  5
16
100
AcDbSymbolTableRecord
100
AcDbLinetypeTableRecord
  2
CONTINUOUS
 70
64
  3
Solid line
 72
65
 73
0
 40
0.0
  0
LTYPE
  5
1F5
100
AcDbSymbolTableRecord
100
AcDbLinetypeTableRecord
  2
CENTER
 70
64
  3
____ _ ____ _ ____ _ ____ _ ____ _ ____ _ ____
 72
65
 73
4
 40
0.6
 49
0.375
 74
0
 49
-0.075
 74
0
 49
0.075
 74
0
 49
-0.075
 74
0
  0
LTYPE
  5
1F6
100
AcDbSymbolTableRecord
100
AcDbLinetypeTableRecord
  2
HIDDEN
 70
64
  3
- - - - - - - - - - - - - - - - - - - -
 72
65
 73
2
 40
0.2
 49
0.1
 74
0
 49
-0.1
 74
0
  0
LTYPE
  5
1F7
100
AcDbSymbolTableRecord
100
AcDbLinetypeTableRecord
  2
PHANTOM
 70
64
  3
_____ _ _ _____ _ _ _____ _ _ _____
 72
65
 73
6
 40
0.8
 49
0.45
 74
0
 49
-0.05
 74
0
 49
0.1
 74
0
 49
-0.05
 74
0
 49
0.1
 74
0
 49
-0.05
 74
0
  0
LTYPE
  5
1F8
100
AcDbSymbolTableRecord
100
AcDbLinetypeTableRecord
  2
DOT
 70
64
  3
. . . . . . . . . . . . . . . . . . . .
 72
65
 73
2
 40
0.2
 49
0.1
 74
0
 49
-0.1
 74
0
  0
LTYPE
  5
1F9
100
AcDbSymbolTableRecord
100
AcDbLinetypeTableRecord
  2
DASHED
 70
64
  3
- - - - - - - - - - - - - - - - - - - -
 72
65
 73
2
 40
0.2
 49
0.1
 74
0
 49
-0.1
 74
0
  0
ENDTAB
  0
TABLE
  2
LAYER
  5
2
100
AcDbSymbolTable
 70
36
  0
LAYER
  5
10
100
AcDbSymbolTableRecord
100
AcDbLayerTableRecord
  2
0
 70
0
 62
7
  6
CONTINUOUS
370
-3
390
F
  0
LAYER
  5
1FA
100
AcDbSymbolTableRecord
100
AcDbLayerTableRecord
  2
DEFAULT_1
 70
0
 62
7
  6
CENTER
370
-3
390
F
  0
LAYER
  5
1FB
100
AcDbSymbolTableRecord
100
AcDbLayerTableRecord
  2
DEFAULT_2
 70
0
 62
8
  6
HIDDEN
370
-3
390
F
  0
LAYER
  5
1FC
100
AcDbSymbolTableRecord
100
AcDbLayerTableRecord
  2
DEFAULT_3
 70
0
 62
7
  6
PHANTOM
370
-3
390
F
  0
LAYER
  5
1FD
100
AcDbSymbolTableRecord
100
AcDbLayerTableRecord
  2
00_COMPONENTS
 70
0
 62
7
  6
CONTINUOUS
370
-3
390
F
  0
LAYER
  5
1FE
100
AcDbSymbolTableRecord
100
AcDbLayerTableRecord
  2
01_1_DEFAULT_DATUMS
 70
0
 62
7
  6
CONTINUOUS
370
-3
390
F
  0
LAYER
  5
1FF
100
AcDbSymbolTableRecord
100
AcDbLayerTableRecord
  2
01_PLANES
 70
0
 62
7
  6
CONTINUOUS
370
-3
390
F
  0
LAYER
  5
200
100
AcDbSymbolTableRecord
100
AcDbLayerTableRecord
  2
02_COORD_SYS
 70
0
 62
7
  6
CONTINUOUS
370
-3
390
F
  0
LAYER
  5
201
100
AcDbSymbolTableRecord
100
AcDbLayerTableRecord
  2
03_AXES
 70
0
 62
7
  6
CONTINUOUS
370
-3
390
F
  0
LAYER
  5
202
100
AcDbSymbolTableRecord
100
AcDbLayerTableRecord
  2
04_POINTS
 70
0
 62
7
  6
CONTINUOUS
370
-3
390
F
  0
LAYER
  5
203
100
AcDbSymbolTableRecord
100
AcDbLayerTableRecord
  2
05_CURVES
 70
0
 62
7
  6
CONTINUOUS
370
-3
390
F
  0
LAYER
  5
204
100
AcDbSymbolTableRecord
100
AcDbLayerTableRecord
  2
06_SURFS
 70
0
 62
7
  6
CONTINUOUS
370
-3
390
F
  0
LAYER
  5
205
100
AcDbSymbolTableRecord
100
AcDbLayerTableRecord
  2
07_COSMETICS
 70
0
 62
7
  6
CONTINUOUS
370
-3
390
F
  0
LAYER
  5
206
100
AcDbSymbolTableRecord
100
AcDbLayerTableRecord
  2
10_NOTES
 70
0
 62
7
  6
CONTINUOUS
370
-3
390
F
  0
LAYER
  5
207
100
AcDbSymbolTableRecord
100
AcDbLayerTableRecord
  2
11_NOTES_PUB
 70
0
 62
7
  6
CONTINUOUS
370
-3
390
F
  0
LAYER
  5
208
100
AcDbSymbolTableRecord
100
AcDbLayerTableRecord
  2
13_REF_GTOL
 70
0
 62
7
  6
CONTINUOUS
370
-3
390
F
  0
LAYER
  5
209
100
AcDbSymbolTableRecord
100
AcDbLayerTableRecord
  2
16_MISC
 70
0
 62
7
  6
CONTINUOUS
370
-3
390
F
  0
LAYER
  5
20A
100
AcDbSymbolTableRecord
100
AcDbLayerTableRecord
  2
17_NO_PRINT
 70
0
 62
7
  6
CONTINUOUS
370
-3
390
F
  0
LAYER
  5
20B
100
AcDbSymbolTableRecord
100
AcDbLayerTableRecord
  2
18_DATUM_CAMS_JOINTS
 70
0
 62
7
  6
CONTINUOUS
370
-3
390
F
  0
LAYER
  5
20C
100
AcDbSymbolTableRecord
100
AcDbLayerTableRecord
  2
19_DATUM_FUNCTIONAL
 70
0
 62
7
  6
CONTINUOUS
370
-3
390
F
  0
LAYER
  5
20D
100
AcDbSymbolTableRecord
100
AcDbLayerTableRecord
  2
20_DATUM_KINEMATIC_SCHEME
 70
0
 62
7
  6
CONTINUOUS
370
-3
390
F
  0
ENDTAB
  0
TABLE
  2
STYLE
  5
3
100
AcDbSymbolTable
 70
1
  0
STYLE
  5
11
100
AcDbSymbolTableRecord
100
AcDbTextStyleTableRecord
  2
STANDARD
 70
0
 40
0.0
 41
0.8
 50
0.0
 71
0
 42
0.2
  3
txt
  4

  0
STYLE
  5
20E
100
AcDbSymbolTableRecord
100
AcDbTextStyleTableRecord
  2
TEXTSTYLE_1
 70
0
 40
0.0
 41
0.8
 50
0.0
 71
0
 42
0.2
  3
gdt
  4

  0
ENDTAB
  0
TABLE
  2
VIEW
  5
6
100
AcDbSymbolTable
 70
0
  0
ENDTAB
  0
TABLE
  2
UCS
  5
7
100
AcDbSymbolTable
 70
0
  0
ENDTAB
  0
TABLE
  2
APPID
  5
9
100
AcDbSymbolTable
 70
1
  0
APPID
  5
20F
100
AcDbSymbolTableRecord
100
AcDbRegAppTableRecord
  2
ACAD
 70
0
  0
ENDTAB
  0
TABLE
  2
BLOCK_RECORD
  5
1
100
AcDbSymbolTable
 70
0
  0
BLOCK_RECORD
  5
210
100
AcDbSymbolTableRecord
100
AcDbBlockTableRecord
  2
*Model_Space
  0
BLOCK_RECORD
  5
211
100
AcDbSymbolTableRecord
100
AcDbBlockTableRecord
  2
*Paper_Space
  0
BLOCK_RECORD
  5
212
100
AcDbSymbolTableRecord
100
AcDbBlockTableRecord
  2
_FILLED
  0
ENDTAB
  0
TABLE
  2
DIMSTYLE
  5
A
100
AcDbSymbolTable
 70
1
100
AcDbDimStyleTable
 71
0
  0
DIMSTYLE
105
213
100
AcDbSymbolTableRecord
100
AcDbDimStyleTableRecord
  2
STANDARD
 70
0
  3

  4

 40
1.0
 41
0.9168730474
 42
1.0
 43
0.38
 44
1.0
 45
0.0
 46
0.0
 47
0.01
 48
0.01
140
1.2836222664
141
0.09
142
0.0
143
25.4
144
1.0
145
0.0
146
1.0
147
0.625
 71
1
 72
0
 73
0
 74
0
 75
0
 76
0
 77
1
 78
8
 79
2
170
0
171
1
172
0
173
0
174
0
175
0
176
0
177
0
178
0
270
2
179
2
271
2
272
2
273
2
274
2
275
0
280
0
281
0
282
0
283
1
284
8
285
0
286
0
287
3
288
0
340
11
278
46
341
212
342
212
343
212
344
212
  0
ENDTAB
  0
ENDSEC
  0
SECTION
  2
BLOCKS
  0
BLOCK
  5
20
100
AcDbEntity
  8
0
100
AcDbBlockBegin
  2
*Model_Space
 70
0
 10
0.0
 20
0.0
 30
0.0
  3
*Model_Space
  1

  0
ENDBLK
  5
21
100
AcDbEntity
  8
0
100
AcDbBlockEnd
  0
BLOCK
  5
1C
100
AcDbEntity
  8
0
100
AcDbBlockBegin
  2
*Paper_Space
 70
0
 10
0.0
 20
0.0
 30
0.0
  3
*Paper_Space
  1

  0
ENDBLK
  5
1D
100
AcDbEntity
  8
0
100
AcDbBlockEnd
  0
BLOCK
  5
214
100
AcDbEntity
  8
0
100
AcDbBlockBegin
  2
_FILLED
 70
64
 10
0.0
 20
0.0
  3
_FILLED
  1

  0
SOLID
  5
215
100
AcDbEntity
  8
0
  6
BYBLOCK
 62
0
100
AcDbTrace
 10
0.0
 20
0.0
 11
-1.0
 21
0.25
 12
-1.0
 22
-0.25
 13
-1.0
 23
-0.25
  0
ENDBLK
  5
216
100
AcDbEntity
  8
0
  6
BYBLOCK
 62
0
100
AcDbBlockEnd
  0
ENDSEC
  0
SECTION
  2
ENTITIES
  0
LINE
  5
217
100
AcDbEntity
  8
0
100
AcDbLine
 62
7
  6
CONTINUOUS
 10
26.4063989282
 20
12.0246334637
 11
27.1135086534
 21
11.6163927092
  0
LINE
  5
218
100
AcDbEntity
  8
0
100
AcDbLine
 62
7
  6
CONTINUOUS
 10
31.7804328394
 20
8.9220037294
 11
32.4875425645
 21
8.5137629749
  0
LINE
  5
219
100
AcDbEntity
  8
0
100
AcDbLine
 62
7
  6
CONTINUOUS
 10
34.4674333087
 20
11.0996112897
 11
35.938221537
 21
10.3394759635
  0
LINE
  5
21A
100
AcDbEntity
  8
0
100
AcDbLine
 62
7
  6
CONTINUOUS
 10
34.4674333087
 20
9.6568466057
 11
36.6324084736
 21
8.4069258884
  0
LINE
  5
21B
100
AcDbEntity
  8
0
100
AcDbLine
 62
7
  6
CONTINUOUS
 10
18.4218642662
 20
18.9875032191
 11
12.7296309788
 21
22.273841293
  0
LINE
  5
21C
100
AcDbEntity
  8
0
100
AcDbLine
 62
7
  6
CONTINUOUS
 10
21.4466850431
 20
17.3146837291
 11
18.4536999059
 21
19.042645412
  0
LINE
  5
21D
100
AcDbEntity
  8
0
100
AcDbLine
 62
7
  6
CONTINUOUS
 10
16.5586072672
 20
20.3689401571
 11
10.8663739798
 21
23.655278231
  0
LINE
  5
21E
100
AcDbEntity
  8
0
100
AcDbLine
 62
7
  6
CONTINUOUS
 10
18.775012577
 20
19.5335646492
 11
21.0324604016
 21
18.2302560247
  0
LINE
  5
21F
100
AcDbEntity
  8
0
100
AcDbLine
 62
7
  6
CONTINUOUS
 10
18.5745849201
 20
19.9897767759
 11
21.0141134719
 21
18.5813461728
  0
LINE
  5
220
100
AcDbEntity
  8
0
100
AcDbLine
 62
7
  6
CONTINUOUS
 10
20.6880434971
 20
18.8230976369
 11
18.2485149453
 21
20.23152824
  0
LINE
  5
221
100
AcDbEntity
  8
0
100
AcDbLine
 62
7
  6
CONTINUOUS
 10
17.6895378456
 20
20.6459593214
 11
20.1290663974
 21
19.2375287183
  0
LINE
  5
222
100
AcDbEntity
  8
0
100
AcDbLine
 62
7
  6
CONTINUOUS
 10
17.3634678708
 20
20.8877107856
 11
19.8029964226
 21
19.4792801825
  0
LINE
  5
223
100
AcDbEntity
  8
0
100
AcDbLine
 62
7
  6
CONTINUOUS
 10
20.1221901751
 20
19.9862949108
 11
17.6826616234
 21
21.3947255139
  0
LINE
  5
224
100
AcDbEntity
  8
0
100
AcDbLine
 62
7
  6
CONTINUOUS
 10
36.5887624841
 20
10.5762712821
 11
36.0925222986
 21
10.8627692054
  0
LINE
  5
225
100
AcDbEntity
  8
0
100
AcDbLine
 62
7
  6
CONTINUOUS
 10
10.8663739798
 20
23.655278231
 11
12.7296309788
 21
22.273841293
  0
LINE
  5
226
100
AcDbEntity
  8
0
100
AcDbLine
 62
7
  6
CONTINUOUS
 10
18.4218642662
 20
18.9875032191
 11
16.5586072672
 21
20.3689401571
  0
LINE
  5
227
100
AcDbEntity
  8
0
100
AcDbLine
 62
7
  6
CONTINUOUS
 10
17.3634678708
 20
20.8877107856
 11
17.6895378456
 21
20.6459593214
  0
LINE
  5
228
100
AcDbEntity
  8
0
100
AcDbLine
 62
7
  6
CONTINUOUS
 10
18.2485149453
 20
20.23152824
 11
18.5745849201
 21
19.9897767759
  0
LINE
  5
229
100
AcDbEntity
  8
0
100
AcDbLine
 62
7
  6
CONTINUOUS
 10
21.0141134719
 20
18.5813461728
 11
20.6880434971
 21
18.8230976369
  0
LINE
  5
22A
100
AcDbEntity
  8
0
100
AcDbLine
 62
7
  6
CONTINUOUS
 10
20.1290663974
 20
19.2375287183
 11
19.8029964226
 21
19.4792801825
  0
LINE
  5
22B
100
AcDbEntity
  8
0
100
AcDbLine
 62
7
  6
CONTINUOUS
 10
20.2109403558
 20
23.2575948351
 11
21.0324604016
 21
22.9606188046
  0
LINE
  5
22C
100
AcDbEntity
  8
0
100
AcDbLine
 62
7
  6
CONTINUOUS
 10
20.0109465242
 20
22.9120156184
 11
20.4845334901
 21
22.6988472201
  0
LINE
  5
22D
100
AcDbEntity
  8
0
100
AcDbLine
 62
7
  6
CONTINUOUS
 10
38.3697984063
 20
12.177547331
 11
37.2958486576
 21
12.7325879051
  0
LINE
  5
22E
100
AcDbEntity
  8
0
100
AcDbLine
 62
7
  6
CONTINUOUS
 10
18.3210491285
 20
22.4087549707
 11
20.7605776803
 21
21.0003243676
  0
LINE
  5
22F
100
AcDbEntity
  8
0
100
AcDbLine
 62
7
  6
CONTINUOUS
 10
21.387742149
 20
21.184324204
 11
21.9648185074
 21
20.8511565504
  0
LINE
  5
230
100
AcDbEntity
  8
0
100
AcDbLine
 62
7
  6
CONTINUOUS
 10
18.6402428811
 20
22.915769699
 11
21.0797714329
 21
21.5073390959
  0
LINE
  5
231
100
AcDbEntity
  8
0
100
AcDbLine
 62
7
  6
CONTINUOUS
 10
18.6127062766
 20
23.7193061756
 11
15.360001541
 21
25.5972136464
  0
LINE
  5
232
100
AcDbEntity
  8
0
100
AcDbLine
 62
7
  6
CONTINUOUS
 10
12.9204729892
 20
27.0056442495
 11
13.9457820907
 21
26.4136951555
  0
LINE
  5
233
100
AcDbEntity
  8
0
100
AcDbLine
 62
7
  6
CONTINUOUS
 10
19.6793238703
 20
23.1637246939
 11
20.4845334901
 21
22.6988472201
  0
LINE
  5
234
100
AcDbEntity
  8
0
100
AcDbLine
 62
7
  6
CONTINUOUS
 10
19.037933828
 20
23.8783666703
 11
15.7852290923
 21
25.7562741411
  0
LINE
  5
235
100
AcDbEntity
  8
0
100
AcDbLine
 62
7
  6
CONTINUOUS
 10
14.1289735611
 20
26.7124920853
 11
13.3457005406
 21
27.1647047442
  0
LINE
  5
236
100
AcDbEntity
  8
0
100
AcDbLine
 62
7
  6
CONTINUOUS
 10
14.1297940439
 20
26.7684606906
 11
14.1545315584
 21
26.754178803
  0
LINE
  5
237
100
AcDbEntity
  8
0
100
AcDbLine
 62
7
  6
CONTINUOUS
 10
16.9582329445
 20
25.1354976725
 11
20.2109376801
 21
23.2575902017
  0
LINE
  5
238
100
AcDbEntity
  8
0
100
AcDbLine
 62
7
  6
CONTINUOUS
 10
39.417177833
 20
12.2092478976
 11
38.9209376475
 21
12.4957458209
  0
LINE
  5
239
100
AcDbEntity
  8
0
100
AcDbLine
 62
7
  6
CONTINUOUS
 10
15.851066261
 20
26.3981714111
 11
14.4368468107
 21
27.2146529201
  0
LINE
  5
23A
100
AcDbEntity
  8
0
100
AcDbLine
 62
7
  6
CONTINUOUS
 10
21.0797714329
 20
21.5073390959
 11
21.4058414077
 21
21.2655876318
  0
LINE
  5
23B
100
AcDbEntity
  8
0
100
AcDbLine
 62
7
  6
CONTINUOUS
 10
21.9648185074
 20
20.8511565504
 11
22.2908884822
 21
20.6094050862
  0
LINE
  5
23C
100
AcDbEntity
  8
0
100
AcDbLine
 62
7
  6
CONTINUOUS
 10
59.5080518517
 20
100.7834237928
 11
51.6091099743
 21
96.2229947957
  0
LINE
  5
23D
100
AcDbEntity
  8
0
100
AcDbLine
 62
7
  6
CONTINUOUS
 10
52.3162196995
 20
95.8147540411
 11
58.784255992
 21
99.549054245
  0
LINE
  5
23E
100
AcDbEntity
  8
0
100
AcDbLine
 62
7
  6
CONTINUOUS
 10
44.1493230747
 20
16.9219978541
 11
45.1253750638
 21
16.3584867238
  0
LINE
  5
23F
100
AcDbEntity
  8
0
100
AcDbLine
 62
7
  6
CONTINUOUS
 10
43.6612351911
 20
17.8226173728
 11
44.3933016968
 21
17.3999681403
  0
LINE
  5
240
100
AcDbEntity
  8
0
100
AcDbLine
 62
7
  6
CONTINUOUS
 10
48.6809189354
 20
91.266403334
 11
41.0441974934
 21
86.8573664721
  0
LINE
  5
241
100
AcDbEntity
  8
0
100
AcDbLine
 62
7
  6
CONTINUOUS
 10
33.1238853818
 20
81.8763482296
 11
26.4063989282
 21
77.9980287678
  0
LINE
  5
242
100
AcDbEntity
  8
0
100
AcDbLine
 62
7
  6
CONTINUOUS
 10
48.2169444029
 20
90.182040804
 11
41.7513072186
 21
86.4491257176
  0
LINE
  5
243
100
AcDbEntity
  8
0
100
AcDbLine
 62
7
  6
CONTINUOUS
 10
33.8309951069
 20
81.4681074751
 11
27.1135086534
 21
77.5897880133
  0
LINE
  5
244
100
AcDbEntity
  8
0
100
AcDbLine
 62
7
  6
CONTINUOUS
 10
54.0549528465
 20
88.1637735996
 11
52.7088728948
 21
87.5886833495
  0
LINE
  5
245
100
AcDbEntity
  8
0
100
AcDbLine
 62
7
  6
CONTINUOUS
 10
14.9513167654
 20
36.4435212615
 11
16.2948252432
 21
35.6678638279
  0
LINE
  5
246
100
AcDbEntity
  8
0
100
AcDbLine
 62
7
  6
CONTINUOUS
 10
17.8504666385
 20
34.7697341679
 11
21.0324604016
 21
32.9326507726
  0
LINE
  5
247
100
AcDbEntity
  8
0
100
AcDbLine
 62
7
  6
CONTINUOUS
 10
16.2948252432
 20
36.0100903465
 11
17.8504666385
 21
35.1119606865
  0
LINE
  5
248
100
AcDbEntity
  8
0
100
AcDbLine
 62
7
  6
CONTINUOUS
 10
19.1232641437
 20
36.6431924756
 11
20.3253506765
 21
35.9491831929
  0
LINE
  5
249
100
AcDbEntity
  8
0
100
AcDbLine
 62
7
  6
CONTINUOUS
 10
20.3253506765
 20
36.4901951733
 11
19.7332229056
 21
36.8320525673
  0
LINE
  5
24A
100
AcDbEntity
  8
0
100
AcDbLine
 62
7
  6
CONTINUOUS
 10
14.9513167654
 20
55.0544251325
 11
14.9513167654
 21
36.4435212615
  0
LINE
  5
24B
100
AcDbEntity
  8
0
100
AcDbLine
 62
7
  6
CONTINUOUS
 10
16.2948252432
 20
35.6686919229
 11
16.2948252432
 21
36.0100903465
  0
LINE
  5
24C
100
AcDbEntity
  8
0
100
AcDbLine
 62
7
  6
CONTINUOUS
 10
17.8504666385
 20
24.6203779627
 11
17.8504666385
 21
24.5639356621
  0
LINE
  5
24D
100
AcDbEntity
  8
0
100
AcDbLine
 62
7
  6
CONTINUOUS
 10
17.8504666385
 20
34.7697341679
 11
17.8504666385
 21
35.1119606865
  0
LINE
  5
24E
100
AcDbEntity
  8
0
100
AcDbLine
 62
7
  6
CONTINUOUS
 10
49.3880286605
 20
90.8581625794
 11
48.3919400969
 21
90.0810092785
  0
LINE
  5
24F
100
AcDbEntity
  8
0
100
AcDbLine
 62
7
  6
CONTINUOUS
 10
38.8231161796
 20
81.4925342559
 11
37.9495185086
 21
80.8109489647
  0
LINE
  5
250
100
AcDbEntity
  8
0
100
AcDbLine
 62
7
  6
CONTINUOUS
 10
56.9831438854
 20
93.1203650613
 11
63.451180178
 21
96.8546652652
  0
LINE
  5
251
100
AcDbEntity
  8
0
100
AcDbLine
 62
7
  6
CONTINUOUS
 10
38.1160064545
 20
81.9007750104
 11
33.8309951069
 21
79.4268373229
  0
LINE
  5
252
100
AcDbEntity
  8
0
100
AcDbLine
 62
7
  6
CONTINUOUS
 10
65.589195488
 20
97.2725533039
 11
57.6902536106
 21
92.7121243068
  0
LINE
  5
253
100
AcDbEntity
  8
0
100
AcDbLine
 62
7
  6
CONTINUOUS
 10
37.7960423656
 20
80.8995564526
 11
33.8309951069
 21
78.6103490151
  0
LINE
  5
254
100
AcDbEntity
  8
0
100
AcDbLine
 62
7
  6
CONTINUOUS
 10
52.8838685888
 20
87.4876518241
 11
46.4182314046
 21
83.7547367378
  0
LINE
  5
255
100
AcDbEntity
  8
0
100
AcDbLine
 62
7
  6
CONTINUOUS
 10
38.4979192929
 20
78.7737184952
 11
31.7804328394
 21
74.8953990334
  0
LINE
  5
256
100
AcDbEntity
  8
0
100
AcDbLine
 62
7
  6
CONTINUOUS
 10
18.1618630965
 20
40.6382007559
 11
15.3334241959
 21
42.271163774
  0
LINE
  5
257
100
AcDbEntity
  8
0
100
AcDbLine
 62
7
  6
CONTINUOUS
 10
54.687687
 20
19.7709343096
 11
55.6902875446
 21
19.1920957103
  0
LINE
  5
258
100
AcDbEntity
  8
0
100
AcDbLine
 62
7
  6
CONTINUOUS
 10
15.4291936492
 20
42.5208632921
 11
18.2576325497
 21
40.887900274
  0
LINE
  5
259
100
AcDbEntity
  8
0
100
AcDbLine
 62
7
  6
CONTINUOUS
 10
18.4258224904
 20
41.0449239916
 11
15.5973835898
 21
42.6778870097
  0
LINE
  5
25A
100
AcDbEntity
  8
0
100
AcDbLine
 62
7
  6
CONTINUOUS
 10
18.3309460958
 20
41.3423857953
 11
15.5025071952
 21
42.9753488134
  0
LINE
  5
25B
100
AcDbEntity
  8
0
100
AcDbLine
 62
7
  6
CONTINUOUS
 10
54.226147672
 20
20.6562263592
 11
54.9582141777
 21
20.2335771267
  0
LINE
  5
25C
100
AcDbEntity
  8
0
100
AcDbLine
 62
7
  6
CONTINUOUS
 10
15.5616321053
 20
43.2589863362
 11
18.3900710058
 21
41.6260233181
  0
LINE
  5
25D
100
AcDbEntity
  8
0
100
AcDbLine
 62
7
  6
CONTINUOUS
 10
18.57102363
 20
41.775849575
 11
15.7425847294
 21
43.4088125931
  0
LINE
  5
25E
100
AcDbEntity
  8
0
100
AcDbLine
 62
7
  6
CONTINUOUS
 10
18.6270411986
 20
42.0102223046
 11
18.5025498955
 21
42.0966254001
  0
LINE
  5
25F
100
AcDbEntity
  8
0
100
AcDbLine
 62
7
  6
CONTINUOUS
 10
15.8935517312
 20
44.4921264532
 11
16.0058798719
 21
44.3870006163
  0
LINE
  5
260
100
AcDbEntity
  8
0
100
AcDbLine
 62
7
  6
CONTINUOUS
 10
18.8343187724
 20
42.7540375982
 11
18.7219906318
 21
42.8591634351
  0
LINE
  5
261
100
AcDbEntity
  8
0
100
AcDbLine
 62
7
  6
CONTINUOUS
 10
16.159225422
 20
45.257389217
 11
16.2585693482
 21
45.1343090464
  0
LINE
  5
262
100
AcDbEntity
  8
0
100
AcDbLine
 62
7
  6
CONTINUOUS
 10
19.0870082488
 20
43.5013460283
 11
18.9876643226
 21
43.624426199
  0
LINE
  5
263
100
AcDbEntity
  8
0
100
AcDbLine
 62
7
  6
CONTINUOUS
 10
16.4339915772
 20
46.0773837197
 11
16.5548237167
 21
45.879648231
  0
LINE
  5
264
100
AcDbEntity
  8
0
100
AcDbLine
 62
7
  6
CONTINUOUS
 10
19.3832626173
 20
44.2466852129
 11
19.2624304778
 21
44.4444207017
  0
LINE
  5
265
100
AcDbEntity
  8
0
100
AcDbLine
 62
7
  6
CONTINUOUS
 10
36.5887624841
 20
10.5762712821
 11
37.2958722093
 21
9.3515281105
  0
LINE
  5
266
100
AcDbEntity
  8
0
100
AcDbLine
 62
7
  6
CONTINUOUS
 10
20.4845334901
 20
22.6988472201
 11
20.4910622259
 21
22.1870348682
  0
LINE
  5
267
100
AcDbEntity
  8
0
100
AcDbLine
 62
7
  6
CONTINUOUS
 10
19.1232641437
 20
36.6431924756
 11
19.1232641437
 21
38.1664269182
  0
LINE
  5
268
100
AcDbEntity
  8
0
100
AcDbLine
 62
7
  6
CONTINUOUS
 10
20.3253506765
 20
35.9491831929
 11
20.3253506765
 21
43.7095827435
  0
LINE
  5
269
100
AcDbEntity
  8
0
100
AcDbLine
 62
7
  6
CONTINUOUS
 10
21.0324604016
 20
51.5435546436
 11
21.0324604016
 21
32.9326507726
  0
LINE
  5
26A
100
AcDbEntity
  8
0
100
AcDbLine
 62
7
  6
CONTINUOUS
 10
21.0324604016
 20
22.9606188046
 11
21.0324604016
 21
21.5346535146
  0
LINE
  5
26B
100
AcDbEntity
  8
0
100
AcDbLine
 62
7
  6
CONTINUOUS
 10
21.0324604016
 20
18.6104888597
 11
21.0324604016
 21
18.2302560247
  0
LINE
  5
26C
100
AcDbEntity
  8
0
100
AcDbLine
 62
7
  6
CONTINUOUS
 10
54.7620625716
 20
87.7555328451
 11
47.1253411297
 21
83.3464959833
  0
LINE
  5
26D
100
AcDbEntity
  8
0
100
AcDbLine
 62
7
  6
CONTINUOUS
 10
39.205029018
 20
78.3654777407
 11
37.2958486576
 21
77.2632185253
  0
LINE
  5
26E
100
AcDbEntity
  8
0
100
AcDbLine
 62
7
  6
CONTINUOUS
 10
34.4674333087
 20
75.6302419098
 11
32.4875425645
 21
74.4871582789
  0
LINE
  5
26F
100
AcDbEntity
  8
0
100
AcDbLine
 62
7
  6
CONTINUOUS
 10
27.1135086534
 20
70.840174706
 11
28.9136239394
 21
71.8794655472
  0
LINE
  5
270
100
AcDbEntity
  8
0
100
AcDbLine
 62
7
  6
CONTINUOUS
 10
42.4629665516
 20
78.2051674727
 11
39.205029018
 21
76.3242075885
  0
LINE
  5
271
100
AcDbEntity
  8
0
100
AcDbLine
 62
7
  6
CONTINUOUS
 10
27.6438409473
 20
69.4359100798
 11
29.1891478225
 21
70.3280880947
  0
LINE
  5
272
100
AcDbEntity
  8
0
100
AcDbLine
 62
7
  6
CONTINUOUS
 10
36.6322704546
 20
74.3799638235
 11
39.4606858035
 21
76.0129404389
  0
LINE
  5
273
100
AcDbEntity
  8
0
100
AcDbLine
 62
7
  6
CONTINUOUS
 10
44.1971500907
 20
78.3899045216
 11
39.5741434535
 21
75.7208263273
  0
LINE
  5
274
100
AcDbEntity
  8
0
100
AcDbLine
 62
7
  6
CONTINUOUS
 10
27.6438409473
 20
68.3784651056
 11
28.9437696378
 21
69.1289748051
  0
LINE
  5
275
100
AcDbEntity
  8
0
100
AcDbLine
 62
7
  6
CONTINUOUS
 10
43.4900403656
 20
78.7981452761
 11
42.3094904087
 21
78.2937749606
  0
LINE
  5
276
100
AcDbEntity
  8
0
100
AcDbLine
 62
7
  6
CONTINUOUS
 10
18.8765571986
 20
40.4186412004
 11
18.1618630965
 21
40.6382007559
  0
LINE
  5
277
100
AcDbEntity
  8
0
100
AcDbLine
 62
7
  6
CONTINUOUS
 10
18.4666906035
 20
41.2753369965
 11
18.3309460958
 21
41.3423857953
  0
LINE
  5
278
100
AcDbEntity
  8
0
100
AcDbLine
 62
7
  6
CONTINUOUS
 10
15.798602298
 20
43.6431853226
 11
18.6270411986
 21
42.0102223045
  0
LINE
  5
279
100
AcDbEntity
  8
0
100
AcDbLine
 62
7
  6
CONTINUOUS
 10
18.5025498955
 20
42.0966254001
 11
15.674110995
 21
43.7295884182
  0
LINE
  5
27A
100
AcDbEntity
  8
0
100
AcDbLine
 62
7
  6
CONTINUOUS
 10
15.7514760757
 20
44.0170133768
 11
18.5799149763
 21
42.3840503588
  0
LINE
  5
27B
100
AcDbEntity
  8
0
100
AcDbLine
 62
7
  6
CONTINUOUS
 10
18.7635612037
 20
42.5174182699
 11
15.9351223031
 21
44.150381288
  0
LINE
  5
27C
100
AcDbEntity
  8
0
100
AcDbLine
 62
7
  6
CONTINUOUS
 10
16.0058798719
 20
44.3870006163
 11
18.8343187724
 21
42.7540375982
  0
LINE
  5
27D
100
AcDbEntity
  8
0
100
AcDbLine
 62
7
  6
CONTINUOUS
 10
18.7219906318
 20
42.8591634351
 11
15.8935517312
 21
44.4921264532
  0
LINE
  5
27E
100
AcDbEntity
  8
0
100
AcDbLine
 62
7
  6
CONTINUOUS
 10
15.9885914897
 20
44.7812379415
 11
18.8170303903
 21
43.1482749235
  0
LINE
  5
27F
100
AcDbEntity
  8
0
100
AcDbLine
 62
7
  6
CONTINUOUS
 10
19.0020278758
 20
43.2642096484
 11
16.1735889752
 21
44.8971726665
  0
LINE
  5
280
100
AcDbEntity
  8
0
100
AcDbLine
 62
7
  6
CONTINUOUS
 10
16.2585693482
 20
45.1343090464
 11
19.0870082488
 21
43.5013460283
  0
LINE
  5
281
100
AcDbEntity
  8
0
100
AcDbLine
 62
7
  6
CONTINUOUS
 10
18.9876643226
 20
43.624426199
 11
16.159225422
 21
45.257389217
  0
LINE
  5
282
100
AcDbEntity
  8
0
100
AcDbLine
 62
7
  6
CONTINUOUS
 10
16.2712451741
 20
45.5460740014
 11
19.0996840747
 21
43.9131109833
  0
LINE
  5
283
100
AcDbEntity
  8
0
100
AcDbLine
 62
7
  6
CONTINUOUS
 10
19.2846805962
 20
44.0107651079
 11
16.4562416956
 21
45.643728126
  0
LINE
  5
284
100
AcDbEntity
  8
0
100
AcDbLine
 62
7
  6
CONTINUOUS
 10
16.5548237167
 20
45.879648231
 11
19.3832626173
 21
44.2466852129
  0
LINE
  5
285
100
AcDbEntity
  8
0
100
AcDbLine
 62
7
  6
CONTINUOUS
 10
20.1415372302
 20
43.8157050853
 11
20.3253506765
 21
43.7095827435
  0
LINE
  5
286
100
AcDbEntity
  8
0
100
AcDbLine
 62
7
  6
CONTINUOUS
 10
19.2624304778
 20
44.4444207017
 11
16.4339915772
 21
46.0773837197
  0
LINE
  5
287
100
AcDbEntity
  8
0
100
AcDbLine
 62
7
  6
CONTINUOUS
 10
16.5208506242
 20
46.2713247282
 11
19.3492895248
 21
44.6383617101
  0
LINE
  5
288
100
AcDbEntity
  8
0
100
AcDbLine
 62
7
  6
CONTINUOUS
 10
17.089753297
 20
46.478577523
 11
19.9181921975
 21
44.845614505
  0
LINE
  5
289
100
AcDbEntity
  8
0
100
AcDbLine
 62
7
  6
CONTINUOUS
 10
40.1242875582
 20
10.984504726
 11
39.417177833
 21
12.2092478976
  0
LINE
  5
28A
100
AcDbEntity
  8
0
100
AcDbLine
 62
7
  6
CONTINUOUS
 10
31.7804328394
 20
15.6865861694
 11
31.2501005455
 21
17.0908507956
  0
LINE
  5
28B
100
AcDbEntity
  8
0
100
AcDbLine
 62
7
  6
CONTINUOUS
 10
28.9136239394
 20
19.4052968577
 11
29.8362071377
 21
15.9621213365
  0
LINE
  5
28C
100
AcDbEntity
  8
0
100
AcDbLine
 62
7
  6
CONTINUOUS
 10
28.9437696378
 20
20.9658641846
 11
29.1891478225
 21
20.0500875257
  0
LINE
  5
28D
100
AcDbEntity
  8
0
100
AcDbLine
 62
7
  6
CONTINUOUS
 10
19.9181921975
 20
44.845614505
 11
20.1684988077
 21
43.6913773479
  0
LINE
  5
28E
100
AcDbEntity
  8
0
100
AcDbLine
 62
7
  6
CONTINUOUS
 10
19.0068942967
 20
40.8248491525
 11
18.8765571986
 21
40.4186412004
  0
LINE
  5
28F
100
AcDbEntity
  8
0
100
AcDbLine
 62
7
  6
CONTINUOUS
 10
40.1242875582
 20
74.3026109843
 11
36.5887624841
 21
72.2613727062
  0
LINE
  5
290
100
AcDbEntity
  8
0
100
AcDbLine
 62
7
  6
CONTINUOUS
 10
26.4063989282
 20
77.9980287678
 11
26.4063989282
 21
63.3009852595
  0
LINE
  5
291
100
AcDbEntity
  8
0
100
AcDbLine
 62
7
  6
CONTINUOUS
 10
26.4063989282
 20
19.6998775252
 11
26.4063989282
 21
12.0246334637
  0
LINE
  5
292
100
AcDbEntity
  8
0
100
AcDbLine
 62
7
  6
CONTINUOUS
 10
27.1135086534
 20
77.5897880133
 11
27.1135086534
 21
70.840174706
  0
LINE
  5
293
100
AcDbEntity
  8
0
100
AcDbLine
 62
7
  6
CONTINUOUS
 10
27.1135086534
 20
11.6163927092
 11
27.1135086534
 21
18.3660060165
  0
LINE
  5
294
100
AcDbEntity
  8
0
100
AcDbLine
 62
7
  6
CONTINUOUS
 10
27.6438409473
 20
69.4359100798
 11
27.6438409473
 21
68.3784651056
  0
LINE
  5
295
100
AcDbEntity
  8
0
100
AcDbLine
 62
7
  6
CONTINUOUS
 10
27.6438409473
 20
19.1579095109
 11
27.6438409473
 21
20.2153544851
  0
LINE
  5
296
100
AcDbEntity
  8
0
100
AcDbLine
 62
7
  6
CONTINUOUS
 10
29.8362071377
 20
76.3879420252
 11
28.9136239394
 21
71.8794655472
  0
LINE
  5
297
100
AcDbEntity
  8
0
100
AcDbLine
 62
7
  6
CONTINUOUS
 10
29.1891478225
 20
70.3280880947
 11
28.9437696378
 21
69.1289748051
  0
LINE
  5
298
100
AcDbEntity
  8
0
100
AcDbLine
 62
7
  6
CONTINUOUS
 10
31.2501005455
 20
67.338913099
 11
31.7804328394
 21
68.1308165934
  0
LINE
  5
299
100
AcDbEntity
  8
0
100
AcDbLine
 62
7
  6
CONTINUOUS
 10
41.9792426727
 20
77.9258910281
 11
42.3094904087
 21
78.2937749606
  0
LINE
  5
29A
100
AcDbEntity
  8
0
100
AcDbLine
 62
7
  6
CONTINUOUS
 10
52.3323197011
 20
87.1692168261
 11
52.7088728948
 21
87.5886833495
  0
LINE
  5
29B
100
AcDbEntity
  8
0
100
AcDbLine
 62
7
  6
CONTINUOUS
 10
26.4063989282
 20
63.3009852595
 11
16.3655244398
 21
57.5039182745
  0
LINE
  5
29C
100
AcDbEntity
  8
0
100
AcDbLine
 62
7
  6
CONTINUOUS
 10
21.0324604016
 20
51.5435546436
 11
14.9513167654
 21
55.0544251325
  0
LINE
  5
29D
100
AcDbEntity
  8
0
100
AcDbLine
 62
7
  6
CONTINUOUS
 10
31.2501005455
 20
18.133326637
 11
31.2501005455
 21
17.0908507956
  0
LINE
  5
29E
100
AcDbEntity
  8
0
100
AcDbLine
 62
7
  6
CONTINUOUS
 10
31.2501005455
 20
66.2964372576
 11
31.2501005455
 21
67.338913099
  0
LINE
  5
29F
100
AcDbEntity
  8
0
100
AcDbLine
 62
7
  6
CONTINUOUS
 10
31.7804328394
 20
74.8953990334
 11
31.7804328394
 21
68.1308165934
  0
LINE
  5
2A0
100
AcDbEntity
  8
0
100
AcDbLine
 62
7
  6
CONTINUOUS
 10
31.7804328394
 20
8.9220037294
 11
31.7804328394
 21
15.6865861694
  0
LINE
  5
2A1
100
AcDbEntity
  8
0
100
AcDbLine
 62
7
  6
CONTINUOUS
 10
12.9204729892
 20
27.0056442495
 11
10.8663739798
 21
23.655278231
  0
LINE
  5
2A2
100
AcDbEntity
  8
0
100
AcDbLine
 62
7
  6
CONTINUOUS
 10
15.5973835898
 20
42.6778870097
 11
15.4291936492
 21
42.5208632921
  0
LINE
  5
2A3
100
AcDbEntity
  8
0
100
AcDbLine
 62
7
  6
CONTINUOUS
 10
32.4875425645
 20
59.7901147706
 11
22.4466680761
 21
53.9930477856
  0
LINE
  5
2A4
100
AcDbEntity
  8
0
100
AcDbLine
 62
7
  6
CONTINUOUS
 10
63.4586906345
 20
71.2183608859
 11
62.237613104
 21
70.7619957844
  0
LINE
  5
2A5
100
AcDbEntity
  8
0
100
AcDbLine
 62
7
  6
CONTINUOUS
 10
19.5023311881
 20
40.9310199469
 11
19.0068942967
 21
40.8248491525
  0
LINE
  5
2A6
100
AcDbEntity
  8
0
100
AcDbLine
 62
7
  6
CONTINUOUS
 10
16.3655244398
 20
57.5039182745
 11
22.4466680761
 21
53.9930477856
  0
LINE
  5
2A7
100
AcDbEntity
  8
0
100
AcDbLine
 62
7
  6
CONTINUOUS
 10
28.9136239394
 20
71.8794655472
 11
29.1891478225
 21
70.3280880947
  0
LINE
  5
2A8
100
AcDbEntity
  8
0
100
AcDbLine
 62
7
  6
CONTINUOUS
 10
32.4875425645
 20
74.4871122736
 11
32.4875425645
 21
59.7901147706
  0
LINE
  5
2A9
100
AcDbEntity
  8
0
100
AcDbLine
 62
7
  6
CONTINUOUS
 10
32.4875425645
 20
23.2108064832
 11
32.4875425645
 21
8.5138089801
  0
LINE
  5
2AA
100
AcDbEntity
  8
0
100
AcDbLine
 62
7
  6
CONTINUOUS
 10
33.8309951069
 20
78.6103490151
 11
33.8309951069
 21
81.4681074751
  0
LINE
  5
2AB
100
AcDbEntity
  8
0
100
AcDbLine
 62
7
  6
CONTINUOUS
 10
34.4674333087
 20
75.6300578886
 11
34.4674333087
 21
74.1874772258
  0
LINE
  5
2AC
100
AcDbEntity
  8
0
100
AcDbLine
 62
7
  6
CONTINUOUS
 10
34.4674333087
 20
11.0996112897
 11
34.4674333087
 21
9.6570306268
  0
LINE
  5
2AD
100
AcDbEntity
  8
0
100
AcDbLine
 62
7
  6
CONTINUOUS
 10
37.7960423656
 20
80.8995564526
 11
37.2810145925
 21
78.3827204587
  0
LINE
  5
2AE
100
AcDbEntity
  8
0
100
AcDbLine
 62
7
  6
CONTINUOUS
 10
38.3121580605
 20
82.8593280207
 11
38.1160064545
 21
81.9007750104
  0
LINE
  5
2AF
100
AcDbEntity
  8
0
100
AcDbLine
 62
7
  6
CONTINUOUS
 10
37.8811442427
 20
78.4176253795
 11
38.1574360755
 21
79.7678073811
  0
LINE
  5
2B0
100
AcDbEntity
  8
0
100
AcDbLine
 62
7
  6
CONTINUOUS
 10
38.8215134767
 20
78.5868955326
 11
39.1157089897
 21
80.0245691784
  0
LINE
  5
2B1
100
AcDbEntity
  8
0
100
AcDbLine
 62
7
  6
CONTINUOUS
 10
14.4368468107
 20
27.2146529201
 11
13.9457820907
 21
26.4136951555
  0
LINE
  5
2B2
100
AcDbEntity
  8
0
100
AcDbLine
 62
7
  6
CONTINUOUS
 10
15.360001541
 20
25.5972136464
 11
15.851066261
 21
26.3981714111
  0
LINE
  5
2B3
100
AcDbEntity
  8
0
100
AcDbLine
 62
7
  6
CONTINUOUS
 10
18.2576325498
 20
40.887900274
 11
18.4258224904
 21
41.0449239916
  0
LINE
  5
2B4
100
AcDbEntity
  8
0
100
AcDbLine
 62
7
  6
CONTINUOUS
 10
15.7425847294
 20
43.4088125931
 11
15.5616321053
 21
43.2589863362
  0
LINE
  5
2B5
100
AcDbEntity
  8
0
100
AcDbLine
 62
7
  6
CONTINUOUS
 10
18.3900710058
 20
41.6260233181
 11
18.57102363
 21
41.775849575
  0
LINE
  5
2B6
100
AcDbEntity
  8
0
100
AcDbLine
 62
7
  6
CONTINUOUS
 10
15.9351223031
 20
44.150381288
 11
15.7514760757
 21
44.0170133768
  0
LINE
  5
2B7
100
AcDbEntity
  8
0
100
AcDbLine
 62
7
  6
CONTINUOUS
 10
15.9885914897
 20
44.7812379415
 11
16.1735889752
 21
44.8971726665
  0
LINE
  5
2B8
100
AcDbEntity
  8
0
100
AcDbLine
 62
7
  6
CONTINUOUS
 10
63.4586906345
 20
73.6711749613
 11
65.9476961415
 21
75.1081943829
  0
LINE
  5
2B9
100
AcDbEntity
  8
0
100
AcDbLine
 62
7
  6
CONTINUOUS
 10
65.2971759199
 20
70.1569349241
 11
64.0760983894
 21
69.7005698226
  0
LINE
  5
2BA
100
AcDbEntity
  8
0
100
AcDbLine
 62
7
  6
CONTINUOUS
 10
64.5883718987
 20
69.2913811556
 11
65.297178275
 21
69.5562902099
  0
LINE
  5
2BB
100
AcDbEntity
  8
0
100
AcDbLine
 62
7
  6
CONTINUOUS
 10
29.4932884762
 20
53.471175674
 11
28.3619129159
 21
54.1243608812
  0
LINE
  5
2BC
100
AcDbEntity
  8
0
100
AcDbLine
 62
7
  6
CONTINUOUS
 10
27.1135086534
 20
70.840174706
 11
27.6438409473
 21
69.4359100798
  0
LINE
  5
2BD
100
AcDbEntity
  8
0
100
AcDbLine
 62
7
  6
CONTINUOUS
 10
44.3933016968
 20
17.3999681403
 11
44.1971500907
 21
18.1320261374
  0
LINE
  5
2BE
100
AcDbEntity
  8
0
100
AcDbLine
 62
7
  6
CONTINUOUS
 10
35.9692124323
 20
72.8224108481
 11
35.938221537
 21
73.2493310132
  0
LINE
  5
2BF
100
AcDbEntity
  8
0
100
AcDbLine
 62
7
  6
CONTINUOUS
 10
39.205029018
 20
12.3921284419
 11
39.205029018
 21
15.2498408966
  0
LINE
  5
2C0
100
AcDbEntity
  8
0
100
AcDbLine
 62
7
  6
CONTINUOUS
 10
39.205029018
 20
76.1609776662
 11
39.205029018
 21
78.3654317354
  0
LINE
  5
2C1
100
AcDbEntity
  8
0
100
AcDbLine
 62
7
  6
CONTINUOUS
 10
35.938221537
 20
10.3394759635
 11
35.9692124323
 21
10.7306117346
  0
LINE
  5
2C2
100
AcDbEntity
  8
0
100
AcDbLine
 62
7
  6
CONTINUOUS
 10
41.4101064889
 20
78.2781054976
 11
41.300299325
 21
77.7415002172
  0
LINE
  5
2C3
100
AcDbEntity
  8
0
100
AcDbLine
 62
7
  6
CONTINUOUS
 10
44.1971500907
 20
78.3899045216
 11
44.3933016968
 21
79.3484575318
  0
LINE
  5
2C4
100
AcDbEntity
  8
0
100
AcDbLine
 62
7
  6
CONTINUOUS
 10
16.5586072672
 20
20.3689401571
 11
18.6127062766
 21
23.7193061756
  0
LINE
  5
2C5
100
AcDbEntity
  8
0
100
AcDbLine
 62
7
  6
CONTINUOUS
 10
18.6402428811
 20
22.915769699
 11
18.3210491285
 21
22.4087549707
  0
LINE
  5
2C6
100
AcDbEntity
  8
0
100
AcDbLine
 62
7
  6
CONTINUOUS
 10
17.6826616234
 20
21.3947255139
 11
17.3634678708
 21
20.8877107856
  0
LINE
  5
2C7
100
AcDbEntity
  8
0
100
AcDbLine
 62
7
  6
CONTINUOUS
 10
17.6663229215
 20
24.7266909821
 11
17.6397443757
 21
24.685593465
  0
LINE
  5
2C8
100
AcDbEntity
  8
0
100
AcDbLine
 62
7
  6
CONTINUOUS
 10
18.5799149763
 20
42.3840503588
 11
18.7635612037
 21
42.5174182699
  0
LINE
  5
2C9
100
AcDbEntity
  8
0
100
AcDbLine
 62
7
  6
CONTINUOUS
 10
19.0020278758
 20
43.2642096484
 11
18.8170303903
 21
43.1482749235
  0
LINE
  5
2CA
100
AcDbEntity
  8
0
100
AcDbLine
 62
7
  6
CONTINUOUS
 10
16.2712451741
 20
45.5460740014
 11
16.4562416956
 21
45.643728126
  0
LINE
  5
2CB
100
AcDbEntity
  8
0
100
AcDbLine
 62
7
  6
CONTINUOUS
 10
19.2846805962
 20
44.0107651079
 11
19.0996840747
 21
43.9131109833
  0
LINE
  5
2CC
100
AcDbEntity
  8
0
100
AcDbLine
 62
7
  6
CONTINUOUS
 10
63.5874049642
 20
66.2181145415
 11
64.1979083078
 21
66.5089168858
  0
LINE
  5
2CD
100
AcDbEntity
  8
0
100
AcDbLine
 62
7
  6
CONTINUOUS
 10
65.297178275
 20
66.9197576699
 11
64.1979083078
 21
66.5089168858
  0
LINE
  5
2CE
100
AcDbEntity
  8
0
100
AcDbLine
 62
7
  6
CONTINUOUS
 10
63.5874049642
 20
66.2181145415
 11
65.2971759199
 21
66.8571237577
  0
LINE
  5
2CF
100
AcDbEntity
  8
0
100
AcDbLine
 62
7
  6
CONTINUOUS
 10
17.0897532969
 20
46.478577523
 11
16.5208506242
 21
46.2713247282
  0
LINE
  5
2D0
100
AcDbEntity
  8
0
100
AcDbLine
 62
7
  6
CONTINUOUS
 10
35.2555826483
 20
54.2629859877
 11
35.0319098635
 21
54.2764836912
  0
LINE
  5
2D1
100
AcDbEntity
  8
0
100
AcDbLine
 62
7
  6
CONTINUOUS
 10
32.8752433731
 20
55.2703012829
 11
31.7438678128
 21
55.9234864901
  0
LINE
  5
2D2
100
AcDbEntity
  8
0
100
AcDbLine
 62
7
  6
CONTINUOUS
 10
31.0012543645
 20
56.6032306569
 11
35.0317797978
 21
54.2762583562
  0
LINE
  5
2D3
100
AcDbEntity
  8
0
100
AcDbLine
 62
7
  6
CONTINUOUS
 10
32.1126271265
 20
57.3479275256
 11
35.4584720402
 21
55.4162467645
  0
LINE
  5
2D4
100
AcDbEntity
  8
0
100
AcDbLine
 62
7
  6
CONTINUOUS
 10
32.6972667785
 20
57.5409462014
 11
36.0859929526
 21
55.5845084931
  0
LINE
  5
2D5
100
AcDbEntity
  8
0
100
AcDbLine
 62
7
  6
CONTINUOUS
 10
32.7925193887
 20
57.5723938335
 11
36.2749078934
 21
55.5618813767
  0
LINE
  5
2D6
100
AcDbEntity
  8
0
100
AcDbLine
 62
7
  6
CONTINUOUS
 10
48.2169444029
 20
90.182040804
 11
47.7242378527
 21
87.7742840876
  0
LINE
  5
2D7
100
AcDbEntity
  8
0
100
AcDbLine
 62
7
  6
CONTINUOUS
 10
48.8770705414
 20
92.2249563442
 11
48.6809189354
 21
91.266403334
  0
LINE
  5
2D8
100
AcDbEntity
  8
0
100
AcDbLine
 62
7
  6
CONTINUOUS
 10
48.1753735367
 20
87.0810857947
 11
48.5879849832
 21
89.097434027
  0
LINE
  5
2D9
100
AcDbEntity
  8
0
100
AcDbLine
 62
7
  6
CONTINUOUS
 10
49.2680100241
 20
87.3738492696
 11
49.6806214706
 21
89.390197502
  0
LINE
  5
2DA
100
AcDbEntity
  8
0
100
AcDbLine
 62
7
  6
CONTINUOUS
 10
19.8029964226
 20
19.4792801825
 11
20.1221901751
 21
19.9862949108
  0
LINE
  5
2DB
100
AcDbEntity
  8
0
100
AcDbLine
 62
7
  6
CONTINUOUS
 10
20.7605776803
 20
21.0003243676
 11
21.0797714329
 21
21.5073390959
  0
LINE
  5
2DC
100
AcDbEntity
  8
0
100
AcDbLine
 62
7
  6
CONTINUOUS
 10
22.2908884822
 20
20.6094050862
 11
21.9716947296
 21
20.1023903579
  0
LINE
  5
2DD
100
AcDbEntity
  8
0
100
AcDbLine
 62
7
  6
CONTINUOUS
 10
21.3333072245
 20
19.0883609011
 11
21.0141134719
 21
18.5813461728
  0
LINE
  5
2DE
100
AcDbEntity
  8
0
100
AcDbLine
 62
7
  6
CONTINUOUS
 10
20.4910622259
 20
22.1870348682
 11
20.3310455389
 21
21.9396064132
  0
LINE
  5
2DF
100
AcDbEntity
  8
0
100
AcDbLine
 62
7
  6
CONTINUOUS
 10
18.9353521775
 20
19.7814924147
 11
18.4218642662
 21
18.9875032191
  0
LINE
  5
2E0
100
AcDbEntity
  8
0
100
AcDbLine
 62
7
  6
CONTINUOUS
 10
19.3492895248
 20
44.6383617101
 11
19.9181921975
 21
44.845614505
  0
LINE
  5
2E1
100
AcDbEntity
  8
0
100
AcDbLine
 62
7
  6
CONTINUOUS
 10
20.1684988077
 20
43.6913773479
 11
20.2840013597
 21
43.7334552426
  0
LINE
  5
2E2
100
AcDbEntity
  8
0
100
AcDbLine
 62
7
  6
CONTINUOUS
 10
33.8645611701
 20
57.7428243389
 11
33.4541074052
 21
57.790816998
  0
LINE
  5
2E3
100
AcDbEntity
  8
0
100
AcDbLine
 62
7
  6
CONTINUOUS
 10
36.0859929526
 20
55.5845084931
 11
36.2748156219
 21
55.561722062
  0
LINE
  5
2E4
100
AcDbEntity
  8
0
100
AcDbLine
 62
7
  6
CONTINUOUS
 10
26.4063989282
 20
63.3009852595
 11
32.4875425645
 21
59.7901147706
  0
LINE
  5
2E5
100
AcDbEntity
  8
0
100
AcDbLine
 62
7
  6
CONTINUOUS
 10
63.4586906345
 20
45.2568657555
 11
64.3072152391
 21
44.7669809292
  0
LINE
  5
2E6
100
AcDbEntity
  8
0
100
AcDbLine
 62
7
  6
CONTINUOUS
 10
37.9495185086
 20
80.8109489647
 11
38.1574360755
 21
79.7678073811
  0
LINE
  5
2E7
100
AcDbEntity
  8
0
100
AcDbLine
 62
7
  6
CONTINUOUS
 10
51.8569899879
 20
87.6875559691
 11
51.7471828239
 21
87.1509506887
  0
LINE
  5
2E8
100
AcDbEntity
  8
0
100
AcDbLine
 62
7
  6
CONTINUOUS
 10
52.4343409776
 20
87.3542297607
 11
52.4301926822
 21
87.3339578845
  0
LINE
  5
2E9
100
AcDbEntity
  8
0
100
AcDbLine
 62
7
  6
CONTINUOUS
 10
28.9136239394
 20
19.4052968577
 11
29.1891478225
 21
20.0500875257
  0
LINE
  5
2EA
100
AcDbEntity
  8
0
100
AcDbLine
 62
7
  6
CONTINUOUS
 10
19.1232641437
 20
36.6431924756
 11
19.662513155
 21
36.954526179
  0
LINE
  5
2EB
100
AcDbEntity
  8
0
100
AcDbLine
 62
7
  6
CONTINUOUS
 10
63.4586906345
 20
46.7258366762
 11
67.3472044217
 21
44.4808529826
  0
LINE
  5
2EC
100
AcDbEntity
  8
0
100
AcDbLine
 62
7
  6
CONTINUOUS
 10
36.0925222986
 20
72.5478706295
 11
35.9692124323
 21
72.8224108481
  0
LINE
  5
2ED
100
AcDbEntity
  8
0
100
AcDbLine
 62
7
  6
CONTINUOUS
 10
36.6324084736
 20
74.3799761529
 11
37.2958722093
 21
72.6696343688
  0
LINE
  5
2EE
100
AcDbEntity
  8
0
100
AcDbLine
 62
7
  6
CONTINUOUS
 10
54.9582141777
 20
20.2335771268
 11
54.7620625716
 21
20.9656351239
  0
LINE
  5
2EF
100
AcDbEntity
  8
0
100
AcDbLine
 62
7
  6
CONTINUOUS
 10
39.1157089897
 20
80.0245691784
 11
38.8231161796
 21
81.4925342559
  0
LINE
  5
2F0
100
AcDbEntity
  8
0
100
AcDbLine
 62
7
  6
CONTINUOUS
 10
54.7620625716
 20
87.7555328451
 11
54.9582141777
 21
88.7140858553
  0
LINE
  5
2F1
100
AcDbEntity
  8
0
100
AcDbLine
 62
7
  6
CONTINUOUS
 10
58.784255992
 20
99.549054245
 11
58.3040630845
 21
97.2024491556
  0
LINE
  5
2F2
100
AcDbEntity
  8
0
100
AcDbLine
 62
7
  6
CONTINUOUS
 10
27.6438409473
 20
19.1579095109
 11
27.1135086534
 21
18.3660060165
  0
LINE
  5
2F3
100
AcDbEntity
  8
0
100
AcDbLine
 62
7
  6
CONTINUOUS
 10
30.9304065744
 20
69.0554678103
 11
31.7804328394
 21
68.5647160197
  0
LINE
  5
2F4
100
AcDbEntity
  8
0
100
AcDbLine
 62
7
  6
CONTINUOUS
 10
31.6134164326
 20
69.238475006
 11
31.7804328394
 21
69.1420502201
  0
LINE
  5
2F5
100
AcDbEntity
  8
0
100
AcDbLine
 62
7
  6
CONTINUOUS
 10
31.0768161263
 20
69.7709415175
 11
31.7804328394
 21
69.3647174088
  0
LINE
  5
2F6
100
AcDbEntity
  8
0
100
AcDbLine
 62
7
  6
CONTINUOUS
 10
40.1242875582
 20
74.3026109843
 11
39.4608238225
 21
76.0129527684
  0
LINE
  5
2F7
100
AcDbEntity
  8
0
100
AcDbLine
 62
7
  6
CONTINUOUS
 10
31.7804328394
 20
74.8953990334
 11
32.4875425645
 21
74.4871122736
  0
LINE
  5
2F8
100
AcDbEntity
  8
0
100
AcDbLine
 62
7
  6
CONTINUOUS
 10
26.4063989282
 20
77.9980287678
 11
27.1135086534
 21
77.5897880133
  0
LINE
  5
2F9
100
AcDbEntity
  8
0
100
AcDbLine
 62
7
  6
CONTINUOUS
 10
36.5887624841
 20
72.2613727062
 11
36.0925222986
 21
72.5478706295
  0
LINE
  5
2FA
100
AcDbEntity
  8
0
100
AcDbLine
 62
7
  6
CONTINUOUS
 10
35.938221537
 20
73.2493310132
 11
34.4674333087
 21
74.1874772258
  0
LINE
  5
2FB
100
AcDbEntity
  8
0
100
AcDbLine
 62
7
  6
CONTINUOUS
 10
13.3457005406
 20
27.1647047442
 11
12.9204729892
 21
27.0056442495
  0
LINE
  5
2FC
100
AcDbEntity
  8
0
100
AcDbLine
 62
7
  6
CONTINUOUS
 10
31.6134164326
 20
69.238475006
 11
30.9304065744
 21
69.0554678103
  0
LINE
  5
2FD
100
AcDbEntity
  8
0
100
AcDbLine
 62
7
  6
CONTINUOUS
 10
34.4674333087
 20
75.6300578886
 11
36.6324084736
 21
74.3799761529
  0
LINE
  5
2FE
100
AcDbEntity
  8
0
100
AcDbLine
 62
7
  6
CONTINUOUS
 10
48.3919400969
 20
90.0810092785
 11
48.5879849832
 21
89.097434027
  0
LINE
  5
2FF
100
AcDbEntity
  8
0
100
AcDbLine
 62
7
  6
CONTINUOUS
 10
49.6806214706
 20
89.390197502
 11
49.3880286605
 21
90.8581625794
  0
LINE
  5
300
100
AcDbEntity
  8
0
100
AcDbLine
 62
7
  6
CONTINUOUS
 10
62.237613104
 20
70.7619957844
 11
61.7489196788
 21
67.2795405033
  0
LINE
  5
301
100
AcDbEntity
  8
0
100
AcDbLine
 62
7
  6
CONTINUOUS
 10
66.5743825593
 20
77.021867923
 11
65.9476961415
 21
75.1081943829
  0
LINE
  5
302
100
AcDbEntity
  8
0
100
AcDbLine
 62
7
  6
CONTINUOUS
 10
64.3072152391
 20
44.7669809292
 11
63.4586906345
 21
44.2770879446
  0
LINE
  5
303
100
AcDbEntity
  8
0
100
AcDbLine
 62
7
  6
CONTINUOUS
 10
15.7852290923
 20
25.7562741411
 11
15.360001541
 21
25.5972136464
  0
LINE
  5
304
100
AcDbEntity
  8
0
100
AcDbLine
 62
7
  6
CONTINUOUS
 10
18.6127062766
 20
23.7193061756
 11
19.037933828
 21
23.8783666703
  0
LINE
  5
305
100
AcDbEntity
  8
0
100
AcDbLine
 62
7
  6
CONTINUOUS
 10
41.300299325
 20
77.7415002172
 11
41.9712492384
 21
77.9212760442
  0
LINE
  5
306
100
AcDbEntity
  8
0
100
AcDbLine
 62
7
  6
CONTINUOUS
 10
37.2958486576
 20
77.2632185253
 11
39.4608238225
 21
76.013297808
  0
LINE
  5
307
100
AcDbEntity
  8
0
100
AcDbLine
 62
7
  6
CONTINUOUS
 10
39.7624445338
 20
77.8293596195
 11
40.7872529855
 21
77.2376995692
  0
LINE
  5
308
100
AcDbEntity
  8
0
100
AcDbLine
 62
7
  6
CONTINUOUS
 10
33.1238853818
 20
81.8763482296
 11
33.8309951069
 21
81.4681074751
  0
LINE
  5
309
100
AcDbEntity
  8
0
100
AcDbLine
 62
7
  6
CONTINUOUS
 10
38.4979192929
 20
78.7737184952
 11
39.205029018
 21
78.3654777407
  0
LINE
  5
30A
100
AcDbEntity
  8
0
100
AcDbLine
 62
7
  6
CONTINUOUS
 10
40.4454543921
 20
78.0123668153
 11
41.2872462173
 21
77.5263690731
  0
LINE
  5
30B
100
AcDbEntity
  8
0
100
AcDbLine
 62
7
  6
CONTINUOUS
 10
39.9088540858
 20
78.5448333267
 11
41.300299325
 21
77.7415002172
  0
LINE
  5
30C
100
AcDbEntity
  8
0
100
AcDbLine
 62
7
  6
CONTINUOUS
 10
41.9997079892
 20
77.9377066135
 11
41.4101064889
 21
78.2781054976
  0
LINE
  5
30D
100
AcDbEntity
  8
0
100
AcDbLine
 62
7
  6
CONTINUOUS
 10
37.7960423657
 20
80.8995564526
 11
37.9495185086
 21
80.8109489647
  0
LINE
  5
30E
100
AcDbEntity
  8
0
100
AcDbLine
 62
7
  6
CONTINUOUS
 10
42.3094904087
 20
78.2937749606
 11
42.4629665516
 21
78.2051674727
  0
LINE
  5
30F
100
AcDbEntity
  8
0
100
AcDbLine
 62
7
  6
CONTINUOUS
 10
63.4586906345
 20
44.2770879446
 11
63.4586906345
 21
66.2924261133
  0
LINE
  5
310
100
AcDbEntity
  8
0
100
AcDbLine
 62
7
  6
CONTINUOUS
 10
63.4586906345
 20
71.2183608859
 11
63.4586906345
 21
73.6711749613
  0
LINE
  5
311
100
AcDbEntity
  8
0
100
AcDbLine
 62
7
  6
CONTINUOUS
 10
64.3072152391
 20
42.7257248864
 11
64.3072152391
 21
44.7669809292
  0
LINE
  5
312
100
AcDbEntity
  8
0
100
AcDbLine
 62
7
  6
CONTINUOUS
 10
64.0760983893
 20
69.7005698226
 11
63.5874049642
 21
66.2181145415
  0
LINE
  5
313
100
AcDbEntity
  8
0
100
AcDbLine
 62
7
  6
CONTINUOUS
 10
64.1979083078
 20
66.5089168858
 11
64.5883718987
 21
69.2913811556
  0
LINE
  5
314
100
AcDbEntity
  8
0
100
AcDbLine
 62
7
  6
CONTINUOUS
 10
67.3472044217
 20
82.5290375259
 11
66.5743825593
 21
77.021867923
  0
LINE
  5
315
100
AcDbEntity
  8
0
100
AcDbLine
 62
7
  6
CONTINUOUS
 10
37.2958722093
 20
9.3515281105
 11
36.6324084736
 21
8.407270928
  0
LINE
  5
316
100
AcDbEntity
  8
0
100
AcDbLine
 62
7
  6
CONTINUOUS
 10
29.8362071377
 20
15.9621213365
 11
31.0778430598
 21
17.063143728
  0
LINE
  5
317
100
AcDbEntity
  8
0
100
AcDbLine
 62
7
  6
CONTINUOUS
 10
67.3472044217
 20
44.4808529826
 11
64.3072152391
 21
42.7257248864
  0
LINE
  5
318
100
AcDbEntity
  8
0
100
AcDbLine
 62
7
  6
CONTINUOUS
 10
22.4466680761
 20
17.4137394982
 11
32.4875425645
 21
23.2108064832
  0
LINE
  5
319
100
AcDbEntity
  8
0
100
AcDbLine
 62
7
  6
CONTINUOUS
 10
28.9437696378
 20
20.9658641846
 11
27.6438409473
 21
20.2153544851
  0
LINE
  5
31A
100
AcDbEntity
  8
0
100
AcDbLine
 62
7
  6
CONTINUOUS
 10
27.6438409473
 20
19.1579095109
 11
29.1891478225
 21
20.0500875257
  0
LINE
  5
31B
100
AcDbEntity
  8
0
100
AcDbLine
 62
7
  6
CONTINUOUS
 10
27.1135086534
 20
18.3660060165
 11
28.9136239394
 21
19.4052968577
  0
LINE
  5
31C
100
AcDbEntity
  8
0
100
AcDbLine
 62
7
  6
CONTINUOUS
 10
40.4454543921
 20
78.0123668153
 11
39.7624445338
 21
77.8293596195
  0
LINE
  5
31D
100
AcDbEntity
  8
0
100
AcDbLine
 62
7
  6
CONTINUOUS
 10
37.2810145925
 20
78.3827204587
 11
29.8362071377
 21
76.3879420252
  0
LINE
  5
31E
100
AcDbEntity
  8
0
100
AcDbLine
 62
7
  6
CONTINUOUS
 10
38.1574360755
 20
79.7678073811
 11
39.1157089897
 21
80.0245691785
  0
LINE
  5
31F
100
AcDbEntity
  8
0
100
AcDbLine
 62
7
  6
CONTINUOUS
 10
61.7489196788
 20
67.2795405033
 11
63.5874049642
 21
66.2181145415
  0
LINE
  5
320
100
AcDbEntity
  8
0
100
AcDbLine
 62
7
  6
CONTINUOUS
 10
38.1160064545
 20
81.9007750104
 11
38.8231161796
 21
81.4925342559
  0
LINE
  5
321
100
AcDbEntity
  8
0
100
AcDbLine
 62
7
  6
CONTINUOUS
 10
43.4900403656
 20
78.7981452761
 11
44.1971500907
 21
78.3899045216
  0
LINE
  5
322
100
AcDbEntity
  8
0
100
AcDbLine
 62
7
  6
CONTINUOUS
 10
44.3933016968
 20
79.3484575318
 11
38.3121580605
 21
82.8593280207
  0
LINE
  5
323
100
AcDbEntity
  8
0
100
AcDbLine
 62
7
  6
CONTINUOUS
 10
62.237613104
 20
70.7619957844
 11
64.0760983893
 21
69.7005698226
  0
LINE
  5
324
100
AcDbEntity
  8
0
100
AcDbLine
 62
7
  6
CONTINUOUS
 10
65.2971759199
 20
66.8571237577
 11
65.2971759199
 21
70.1569349241
  0
LINE
  5
325
100
AcDbEntity
  8
0
100
AcDbLine
 62
7
  6
CONTINUOUS
 10
67.3472044217
 20
28.6389379733
 11
67.3472044217
 21
44.4808529826
  0
LINE
  5
326
100
AcDbEntity
  8
0
100
AcDbLine
 62
7
  6
CONTINUOUS
 10
67.3472044217
 20
82.5290375259
 11
67.3472044217
 21
86.7748500949
  0
LINE
  5
327
100
AcDbEntity
  8
0
100
AcDbLine
 62
7
  6
CONTINUOUS
 10
39.4608238225
 20
10.0402475435
 11
40.1242875582
 21
10.984504726
  0
LINE
  5
328
100
AcDbEntity
  8
0
100
AcDbLine
 62
7
  6
CONTINUOUS
 10
35.9692124323
 20
10.7306117346
 11
36.0925222986
 21
10.8627692054
  0
LINE
  5
329
100
AcDbEntity
  8
0
100
AcDbLine
 62
7
  6
CONTINUOUS
 10
51.7471828239
 20
87.1509506887
 11
52.4301926822
 21
87.3339578845
  0
LINE
  5
32A
100
AcDbEntity
  8
0
100
AcDbLine
 62
7
  6
CONTINUOUS
 10
50.8923378911
 20
87.4218172868
 11
50.2093280328
 21
87.2388100911
  0
LINE
  5
32B
100
AcDbEntity
  8
0
100
AcDbLine
 62
7
  6
CONTINUOUS
 10
48.1753735367
 20
87.0810857947
 11
49.2680100241
 21
87.3738492696
  0
LINE
  5
32C
100
AcDbEntity
  8
0
100
AcDbLine
 62
7
  6
CONTINUOUS
 10
63.4586906345
 20
71.2183608859
 11
65.2971759199
 21
70.1569349241
  0
LINE
  5
32D
100
AcDbEntity
  8
0
100
AcDbLine
 62
7
  6
CONTINUOUS
 10
41.0441974934
 20
86.8573664721
 11
41.7513072186
 21
86.4491257176
  0
LINE
  5
32E
100
AcDbEntity
  8
0
100
AcDbLine
 62
7
  6
CONTINUOUS
 10
46.4182314046
 20
83.7547367378
 11
47.1253411297
 21
83.3464959833
  0
LINE
  5
32F
100
AcDbEntity
  8
0
100
AcDbLine
 62
7
  6
CONTINUOUS
 10
64.0760983893
 20
69.7005698226
 11
64.5883718987
 21
69.2913811556
  0
LINE
  5
330
100
AcDbEntity
  8
0
100
AcDbLine
 62
7
  6
CONTINUOUS
 10
27.1135086534
 20
11.6163927092
 11
31.7804328394
 21
14.3108265607
  0
LINE
  5
331
100
AcDbEntity
  8
0
100
AcDbLine
 62
7
  6
CONTINUOUS
 10
47.7242378527
 20
87.7742840876
 11
41.1243313956
 21
86.0058903255
  0
LINE
  5
332
100
AcDbEntity
  8
0
100
AcDbLine
 62
7
  6
CONTINUOUS
 10
48.5879849832
 20
89.097434027
 11
49.6806214706
 21
89.390197502
  0
LINE
  5
333
100
AcDbEntity
  8
0
100
AcDbLine
 62
7
  6
CONTINUOUS
 10
67.3472044217
 20
28.6389379733
 11
66.1893593486
 21
24.2971389438
  0
LINE
  5
334
100
AcDbEntity
  8
0
100
AcDbLine
 62
7
  6
CONTINUOUS
 10
39.205029018
 20
15.2498408966
 11
44.1971500907
 21
18.1320261374
  0
LINE
  5
335
100
AcDbEntity
  8
0
100
AcDbLine
 62
7
  6
CONTINUOUS
 10
37.2958486576
 20
12.7325879051
 11
34.4674333087
 21
11.0996112897
  0
LINE
  5
336
100
AcDbEntity
  8
0
100
AcDbLine
 62
7
  6
CONTINUOUS
 10
36.0925222986
 20
10.8627692054
 11
38.9209376475
 21
12.4957458209
  0
LINE
  5
337
100
AcDbEntity
  8
0
100
AcDbLine
 62
7
  6
CONTINUOUS
 10
58.3040630845
 20
97.2024491556
 11
51.7959528216
 21
95.458651472
  0
LINE
  5
338
100
AcDbEntity
  8
0
100
AcDbLine
 62
7
  6
CONTINUOUS
 10
50.2093280328
 20
87.2388100911
 11
51.3311031029
 21
86.5911676041
  0
LINE
  5
339
100
AcDbEntity
  8
0
100
AcDbLine
 62
7
  6
CONTINUOUS
 10
50.8923378911
 20
87.4218172868
 11
51.8310963347
 21
86.8798371079
  0
LINE
  5
33A
100
AcDbEntity
  8
0
100
AcDbLine
 62
7
  6
CONTINUOUS
 10
50.3557375848
 20
87.9542837983
 11
51.7471828239
 21
87.1509506887
  0
LINE
  5
33B
100
AcDbEntity
  8
0
100
AcDbLine
 62
7
  6
CONTINUOUS
 10
52.4765362846
 20
87.3298688399
 11
51.8569899879
 21
87.6875559691
  0
LINE
  5
33C
100
AcDbEntity
  8
0
100
AcDbLine
 62
7
  6
CONTINUOUS
 10
48.2169444029
 20
90.182040804
 11
48.3919400969
 21
90.0810092785
  0
LINE
  5
33D
100
AcDbEntity
  8
0
100
AcDbLine
 62
7
  6
CONTINUOUS
 10
52.7088728948
 20
87.5886833495
 11
52.8838685888
 21
87.4876518241
  0
LINE
  5
33E
100
AcDbEntity
  8
0
100
AcDbLine
 62
7
  6
CONTINUOUS
 10
48.6809189354
 20
91.266403334
 11
49.3880286605
 21
90.8581625794
  0
LINE
  5
33F
100
AcDbEntity
  8
0
100
AcDbLine
 62
7
  6
CONTINUOUS
 10
54.0549528465
 20
88.1637735996
 11
54.7620625716
 21
87.7555328451
  0
LINE
  5
340
100
AcDbEntity
  8
0
100
AcDbLine
 62
7
  6
CONTINUOUS
 10
65.589195488
 20
97.2725533039
 11
67.3472044217
 21
86.7748500949
  0
LINE
  5
341
100
AcDbEntity
  8
0
100
AcDbLine
 62
7
  6
CONTINUOUS
 10
32.4875425645
 20
8.5137629749
 11
34.4674333087
 21
9.6568466057
  0
LINE
  5
342
100
AcDbEntity
  8
0
100
AcDbLine
 62
7
  6
CONTINUOUS
 10
39.1527609232
 20
12.3619056181
 11
39.205029018
 21
12.3920824366
  0
LINE
  5
343
100
AcDbEntity
  8
0
100
AcDbLine
 62
7
  6
CONTINUOUS
 10
36.5887624841
 20
10.5762712821
 11
39.417177833
 21
12.2092478976
  0
LINE
  5
344
100
AcDbEntity
  8
0
100
AcDbLine
 62
7
  6
CONTINUOUS
 10
47.1253411297
 20
16.5565982621
 11
54.7620625716
 21
20.9656351239
  0
LINE
  5
345
100
AcDbEntity
  8
0
100
AcDbLine
 62
7
  6
CONTINUOUS
 10
37.2958722093
 20
9.3515281105
 11
40.1242875582
 21
10.984504726
  0
LINE
  5
346
100
AcDbEntity
  8
0
100
AcDbLine
 62
7
  6
CONTINUOUS
 10
36.6324084736
 20
8.4069258884
 11
39.4608238225
 21
10.0399025039
  0
LINE
  5
347
100
AcDbEntity
  8
0
100
AcDbLine
 62
7
  6
CONTINUOUS
 10
57.6902536106
 20
19.3902072485
 11
66.1893593486
 21
24.2971389438
  0
LINE
  5
348
100
AcDbEntity
  8
0
100
AcDbLine
 62
7
  6
CONTINUOUS
 10
54.9582141777
 20
88.7140858553
 11
48.8770705414
 21
92.2249563442
  0
LINE
  5
349
100
AcDbEntity
  8
0
100
AcDbLine
 62
7
  6
CONTINUOUS
 10
51.6091099743
 20
96.2229947957
 11
52.3162196995
 21
95.8147540411
  0
LINE
  5
34A
100
AcDbEntity
  8
0
100
AcDbLine
 62
7
  6
CONTINUOUS
 10
56.9831438854
 20
93.1203650613
 11
57.6902536106
 21
92.7121243068
  0
LINE
  5
34B
100
AcDbEntity
  8
0
100
AcDbLine
 62
7
  6
CONTINUOUS
 10
58.784255992
 20
99.549054245
 11
63.451180178
 21
96.8546652652
  0
LINE
  5
34C
100
AcDbEntity
  8
0
100
AcDbLine
 62
7
  6
CONTINUOUS
 10
59.5080518517
 20
100.7834237928
 11
65.589195488
 21
97.2725533039
  0
ARC
  5
34D
100
AcDbEntity
  8
0
100
AcDbCircle
 62
7
  6
CONTINUOUS
 10
31.6470108004
 20
39.3804527457
 40
16.6218181423
100
AcDbArc
 50
155.5078929431
 51
156.2404012129
  0
ARC
  5
34E
100
AcDbEntity
  8
0
100
AcDbCircle
 62
7
  6
CONTINUOUS
 10
34.4754497006
 20
37.7474897278
 40
16.6218181419
100
AcDbArc
 50
155.5078929432
 51
156.2404012129
  0
ARC
  5
34F
100
AcDbEntity
  8
0
100
AcDbCircle
 62
7
  6
CONTINUOUS
 10
25.9621143456
 20
28.4204175761
 40
12.0827960174
100
AcDbArc
 50
142.6244387956
 51
143.1384196247
  0
ARC
  5
350
100
AcDbEntity
  8
0
100
AcDbCircle
 62
7
  6
CONTINUOUS
 10
25.8731292963
 20
28.488563492
 40
11.9707148591
100
AcDbArc
 50
141.7160889939
 51
142.6250923671
  0
ARC
  5
351
100
AcDbEntity
  8
0
100
AcDbCircle
 62
7
  6
CONTINUOUS
 10
30.518587722
 20
41.6133609801
 40
11.9344009518
100
AcDbArc
 50
185.535642203
 51
185.9260041963
  0
ARC
  5
352
100
AcDbEntity
  8
0
100
AcDbCircle
 62
7
  6
CONTINUOUS
 10
40.9237271161
 20
77.6408630253
 40
3.7174866484
100
AcDbArc
 50
168.4888358793
 51
173.0611064267
  0
ARC
  5
353
100
AcDbEntity
  8
0
100
AcDbCircle
 62
7
  6
CONTINUOUS
 10
29.8181461527
 20
13.9182782517
 40
3.4280719597
100
AcDbArc
 50
64.4115075217
 51
64.8199431553
  0
ARC
  5
354
100
AcDbEntity
  8
0
100
AcDbCircle
 62
7
  6
CONTINUOUS
 10
49.5190531342
 20
85.9447176008
 40
3.4007781448
100
AcDbArc
 50
25.8475331181
 51
27.7947015525
  0
ARC
  5
355
100
AcDbEntity
  8
0
100
AcDbCircle
 62
7
  6
CONTINUOUS
 10
29.8667796215
 20
14.0221299889
 40
3.3133969119
100
AcDbArc
 50
64.8169494423
 51
65.7512449911
  0
ARC
  5
356
100
AcDbEntity
  8
0
100
AcDbCircle
 62
7
  6
CONTINUOUS
 10
32.8147680512
 20
21.2147701582
 40
3.2967773798
100
AcDbArc
 50
239.9976512816
 51
240.8644557761
  0
ARC
  5
357
100
AcDbEntity
  8
0
100
AcDbCircle
 62
7
  6
CONTINUOUS
 10
43.3985744111
 20
77.8025757959
 40
2.9605624666
100
AcDbArc
 50
171.8563460103
 51
175.9365078112
  0
ARC
  5
358
100
AcDbEntity
  8
0
100
AcDbCircle
 62
7
  6
CONTINUOUS
 10
53.8454579101
 20
87.2120262674
 40
2.9605624666
100
AcDbArc
 50
171.8563460103
 51
175.9365078112
  0
ARC
  5
359
100
AcDbEntity
  8
0
100
AcDbCircle
 62
7
  6
CONTINUOUS
 10
34.5665364517
 20
69.0286839866
 40
2.9605624666
100
AcDbArc
 50
171.8563460103
 51
175.9365078112
  0
ARC
  5
35A
100
AcDbEntity
  8
0
100
AcDbCircle
 62
7
  6
CONTINUOUS
 10
40.7175350725
 20
77.6078791179
 40
2.0452859113
100
AcDbArc
 50
152.1902682508
 51
152.8357211992
  0
ARC
  5
35B
100
AcDbEntity
  8
0
100
AcDbCircle
 62
7
  6
CONTINUOUS
 10
27.26482311
 20
55.4407592073
 40
1.7136249868
100
AcDbArc
 50
308.7255421985
 51
309.8079136602
  0
ARC
  5
35C
100
AcDbEntity
  8
0
100
AcDbCircle
 62
7
  6
CONTINUOUS
 10
17.3492551261
 20
20.5396815054
 40
0.9505927927
100
AcDbArc
 50
341.0847282195
 51
346.2658326679
  0
SPLINE
  5
35D
100
AcDbEntity
  8
0
100
AcDbSpline
 62
7
  6
CONTINUOUS
 70
0
 71
3
 72
15
 73
11
 74
0
 42
0.0000001
 43
0.0000001
 44
0.0000000001
 40
0.0
 40
0.0
 40
0.0
 40
0.0
 40
0.1141229605
 40
0.2373462928
 40
0.366971064
 40
0.4999983279
 40
0.633025824
 40
0.762651271
 40
0.8858756957
 40
1.0
 40
1.0
 40
1.0
 40
1.0
 10
16.3655244398
 20
57.5039182745
 30
0.0
 10
16.2687375571
 20
57.4480386753
 30
0.0
 10
16.0775232673
 20
57.3139460812
 30
0.0
 10
15.8143680507
 20
57.0678316923
 30
0.0
 10
15.5719105452
 20
56.7767924132
 30
0.0
 10
15.359186764
 20
56.4519392265
 30
0.0
 10
15.1842189051
 20
56.10528701
 30
0.0
 10
15.0534010093
 20
55.7497906572
 30
0.0
 10
14.97183751
 20
55.3988312055
 30
0.0
 10
14.9513167654
 20
55.1661861472
 30
0.0
 10
14.9513167654
 20
55.0544251325
 30
0.0
  0
SPLINE
  5
35E
100
AcDbEntity
  8
0
100
AcDbSpline
 62
7
  6
CONTINUOUS
 70
0
 71
3
 72
11
 73
7
 74
0
 42
0.0000001
 43
0.0000001
 44
0.0000000001
 40
0.0
 40
0.0
 40
0.0
 40
0.0
 40
0.2177833598
 40
0.4509104088
 40
0.7102966711
 40
1.0
 40
1.0
 40
1.0
 40
1.0
 10
30.7219586763
 20
65.1290941259
 30
0.0
 10
30.8060744868
 20
65.1776581369
 30
0.0
 10
30.9634517109
 20
65.3099648552
 30
0.0
 10
31.1309984182
 20
65.5839113507
 30
0.0
 10
31.2305113093
 20
65.9215152782
 30
0.0
 10
31.2501005455
 20
66.1672334894
 30
0.0
 10
31.2501005455
 20
66.2964372576
 30
0.0
  0
SPLINE
  5
35F
100
AcDbEntity
  8
0
100
AcDbSpline
 62
7
  6
CONTINUOUS
 70
0
 71
3
 72
16
 73
12
 74
0
 42
0.0000001
 43
0.0000001
 44
0.0000000001
 40
0.0
 40
0.0
 40
0.0
 40
0.0
 40
0.0428709623
 40
0.0875081633
 40
0.1869134114
 40
0.3042309522
 40
0.4379572887
 40
0.5823696672
 40
0.7295585447
 40
0.8712879351
 40
1.0
 40
1.0
 40
1.0
 40
1.0
 10
36.2749066389
 20
55.5618796755
 30
0.0
 10
36.2909383575
 20
55.5526176054
 30
0.0
 10
36.3213393533
 20
55.5293624779
 30
0.0
 10
36.3718191663
 20
55.4654700272
 30
0.0
 10
36.4095098188
 20
55.3558844577
 30
0.0
 10
36.4128352455
 20
55.2030788381
 30
0.0
 10
36.3785824386
 20
55.0345659017
 30
0.0
 10
36.3093681526
 20
54.863446445
 30
0.0
 10
36.2109415489
 20
54.7032169234
 30
0.0
 10
36.091262391
 20
54.5671434482
 30
0.0
 10
35.9978006637
 20
54.4951771882
 30
0.0
 10
35.949660347
 20
54.4673835293
 30
0.0
  0
SPLINE
  5
360
100
AcDbEntity
  8
0
100
AcDbSpline
 62
7
  6
CONTINUOUS
 70
0
 71
3
 72
15
 73
11
 74
0
 42
0.0000001
 43
0.0000001
 44
0.0000000001
 40
0.0
 40
0.0
 40
0.0
 40
0.0
 40
0.1116695005
 40
0.2310971781
 40
0.3565599721
 40
0.4861351475
 40
0.6175745627
 40
0.7485243099
 40
0.8767581595
 40
1.0
 40
1.0
 40
1.0
 40
1.0
 10
51.6091099743
 20
96.2229947957
 30
0.0
 10
51.4488949205
 20
96.1304951434
 30
0.0
 10
51.1311029199
 20
95.9146454351
 30
0.0
 10
50.6850786844
 20
95.5255822095
 30
0.0
 10
50.2633864322
 20
95.0690410115
 30
0.0
 10
49.8770513679
 20
94.5572238432
 30
0.0
 10
49.5362287148
 20
94.0033781928
 30
0.0
 10
49.2497007005
 20
93.4220324846
 30
0.0
 10
49.0252195378
 20
92.8285538519
 30
0.0
 10
48.9180026044
 20
92.4249830123
 30
0.0
 10
48.8770705414
 20
92.2249563442
 30
0.0
  0
SPLINE
  5
361
100
AcDbEntity
  8
0
100
AcDbSpline
 62
7
  6
CONTINUOUS
 70
0
 71
3
 72
15
 73
11
 74
0
 42
0.0000001
 43
0.0000001
 44
0.0000000001
 40
0.0
 40
0.0
 40
0.0
 40
0.0
 40
0.1116695005
 40
0.2310971781
 40
0.3565599721
 40
0.4861351475
 40
0.6175745627
 40
0.7485243099
 40
0.8767581595
 40
1.0
 40
1.0
 40
1.0
 40
1.0
 10
41.0441974934
 20
86.8573664721
 30
0.0
 10
40.8839824396
 20
86.7648668199
 30
0.0
 10
40.566190439
 20
86.5490171116
 30
0.0
 10
40.1201662035
 20
86.159953886
 30
0.0
 10
39.6984739513
 20
85.703412688
 30
0.0
 10
39.312138887
 20
85.1915955197
 30
0.0
 10
38.9713162339
 20
84.6377498693
 30
0.0
 10
38.6847882197
 20
84.0564041611
 30
0.0
 10
38.4603070569
 20
83.4629255284
 30
0.0
 10
38.3530901235
 20
83.0593546888
 30
0.0
 10
38.3121580605
 20
82.8593280207
 30
0.0
  0
SPLINE
  5
362
100
AcDbEntity
  8
0
100
AcDbSpline
 62
7
  6
CONTINUOUS
 70
0
 71
3
 72
9
 73
5
 74
0
 42
0.0000001
 43
0.0000001
 44
0.0000000001
 40
0.0
 40
0.0
 40
0.0
 40
0.0
 40
0.2620608674
 40
1.0
 40
1.0
 40
1.0
 40
1.0
 10
31.8068310546
 20
69.5823687008
 30
0.0
 10
31.7596303198
 20
69.6396824757
 30
0.0
 10
31.5711883607
 20
69.8511801032
 30
0.0
 10
31.3473282434
 20
70.0327659394
 30
0.0
 10
31.1662623243
 20
70.1373020316
 30
0.0
  0
SPLINE
  5
363
100
AcDbEntity
  8
0
100
AcDbSpline
 62
7
  6
CONTINUOUS
 70
0
 71
3
 72
11
 73
7
 74
0
 42
0.0000001
 43
0.0000001
 44
0.0000000001
 40
0.0
 40
0.0
 40
0.0
 40
0.0
 40
0.2661130167
 40
0.5193751651
 40
0.7624040347
 40
1.0
 40
1.0
 40
1.0
 40
1.0
 10
31.1662623243
 20
70.1373020316
 30
0.0
 10
31.0763949302
 20
70.1891858219
 30
0.0
 10
30.8924615678
 20
70.276681075
 30
0.0
 10
30.6036885886
 20
70.354472265
 30
0.0
 10
30.3160818298
 20
70.3724773704
 30
0.0
 10
30.1291120861
 20
70.3437852257
 30
0.0
 10
30.0396210193
 20
70.3198011421
 30
0.0
  0
SPLINE
  5
364
100
AcDbEntity
  8
0
100
AcDbSpline
 62
7
  6
CONTINUOUS
 70
0
 71
3
 72
9
 73
5
 74
0
 42
0.0000001
 43
0.0000001
 44
0.0000000001
 40
0.0
 40
0.0
 40
0.0
 40
0.0
 40
0.5241661616
 40
1.0
 40
1.0
 40
1.0
 40
1.0
 10
42.0131017487
 20
77.9511168165
 30
0.0
 10
41.8915077376
 20
78.2085677983
 30
0.0
 10
41.5984842599
 20
78.673990522
 30
0.0
 10
41.1804139216
 20
79.0387240596
 30
0.0
 10
40.9565731979
 20
79.1679556381
 30
0.0
  0
SPLINE
  5
365
100
AcDbEntity
  8
0
100
AcDbSpline
 62
7
  6
CONTINUOUS
 70
0
 71
3
 72
11
 73
7
 74
0
 42
0.0000001
 43
0.0000001
 44
0.0000000001
 40
0.0
 40
0.0
 40
0.0
 40
0.0
 40
0.2660893622
 40
0.5193751535
 40
0.76241305
 40
1.0
 40
1.0
 40
1.0
 40
1.0
 10
40.9565731979
 20
79.1679556381
 30
0.0
 10
40.8667139551
 20
79.2198347225
 30
0.0
 10
40.6827753351
 20
79.307314572
 30
0.0
 10
40.3940061769
 20
79.3851341173
 30
0.0
 10
40.1063897726
 20
79.4031224328
 30
0.0
 10
39.9194177315
 20
79.3744443218
 30
0.0
 10
39.8299325092
 20
79.3504526617
 30
0.0
  0
SPLINE
  5
366
100
AcDbEntity
  8
0
100
AcDbSpline
 62
7
  6
CONTINUOUS
 70
0
 71
3
 72
9
 73
5
 74
0
 42
0.0000001
 43
0.0000001
 44
0.0000000001
 40
0.0
 40
0.0
 40
0.0
 40
0.0
 40
0.5196360772
 40
1.0
 40
1.0
 40
1.0
 40
1.0
 10
39.9088540858
 20
78.5448333267
 30
0.0
 10
39.961965568
 20
78.6926207724
 30
0.0
 10
40.0933503463
 20
78.9678933352
 30
0.0
 10
40.2891857069
 20
79.2035869131
 30
0.0
 10
40.3974558033
 20
79.3002962242
 30
0.0
  0
SPLINE
  5
367
100
AcDbEntity
  8
0
100
AcDbSpline
 62
7
  6
CONTINUOUS
 70
0
 71
3
 72
9
 73
5
 74
0
 42
0.0000001
 43
0.0000001
 44
0.0000000001
 40
0.0
 40
0.0
 40
0.0
 40
0.0
 40
0.2543887934
 40
1.0
 40
1.0
 40
1.0
 40
1.0
 10
39.8756193453
 20
76.7127988161
 30
0.0
 10
39.8506721022
 20
76.8048904501
 30
0.0
 10
39.7672877818
 20
77.1706363298
 30
0.0
 10
39.7425811666
 20
77.5504175793
 30
0.0
 10
39.7624445338
 20
77.8293596195
 30
0.0
  0
SPLINE
  5
368
100
AcDbEntity
  8
0
100
AcDbSpline
 62
7
  6
CONTINUOUS
 70
0
 71
3
 72
12
 73
8
 74
0
 42
0.0000001
 43
0.0000001
 44
0.0000000001
 40
0.0
 40
0.0
 40
0.0
 40
0.0
 40
0.0994612502
 40
0.202607625
 40
0.4300364485
 40
0.6964667823
 40
1.0
 40
1.0
 40
1.0
 40
1.0
 10
20.6005422355
 20
19.3819600131
 30
0.0
 10
20.585459369
 20
19.3906756562
 30
0.0
 10
20.5524257198
 20
19.4047105313
 30
0.0
 10
20.4775683711
 20
19.4172784609
 30
0.0
 10
20.3716897402
 20
19.4006119934
 30
0.0
 10
20.2454444261
 20
19.3378263486
 30
0.0
 10
20.1673088836
 20
19.2744568808
 30
0.0
 10
20.1290663974
 20
19.2375287183
 30
0.0
  0
SPLINE
  5
369
100
AcDbEntity
  8
0
100
AcDbSpline
 62
7
  6
CONTINUOUS
 70
0
 71
3
 72
9
 73
5
 74
0
 42
0.0000001
 43
0.0000001
 44
0.0000000001
 40
0.0
 40
0.0
 40
0.0
 40
0.0
 40
0.495639548
 40
1.0
 40
1.0
 40
1.0
 40
1.0
 10
14.1297921214
 20
26.7684573589
 30
0.0
 10
14.0134338479
 20
26.8356193896
 30
0.0
 10
13.7896235001
 20
26.9910110656
 30
0.0
 10
13.5941755432
 20
27.1806697942
 30
0.0
 10
13.5036003845
 20
27.283075376
 30
0.0
  0
SPLINE
  5
36A
100
AcDbEntity
  8
0
100
AcDbSpline
 62
7
  6
CONTINUOUS
 70
0
 71
3
 72
17
 73
13
 74
0
 42
0.0000001
 43
0.0000001
 44
0.0000000001
 40
0.0
 40
0.0
 40
0.0
 40
0.0
 40
0.0445927847
 40
0.0913067448
 40
0.1406055116
 40
0.1927862095
 40
0.306145268
 40
0.431271135
 40
0.5663455852
 40
0.7085242662
 40
0.854332672
 40
1.0
 40
1.0
 40
1.0
 40
1.0
 10
13.5036003845
 20
27.283075376
 30
0.0
 10
13.40632454
 20
27.3930568497
 30
0.0
 10
13.2253728036
 20
27.6349225603
 30
0.0
 10
13.0048821703
 20
28.0436276259
 30
0.0
 10
12.8319423309
 20
28.5013267143
 30
0.0
 10
12.6617917504
 20
29.1893655461
 30
0.0
 10
12.5846777889
 20
30.1498794955
 30
0.0
 10
12.6940726804
 20
31.379490158
 30
0.0
 10
12.9974675492
 20
32.67323247
 30
0.0
 10
13.4832350353
 20
33.9823411996
 30
0.0
 10
14.1327287869
 20
35.2572343466
 30
0.0
 10
14.6635922194
 20
36.0597762973
 30
0.0
 10
14.9513167654
 20
36.4435212615
 30
0.0
  0
SPLINE
  5
36B
100
AcDbEntity
  8
0
100
AcDbSpline
 62
7
  6
CONTINUOUS
 70
0
 71
3
 72
12
 73
8
 74
0
 42
0.0000001
 43
0.0000001
 44
0.0000000001
 40
0.0
 40
0.0
 40
0.0
 40
0.0
 40
0.2895594633
 40
0.5486416486
 40
0.7816264989
 40
0.8918342417
 40
1.0
 40
1.0
 40
1.0
 40
1.0
 10
57.6902536106
 20
19.3902072485
 30
0.0
 10
57.5146929062
 20
19.2888478336
 30
0.0
 10
57.165494289
 20
19.1227352036
 30
0.0
 10
56.6291744539
 20
18.9930126692
 30
0.0
 10
56.2009039981
 20
19.0044420472
 30
0.0
 10
55.8951331106
 20
19.0890391179
 30
0.0
 10
55.755890653
 20
19.1542706351
 30
0.0
 10
55.6903065464
 20
19.1921286948
 30
0.0
  0
SPLINE
  5
36C
100
AcDbEntity
  8
0
100
AcDbSpline
 62
7
  6
CONTINUOUS
 70
0
 71
3
 72
12
 73
8
 74
0
 42
0.0000001
 43
0.0000001
 44
0.0000000001
 40
0.0
 40
0.0
 40
0.0
 40
0.0
 40
0.2895594633
 40
0.5486416486
 40
0.7816264989
 40
0.8918342417
 40
1.0
 40
1.0
 40
1.0
 40
1.0
 10
47.1253411297
 20
16.5565982621
 30
0.0
 10
46.9497804253
 20
16.4552388472
 30
0.0
 10
46.6005818081
 20
16.2891262171
 30
0.0
 10
46.064261973
 20
16.1594036827
 30
0.0
 10
45.6359915172
 20
16.1708330607
 30
0.0
 10
45.3302206297
 20
16.2554301314
 30
0.0
 10
45.1909781721
 20
16.3206616486
 30
0.0
 10
45.1253940655
 20
16.3585197084
 30
0.0
  0
SPLINE
  5
36D
100
AcDbEntity
  8
0
100
AcDbSpline
 62
7
  6
CONTINUOUS
 70
0
 71
3
 72
11
 73
7
 74
0
 42
0.0000001
 43
0.0000001
 44
0.0000000001
 40
0.0
 40
0.0
 40
0.0
 40
0.0
 40
0.289702809
 40
0.549088757
 40
0.7822160314
 40
1.0
 40
1.0
 40
1.0
 40
1.0
 10
22.4466680761
 20
17.4137394982
 30
0.0
 10
22.3589116734
 20
17.3630736179
 30
0.0
 10
22.1843359146
 20
17.2800228597
 30
0.0
 10
21.91600921
 20
17.2152243898
 30
0.0
 10
21.6642399774
 20
17.2215969892
 30
0.0
 10
21.5126611442
 20
17.276604787
 30
0.0
 10
21.4466900329
 20
17.3146923718
 30
0.0
  0
SPLINE
  5
36E
100
AcDbEntity
  8
0
100
AcDbSpline
 62
7
  6
CONTINUOUS
 70
0
 71
3
 72
9
 73
5
 74
0
 42
0.0000001
 43
0.0000001
 44
0.0000000001
 40
0.0
 40
0.0
 40
0.0
 40
0.0
 40
0.4792741685
 40
1.0
 40
1.0
 40
1.0
 40
1.0
 10
33.4541074052
 20
57.790816998
 30
0.0
 10
33.0281988284
 20
57.6952791251
 30
0.0
 10
32.1572154892
 20
57.413248878
 30
0.0
 10
31.3395029973
 20
57.0054055012
 30
0.0
 10
30.9288703074
 20
56.7681543945
 30
0.0
  0
SPLINE
  5
36F
100
AcDbEntity
  8
0
100
AcDbSpline
 62
7
  6
CONTINUOUS
 70
0
 71
3
 72
9
 73
5
 74
0
 42
0.0000001
 43
0.0000001
 44
0.0000000001
 40
0.0
 40
0.0
 40
0.0
 40
0.0
 40
0.488151411
 40
1.0
 40
1.0
 40
1.0
 40
1.0
 10
30.9288703074
 20
56.7681543945
 30
0.0
 10
30.6073831808
 20
56.582408889
 30
0.0
 10
29.9669654459
 20
56.1699052492
 30
0.0
 10
29.3638390663
 20
55.7050149746
 30
0.0
 10
29.0647616878
 20
55.4557816332
 30
0.0
  0
SPLINE
  5
370
100
AcDbEntity
  8
0
100
AcDbSpline
 62
7
  6
CONTINUOUS
 70
0
 71
3
 72
11
 73
7
 74
0
 42
0.0000001
 43
0.0000001
 44
0.0000000001
 40
0.0
 40
0.0
 40
0.0
 40
0.0
 40
0.2494167041
 40
0.5119870524
 40
0.7681852206
 40
1.0
 40
1.0
 40
1.0
 40
1.0
 10
29.0647616878
 20
55.4557816332
 30
0.0
 10
28.95030235
 20
55.3603980125
 30
0.0
 10
28.7393103844
 20
55.1350699837
 30
0.0
 10
28.4954884779
 20
54.7432317532
 30
0.0
 10
28.3337250403
 20
54.3222342415
 30
0.0
 10
28.2890797099
 20
54.0304152414
 30
0.0
 10
28.2890797099
 20
53.8919368382
 30
0.0
  0
SPLINE
  5
371
100
AcDbEntity
  8
0
100
AcDbSpline
 62
7
  6
CONTINUOUS
 70
0
 71
3
 72
11
 73
7
 74
0
 42
0.0000001
 43
0.0000001
 44
0.0000000001
 40
0.0
 40
0.0
 40
0.0
 40
0.0
 40
0.2896009975
 40
0.549115296
 40
0.7822446402
 40
1.0
 40
1.0
 40
1.0
 40
1.0
 10
28.2890797099
 20
53.8919368382
 30
0.0
 10
28.2890797099
 20
53.8210270531
 30
0.0
 10
28.2998762972
 20
53.6861222501
 30
0.0
 10
28.3544561027
 20
53.5007587821
 30
0.0
 10
28.4464355067
 20
53.3503012888
 30
0.0
 10
28.5328913409
 20
53.2777457259
 30
0.0
 10
28.5790580363
 20
53.2510725183
 30
0.0
  0
SPLINE
  5
372
100
AcDbEntity
  8
0
100
AcDbSpline
 62
7
  6
CONTINUOUS
 70
0
 71
3
 72
9
 73
5
 74
0
 42
0.0000001
 43
0.0000001
 44
0.0000000001
 40
0.0
 40
0.0
 40
0.0
 40
0.0
 40
0.4826131243
 40
1.0
 40
1.0
 40
1.0
 40
1.0
 10
44.149323155
 20
16.9220027556
 30
0.0
 10
43.9936407341
 20
17.0118784652
 30
0.0
 10
43.684781668
 20
17.2217925576
 30
0.0
 10
43.3943150392
 20
17.4550884333
 30
0.0
 10
43.2458959288
 20
17.5780149692
 30
0.0
  0
SPLINE
  5
373
100
AcDbEntity
  8
0
100
AcDbSpline
 62
7
  6
CONTINUOUS
 70
0
 71
3
 72
9
 73
5
 74
0
 42
0.0000001
 43
0.0000001
 44
0.0000000001
 40
0.0
 40
0.0
 40
0.0
 40
0.0
 40
0.5229922417
 40
1.0
 40
1.0
 40
1.0
 40
1.0
 10
52.5274634422
 20
87.5305168973
 30
0.0
 10
52.4070435236
 20
87.7589349186
 30
0.0
 10
52.1260609368
 20
88.1715011698
 30
0.0
 10
51.7417813189
 20
88.4956534848
 30
0.0
 10
51.53782027
 20
88.6134077873
 30
0.0
  0
SPLINE
  5
374
100
AcDbEntity
  8
0
100
AcDbSpline
 62
7
  6
CONTINUOUS
 70
0
 71
3
 72
11
 73
7
 74
0
 42
0.0000001
 43
0.0000001
 44
0.0000000001
 40
0.0
 40
0.0
 40
0.0
 40
0.0
 40
0.2660893622
 40
0.5193751535
 40
0.76241305
 40
1.0
 40
1.0
 40
1.0
 40
1.0
 10
51.53782027
 20
88.6134077873
 30
0.0
 10
51.4479610272
 20
88.6652868717
 30
0.0
 10
51.2640224072
 20
88.7527667212
 30
0.0
 10
50.975253249
 20
88.8305862666
 30
0.0
 10
50.6876368447
 20
88.848574582
 30
0.0
 10
50.5006648036
 20
88.819896471
 30
0.0
 10
50.4111795814
 20
88.7959048109
 30
0.0
  0
SPLINE
  5
375
100
AcDbEntity
  8
0
100
AcDbSpline
 62
7
  6
CONTINUOUS
 70
0
 71
3
 72
9
 73
5
 74
0
 42
0.0000001
 43
0.0000001
 44
0.0000000001
 40
0.0
 40
0.0
 40
0.0
 40
0.0
 40
0.4840313188
 40
1.0
 40
1.0
 40
1.0
 40
1.0
 10
54.6876871158
 20
19.7709347624
 30
0.0
 10
54.5352127913
 20
19.8589574445
 30
0.0
 10
54.2327541706
 20
20.0624948973
 30
0.0
 10
53.9471200197
 20
20.2878123447
 30
0.0
 10
53.8014828029
 20
20.4061828291
 30
0.0
  0
SPLINE
  5
376
100
AcDbEntity
  8
0
100
AcDbSpline
 62
7
  6
CONTINUOUS
 70
0
 71
3
 72
9
 73
5
 74
0
 42
0.0000001
 43
0.0000001
 44
0.0000000001
 40
0.0
 40
0.0
 40
0.0
 40
0.0
 40
0.5213594518
 40
1.0
 40
1.0
 40
1.0
 40
1.0
 10
50.3557375848
 20
87.9542837983
 30
0.0
 10
50.4136748045
 20
88.1154992901
 30
0.0
 10
50.5594167259
 20
88.4141258914
 30
0.0
 10
50.7824434124
 20
88.6632144677
 30
0.0
 10
50.905377293
 20
88.7613071799
 30
0.0
  0
SPLINE
  5
377
100
AcDbEntity
  8
0
100
AcDbSpline
 62
7
  6
CONTINUOUS
 70
0
 71
3
 72
9
 73
5
 74
0
 42
0.0000001
 43
0.0000001
 44
0.0000000001
 40
0.0
 40
0.0
 40
0.0
 40
0.0
 40
0.2542759059
 40
1.0
 40
1.0
 40
1.0
 40
1.0
 10
50.3497206204
 20
86.0270913309
 30
0.0
 10
50.3198055067
 20
86.1263862627
 30
0.0
 10
50.2194323689
 20
86.5217763347
 30
0.0
 10
50.1877254054
 20
86.9354435527
 30
0.0
 10
50.2093280328
 20
87.2388100911
 30
0.0
  0
SPLINE
  5
378
100
AcDbEntity
  8
0
100
AcDbSpline
 62
7
  6
CONTINUOUS
 70
0
 71
3
 72
13
 73
9
 74
0
 42
0.0000001
 43
0.0000001
 44
0.0000000001
 40
0.0
 40
0.0
 40
0.0
 40
0.0
 40
0.1096525105
 40
0.2272601263
 40
0.3528280436
 40
0.4841585136
 40
0.7499736502
 40
1.0
 40
1.0
 40
1.0
 40
1.0
 10
53.5040116811
 20
90.527479581
 30
0.0
 10
53.6360499704
 20
90.5628570348
 30
0.0
 10
53.902912519
 20
90.6629204574
 30
0.0
 10
54.2870374776
 20
90.879642708
 30
0.0
 10
54.6654287164
 20
91.1543148916
 30
0.0
 10
55.1622868868
 20
91.5765477724
 30
0.0
 10
55.7429915376
 20
92.1365311035
 30
0.0
 10
56.2187087922
 20
92.5705308097
 30
0.0
 10
56.4628770076
 20
92.7642624921
 30
0.0
  0
SPLINE
  5
379
100
AcDbEntity
  8
0
100
AcDbSpline
 62
7
  6
CONTINUOUS
 70
0
 71
3
 72
9
 73
5
 74
0
 42
0.0000001
 43
0.0000001
 44
0.0000000001
 40
0.0
 40
0.0
 40
0.0
 40
0.0
 40
0.2407780964
 40
1.0
 40
1.0
 40
1.0
 40
1.0
 10
46.4182314046
 20
83.7547367378
 30
0.0
 10
46.3648233072
 20
83.7239017424
 30
0.0
 10
46.1461637532
 20
83.5904001343
 30
0.0
 10
45.9401651321
 20
83.4365619984
 30
0.0
 10
45.7912555816
 20
83.3115013456
 30
0.0
  0
SPLINE
  5
37A
100
AcDbEntity
  8
0
100
AcDbSpline
 62
7
  6
CONTINUOUS
 70
0
 71
3
 72
9
 73
5
 74
0
 42
0.0000001
 43
0.0000001
 44
0.0000000001
 40
0.0
 40
0.0
 40
0.0
 40
0.0
 40
0.2421847717
 40
1.0
 40
1.0
 40
1.0
 40
1.0
 10
56.9831438854
 20
93.1203650613
 30
0.0
 10
56.9390435205
 20
93.0949038557
 30
0.0
 10
56.7590878353
 20
92.9860871892
 30
0.0
 10
56.5877001014
 20
92.8633015417
 30
0.0
 10
56.4628770076
 20
92.7642624921
 30
0.0
  0
SPLINE
  5
37B
100
AcDbEntity
  8
0
100
AcDbSpline
 62
7
  6
CONTINUOUS
 70
0
 71
3
 72
13
 73
9
 74
0
 42
0.0000001
 43
0.0000001
 44
0.0000000001
 40
0.0
 40
0.0
 40
0.0
 40
0.0
 40
0.1087586332
 40
0.2253217857
 40
0.3499182539
 40
0.4806425069
 40
0.7470631996
 40
1.0
 40
1.0
 40
1.0
 40
1.0
 10
42.9157790727
 20
81.0970618138
 30
0.0
 10
43.0440094967
 20
81.1314212215
 30
0.0
 10
43.3031552282
 20
81.2283044284
 30
0.0
 10
43.6763761974
 20
81.4384298819
 30
0.0
 10
44.0441205015
 20
81.7057729696
 30
0.0
 10
44.5282893808
 20
82.1201597373
 30
0.0
 10
45.0945476715
 20
82.6761781407
 30
0.0
 10
45.5548320526
 20
83.1129426851
 30
0.0
 10
45.7912555816
 20
83.3115013456
 30
0.0
  0
SPLINE
  5
37C
100
AcDbEntity
  8
0
100
AcDbSpline
 62
7
  6
CONTINUOUS
 70
0
 71
3
 72
9
 73
5
 74
0
 42
0.0000001
 43
0.0000001
 44
0.0000000001
 40
0.0
 40
0.0
 40
0.0
 40
0.0
 40
0.2524785326
 40
1.0
 40
1.0
 40
1.0
 40
1.0
 10
31.2506360243
 20
67.3726762478
 30
0.0
 10
31.189144591
 20
67.5040057336
 30
0.0
 10
30.9791900517
 20
68.0389972953
 30
0.0
 10
30.8999104063
 20
68.6272089343
 30
0.0
 10
30.9304065744
 20
69.0554678103
 30
0.0
  0
SPLINE
  5
37D
100
AcDbEntity
  8
0
100
AcDbSpline
 62
7
  6
CONTINUOUS
 70
0
 71
3
 72
9
 73
5
 74
0
 42
0.0000001
 43
0.0000001
 44
0.0000000001
 40
0.0
 40
0.0
 40
0.0
 40
0.0
 40
0.2551372379
 40
1.0
 40
1.0
 40
1.0
 40
1.0
 10
31.0768161263
 20
69.7709415175
 30
0.0
 10
31.0868739634
 20
69.798928348
 30
0.0
 10
31.1284191238
 20
69.9078402644
 30
0.0
 10
31.1785633232
 20
70.01352234
 30
0.0
 10
31.2208898389
 20
70.0893287743
 30
0.0
  0
SPLINE
  5
37E
100
AcDbEntity
  8
0
100
AcDbSpline
 62
7
  6
CONTINUOUS
 70
0
 71
3
 72
13
 73
9
 74
0
 42
0.0000001
 43
0.0000001
 44
0.0000000001
 40
0.0
 40
0.0
 40
0.0
 40
0.0
 40
0.3168977625
 40
0.5835672788
 40
0.6995865343
 40
0.8058416754
 40
0.9048684284
 40
1.0
 40
1.0
 40
1.0
 40
1.0
 10
31.2275885545
 20
17.0431890984
 30
0.0
 10
31.1011711466
 20
17.1001228279
 30
0.0
 10
30.8614396681
 20
17.1907493355
 30
0.0
 10
30.5572565482
 20
17.2454835606
 30
0.0
 10
30.3426614012
 20
17.2387565488
 30
0.0
 10
30.2040480354
 20
17.2111343929
 30
0.0
 10
30.0816651514
 20
17.1607983058
 30
0.0
 10
30.0113673755
 20
17.1116020652
 30
0.0
 10
29.9802368393
 20
17.0839758318
 30
0.0
  0
SPLINE
  5
37F
100
AcDbEntity
  8
0
100
AcDbSpline
 62
7
  6
CONTINUOUS
 70
0
 71
3
 72
15
 73
11
 74
0
 42
0.0000001
 43
0.0000001
 44
0.0000000001
 40
0.0
 40
0.0
 40
0.0
 40
0.0
 40
0.1141241598
 40
0.2373483675
 40
0.3669736385
 40
0.5000010132
 40
0.6330282465
 40
0.7626531028
 40
0.8858766831
 40
1.0
 40
1.0
 40
1.0
 40
1.0
 10
31.2501005455
 20
18.133326637
 30
0.0
 10
31.2501005455
 20
18.2758218355
 30
0.0
 10
31.2239364477
 20
18.5724440206
 30
0.0
 10
31.1199421337
 20
19.0199167406
 30
0.0
 10
30.9531479968
 20
19.4731737479
 30
0.0
 10
30.7300621486
 20
19.915154295
 30
0.0
 10
30.4588370579
 20
20.3293408946
 30
0.0
 10
30.1497010743
 20
20.7004146466
 30
0.0
 10
29.8141751981
 20
21.0142089934
 30
0.0
 10
29.5703749948
 20
21.1851758605
 30
0.0
 10
29.4469707464
 20
21.2564217247
 30
0.0
  0
SPLINE
  5
380
100
AcDbEntity
  8
0
100
AcDbSpline
 62
7
  6
CONTINUOUS
 70
0
 71
3
 72
9
 73
5
 74
0
 42
0.0000001
 43
0.0000001
 44
0.0000000001
 40
0.0
 40
0.0
 40
0.0
 40
0.0
 40
0.2563840086
 40
1.0
 40
1.0
 40
1.0
 40
1.0
 10
29.4469707464
 20
21.2564217247
 30
0.0
 10
29.4269630359
 20
21.2679729205
 30
0.0
 10
29.3482749193
 20
21.3118848937
 30
0.0
 10
29.2669579346
 20
21.3511401172
 30
0.0
 10
29.2052016457
 20
21.3771427811
 30
0.0
  0
SPLINE
  5
381
100
AcDbEntity
  8
0
100
AcDbSpline
 62
7
  6
CONTINUOUS
 70
0
 71
3
 72
9
 73
5
 74
0
 42
0.0000001
 43
0.0000001
 44
0.0000000001
 40
0.0
 40
0.0
 40
0.0
 40
0.0
 40
0.2457987586
 40
1.0
 40
1.0
 40
1.0
 40
1.0
 10
35.8133277414
 20
54.4125382204
 30
0.0
 10
35.7671020843
 20
54.4024148849
 30
0.0
 10
35.5795344643
 20
54.3589876746
 30
0.0
 10
35.3940232718
 20
54.3067682591
 30
0.0
 10
35.2555826483
 20
54.2629859877
 30
0.0
  0
SPLINE
  5
382
100
AcDbEntity
  8
0
100
AcDbSpline
 62
7
  6
CONTINUOUS
 70
0
 71
3
 72
9
 73
5
 74
0
 42
0.0000001
 43
0.0000001
 44
0.0000000001
 40
0.0
 40
0.0
 40
0.0
 40
0.0
 40
0.2661058004
 40
1.0
 40
1.0
 40
1.0
 40
1.0
 10
35.949660347
 20
54.4673835293
 30
0.0
 10
35.93834799
 20
54.4608523759
 30
0.0
 10
35.8950912574
 20
54.4376841472
 30
0.0
 10
35.848518493
 20
54.4202449315
 30
0.0
 10
35.8133277414
 20
54.4125382204
 30
0.0
  0
SPLINE
  5
383
100
AcDbEntity
  8
0
100
AcDbSpline
 62
7
  6
CONTINUOUS
 70
0
 71
3
 72
10
 73
6
 74
0
 42
0.0000001
 43
0.0000001
 44
0.0000000001
 40
0.0
 40
0.0
 40
0.0
 40
0.0
 40
0.2696834506
 40
0.5258488347
 40
1.0
 40
1.0
 40
1.0
 40
1.0
 10
18.6479634765
 20
40.3812059167
 30
0.0
 10
18.682630318
 20
40.0472457854
 30
0.0
 10
18.7779729394
 20
39.3982353274
 30
0.0
 10
19.0763588236
 20
38.1887513174
 30
0.0
 10
19.4330086468
 20
37.3403283888
 30
0.0
 10
19.7332229056
 20
36.8320525673
 30
0.0
  0
SPLINE
  5
384
100
AcDbEntity
  8
0
100
AcDbSpline
 62
7
  6
CONTINUOUS
 70
0
 71
3
 72
12
 73
8
 74
0
 42
0.0000001
 43
0.0000001
 44
0.0000000001
 40
0.0
 40
0.0
 40
0.0
 40
0.0
 40
0.2031117997
 40
0.4619393799
 40
0.7428218175
 40
0.8785588302
 40
1.0
 40
1.0
 40
1.0
 40
1.0
 10
16.5548237167
 20
45.879648231
 30
0.0
 10
16.5643994182
 20
45.8639780953
 30
0.0
 10
16.5708559062
 20
45.8199397131
 30
0.0
 10
16.5538524439
 20
45.7542650286
 30
0.0
 10
16.5222448702
 20
45.7008466771
 30
0.0
 10
16.4890229287
 20
45.6651649851
 30
0.0
 10
16.4701773891
 20
45.6510843613
 30
0.0
 10
16.4604671556
 20
45.6459586197
 30
0.0
  0
SPLINE
  5
385
100
AcDbEntity
  8
0
100
AcDbSpline
 62
7
  6
CONTINUOUS
 70
0
 71
3
 72
13
 73
9
 74
0
 42
0.0000001
 43
0.0000001
 44
0.0000000001
 40
0.0
 40
0.0
 40
0.0
 40
0.0
 40
0.1231522236
 40
0.2611301112
 40
0.545173534
 40
0.6802217929
 40
0.8032657058
 40
1.0
 40
1.0
 40
1.0
 40
1.0
 10
16.26619829
 20
45.5434099024
 30
0.0
 10
16.2541294026
 20
45.5370390981
 30
0.0
 10
16.2307494584
 20
45.5193788133
 30
0.0
 10
16.1899753164
 20
45.4746371771
 30
0.0
 10
16.1586687045
 20
45.4201316869
 30
0.0
 10
16.1420281501
 20
45.3619950725
 30
0.0
 10
16.1369509653
 20
45.3120676982
 30
0.0
 10
16.1455325088
 20
45.2743537781
 30
0.0
 10
16.159225422
 20
45.257389217
 30
0.0
  0
SPLINE
  5
386
100
AcDbEntity
  8
0
100
AcDbSpline
 62
7
  6
CONTINUOUS
 70
0
 71
3
 72
12
 73
8
 74
0
 42
0.0000001
 43
0.0000001
 44
0.0000000001
 40
0.0
 40
0.0
 40
0.0
 40
0.0
 40
0.196176743
 40
0.3183351656
 40
0.4527491972
 40
0.7367280918
 40
1.0
 40
1.0
 40
1.0
 40
1.0
 10
16.2585693482
 20
45.1343090464
 30
0.0
 10
16.2697885696
 20
45.1204092165
 30
0.0
 10
16.2770812643
 20
45.0897084494
 30
0.0
 10
16.2734024579
 20
45.0488160687
 30
0.0
 10
16.2603539238
 20
45.0010004688
 30
0.0
 10
16.2301051998
 20
44.9458947787
 30
0.0
 10
16.1939018107
 20
44.9099023692
 30
0.0
 10
16.1735889752
 20
44.8971726665
 30
0.0
  0
SPLINE
  5
387
100
AcDbEntity
  8
0
100
AcDbSpline
 62
7
  6
CONTINUOUS
 70
0
 71
3
 72
12
 73
8
 74
0
 42
0.0000001
 43
0.0000001
 44
0.0000000001
 40
0.0
 40
0.0
 40
0.0
 40
0.0
 40
0.2675477752
 40
0.5548027433
 40
0.689212913
 40
0.8095489641
 40
1.0
 40
1.0
 40
1.0
 40
1.0
 10
15.9885914897
 20
44.7812379415
 30
0.0
 10
15.9633489146
 20
44.7654188562
 30
0.0
 10
15.91876493
 20
44.720357073
 30
0.0
 10
15.8824891897
 20
44.6515235364
 30
0.0
 10
15.868260474
 20
44.5923765129
 30
0.0
 10
15.8659439426
 20
44.5430971833
 30
0.0
 10
15.8780690048
 20
44.5066164515
 30
0.0
 10
15.8935517312
 20
44.4921264532
 30
0.0
  0
SPLINE
  5
388
100
AcDbEntity
  8
0
100
AcDbSpline
 62
7
  6
CONTINUOUS
 70
0
 71
3
 72
12
 73
8
 74
0
 42
0.0000001
 43
0.0000001
 44
0.0000000001
 40
0.0
 40
0.0
 40
0.0
 40
0.0
 40
0.1892991032
 40
0.3080655043
 40
0.4405325305
 40
0.7266930512
 40
1.0
 40
1.0
 40
1.0
 40
1.0
 10
16.0058798719
 20
44.3870006163
 30
0.0
 10
16.0183079678
 20
44.3753693903
 30
0.0
 10
16.0285182721
 20
44.346522369
 30
0.0
 10
16.027571367
 20
44.3070782677
 30
0.0
 10
16.0174321337
 20
44.2594541014
 30
0.0
 10
15.989583596
 20
44.2028526262
 30
0.0
 10
15.9550076166
 20
44.164822438
 30
0.0
 10
15.9351223031
 20
44.150381288
 30
0.0
  0
SPLINE
  5
389
100
AcDbEntity
  8
0
100
AcDbSpline
 62
7
  6
CONTINUOUS
 70
0
 71
3
 72
14
 73
10
 74
0
 42
0.0000001
 43
0.0000001
 44
0.0000000001
 40
0.0
 40
0.0
 40
0.0
 40
0.0
 40
0.1337799084
 40
0.2776410638
 40
0.4959831172
 40
0.6974859893
 40
0.7863510078
 40
0.8658716877
 40
1.0
 40
1.0
 40
1.0
 40
1.0
 10
15.7514760757
 20
44.0170133768
 30
0.0
 10
15.7395312608
 20
44.0083387907
 30
0.0
 10
15.7166874643
 20
43.9875982613
 30
0.0
 10
15.6827279258
 20
43.9444210604
 30
0.0
 10
15.6542008752
 20
43.8885330558
 30
0.0
 10
15.6408177541
 20
43.8332142212
 30
0.0
 10
15.6412727489
 20
43.7921314963
 30
0.0
 10
15.6480058778
 20
43.7593969427
 30
0.0
 10
15.6619518131
 20
43.7380274893
 30
0.0
 10
15.6741109949
 20
43.7295884182
 30
0.0
  0
SPLINE
  5
38A
100
AcDbEntity
  8
0
100
AcDbSpline
 62
7
  6
CONTINUOUS
 70
0
 71
3
 72
13
 73
9
 74
0
 42
0.0000001
 43
0.0000001
 44
0.0000000001
 40
0.0
 40
0.0
 40
0.0
 40
0.0
 40
0.0871428547
 40
0.1863555641
 40
0.3639717686
 40
0.5711472099
 40
0.7908131938
 40
1.0
 40
1.0
 40
1.0
 40
1.0
 10
15.798602298
 20
43.6431853226
 30
0.0
 10
15.8049678539
 20
43.6387673133
 30
0.0
 10
15.8162757331
 20
43.6258493087
 30
0.0
 10
15.8272315613
 20
43.5948344315
 30
0.0
 10
15.826339616
 20
43.5508431797
 30
0.0
 10
15.8108270891
 20
43.4989234333
 30
0.0
 10
15.7827738903
 20
43.4493225562
 30
0.0
 10
15.7569114698
 20
43.4206749349
 30
0.0
 10
15.7425847294
 20
43.4088125931
 30
0.0
  0
SPLINE
  5
38B
100
AcDbEntity
  8
0
100
AcDbSpline
 62
7
  6
CONTINUOUS
 70
0
 71
3
 72
13
 73
9
 74
0
 42
0.0000001
 43
0.0000001
 44
0.0000000001
 40
0.0
 40
0.0
 40
0.0
 40
0.0
 40
0.2862042509
 40
0.5749951365
 40
0.7040852852
 40
0.8167267995
 40
0.9133956554
 40
1.0
 40
1.0
 40
1.0
 40
1.0
 10
15.5616321053
 20
43.2589863362
 30
0.0
 10
15.537660566
 20
43.239138235
 30
0.0
 10
15.4973789909
 20
43.1896393047
 30
0.0
 10
15.4675248421
 20
43.1176635197
 30
0.0
 10
15.4605729673
 20
43.0600205547
 30
0.0
 10
15.4646953775
 20
43.0230113291
 30
0.0
 10
15.4782953786
 20
42.9930570814
 30
0.0
 10
15.4940636137
 20
42.9795193836
 30
0.0
 10
15.5025071952
 20
42.9753488134
 30
0.0
  0
SPLINE
  5
38C
100
AcDbEntity
  8
0
100
AcDbSpline
 62
7
  6
CONTINUOUS
 70
0
 71
3
 72
10
 73
6
 74
0
 42
0.0000001
 43
0.0000001
 44
0.0000000001
 40
0.0
 40
0.0
 40
0.0
 40
0.0
 40
0.4365160827
 40
0.7023960934
 40
1.0
 40
1.0
 40
1.0
 40
1.0
 10
15.647682357
 20
42.9021980009
 30
0.0
 10
15.6588140652
 20
42.8930665867
 30
0.0
 10
15.6701378633
 20
42.8704663197
 30
0.0
 10
15.6730114638
 20
42.8376433773
 30
0.0
 10
15.6712287691
 20
42.8189846823
 30
0.0
 10
15.6695144683
 20
42.8093195138
 30
0.0
  0
SPLINE
  5
38D
100
AcDbEntity
  8
0
100
AcDbSpline
 62
7
  6
CONTINUOUS
 70
0
 71
3
 72
9
 73
5
 74
0
 42
0.0000001
 43
0.0000001
 44
0.0000000001
 40
0.0
 40
0.0
 40
0.0
 40
0.0
 40
0.4965769512
 40
1.0
 40
1.0
 40
1.0
 40
1.0
 10
15.6695144683
 20
42.8093195138
 30
0.0
 10
15.6651288255
 20
42.7845934121
 30
0.0
 10
15.6468555296
 20
42.7364218653
 30
0.0
 10
15.6159924051
 20
42.6952603755
 30
0.0
 10
15.5973835898
 20
42.6778870097
 30
0.0
  0
SPLINE
  5
38E
100
AcDbEntity
  8
0
100
AcDbSpline
 62
7
  6
CONTINUOUS
 70
0
 71
3
 72
11
 73
7
 74
0
 42
0.0000001
 43
0.0000001
 44
0.0000000001
 40
0.0
 40
0.0
 40
0.0
 40
0.0
 40
0.2623247215
 40
0.5323922527
 40
0.7847588461
 40
1.0
 40
1.0
 40
1.0
 40
1.0
 10
15.4291936492
 20
42.5208632921
 30
0.0
 10
15.4114698539
 20
42.5043161894
 30
0.0
 10
15.3798586754
 20
42.4659463652
 30
0.0
 10
15.3460348476
 20
42.4011707872
 30
0.0
 10
15.328403526
 20
42.3347654102
 30
0.0
 10
15.3288161552
 20
42.2905181646
 30
0.0
 10
15.3334241959
 20
42.271163774
 30
0.0
  0
SPLINE
  5
38F
100
AcDbEntity
  8
0
100
AcDbSpline
 62
7
  6
CONTINUOUS
 70
0
 71
3
 72
9
 73
5
 74
0
 42
0.0000001
 43
0.0000001
 44
0.0000000001
 40
0.0
 40
0.0
 40
0.0
 40
0.0
 40
0.5106473291
 40
1.0
 40
1.0
 40
1.0
 40
1.0
 10
19.037933828
 20
23.8783666703
 30
0.0
 10
19.1611348743
 20
23.67794328
 30
0.0
 10
19.4461112023
 20
23.3097539574
 30
0.0
 10
19.8156887713
 20
23.0247210896
 30
0.0
 10
20.0109467456
 20
22.912016002
 30
0.0
  0
SPLINE
  5
390
100
AcDbEntity
  8
0
100
AcDbSpline
 62
7
  6
CONTINUOUS
 70
0
 71
3
 72
13
 73
9
 74
0
 42
0.0000001
 43
0.0000001
 44
0.0000000001
 40
0.0
 40
0.0
 40
0.0
 40
0.0
 40
0.3062174482
 40
0.5753445704
 40
0.6940354508
 40
0.802759196
 40
0.903581263
 40
1.0
 40
1.0
 40
1.0
 40
1.0
 10
21.4058414077
 20
21.2655876318
 30
0.0
 10
21.3857971553
 20
21.2069246303
 30
0.0
 10
21.3579858127
 20
21.0929795167
 30
0.0
 10
21.3560967534
 20
20.9505426755
 30
0.0
 10
21.3792546147
 20
20.8522196169
 30
0.0
 10
21.4066650027
 20
20.7911502107
 30
0.0
 10
21.4444535998
 20
20.7413242762
 30
0.0
 10
21.476441763
 20
20.7164914539
 30
0.0
 10
21.4933426692
 20
20.7067252556
 30
0.0
  0
SPLINE
  5
391
100
AcDbEntity
  8
0
100
AcDbSpline
 62
7
  6
CONTINUOUS
 70
0
 71
3
 72
12
 73
8
 74
0
 42
0.0000001
 43
0.0000001
 44
0.0000000001
 40
0.0
 40
0.0
 40
0.0
 40
0.0
 40
0.1993171242
 40
0.316766626
 40
0.4442983504
 40
0.719530832
 40
1.0
 40
1.0
 40
1.0
 40
1.0
 10
21.9716947296
 20
20.1023903579
 30
0.0
 10
21.9123251691
 20
20.1018087904
 30
0.0
 10
21.8183918261
 20
20.0719841432
 30
0.0
 10
21.706233549
 20
20.0018753859
 30
0.0
 10
21.5877006267
 20
19.9010748918
 30
0.0
 10
21.4598317698
 20
19.7403295875
 30
0.0
 10
21.3862278844
 20
19.5902902957
 30
0.0
 10
21.3586860713
 20
19.5114146514
 30
0.0
  0
SPLINE
  5
392
100
AcDbEntity
  8
0
100
AcDbSpline
 62
7
  6
CONTINUOUS
 70
0
 71
3
 72
9
 73
5
 74
0
 42
0.0000001
 43
0.0000001
 44
0.0000000001
 40
0.0
 40
0.0
 40
0.0
 40
0.0
 40
0.5451435643
 40
1.0
 40
1.0
 40
1.0
 40
1.0
 10
21.3586860713
 20
19.5114146514
 30
0.0
 10
21.3329632763
 20
19.4377484035
 30
0.0
 10
21.3003763617
 20
19.2969260552
 30
0.0
 10
21.311796354
 20
19.1498095952
 30
0.0
 10
21.3333072245
 20
19.0883609011
 30
0.0
  0
SPLINE
  5
393
100
AcDbEntity
  8
0
100
AcDbSpline
 62
7
  6
CONTINUOUS
 70
0
 71
3
 72
15
 73
11
 74
0
 42
0.0000001
 43
0.0000001
 44
0.0000000001
 40
0.0
 40
0.0
 40
0.0
 40
0.0
 40
0.1141242661
 40
0.2373486253
 40
0.3669740476
 40
0.5000015346
 40
0.6330288076
 40
0.7626536034
 40
0.8858770013
 40
1.0
 40
1.0
 40
1.0
 40
1.0
 10
21.0324604016
 20
51.5435546436
 30
0.0
 10
21.0324604016
 20
51.6553156209
 30
0.0
 10
21.0529811022
 20
51.8879605804
 30
0.0
 10
21.1345445781
 20
52.2389199091
 30
0.0
 10
21.2653623979
 20
52.5944161841
 30
0.0
 10
21.4403302054
 20
52.9410684002
 30
0.0
 10
21.6530539613
 20
53.2659216316
 30
0.0
 10
21.8955114962
 20
53.5569610154
 30
0.0
 10
22.1586668076
 20
53.803075486
 30
0.0
 10
22.349881161
 20
53.9371681677
 30
0.0
 10
22.4466680761
 20
53.9930477856
 30
0.0
  0
SPLINE
  5
394
100
AcDbEntity
  8
0
100
AcDbSpline
 62
7
  6
CONTINUOUS
 70
0
 71
3
 72
9
 73
5
 74
0
 42
0.0000001
 43
0.0000001
 44
0.0000000001
 40
0.0
 40
0.0
 40
0.0
 40
0.0
 40
0.238148468
 40
1.0
 40
1.0
 40
1.0
 40
1.0
 10
32.8752433731
 20
55.2703012829
 30
0.0
 10
32.8925978539
 20
55.274194161
 30
0.0
 10
32.9649164388
 20
55.2929900069
 30
0.0
 10
33.0347330682
 20
55.3208512724
 30
0.0
 10
33.0859320421
 20
55.3456708145
 30
0.0
  0
SPLINE
  5
395
100
AcDbEntity
  8
0
100
AcDbSpline
 62
7
  6
CONTINUOUS
 70
0
 71
3
 72
9
 73
5
 74
0
 42
0.0000001
 43
0.0000001
 44
0.0000000001
 40
0.0
 40
0.0
 40
0.0
 40
0.0
 40
0.2594524812
 40
1.0
 40
1.0
 40
1.0
 40
1.0
 10
34.1305905765
 20
56.8381369397
 30
0.0
 10
34.1345297472
 20
56.86073473
 30
0.0
 10
34.14801619
 20
56.9481092133
 30
0.0
 10
34.1546207612
 20
57.0366281261
 30
0.0
 10
34.1546207612
 20
57.1021009559
 30
0.0
  0
SPLINE
  5
396
100
AcDbEntity
  8
0
100
AcDbSpline
 62
7
  6
CONTINUOUS
 70
0
 71
3
 72
11
 73
7
 74
0
 42
0.0000001
 43
0.0000001
 44
0.0000000001
 40
0.0
 40
0.0
 40
0.0
 40
0.0
 40
0.2895506875
 40
0.5491654527
 40
0.782314622
 40
1.0
 40
1.0
 40
1.0
 40
1.0
 10
34.1546207612
 20
57.1021009559
 30
0.0
 10
34.1546207612
 20
57.1729978571
 30
0.0
 10
34.143792878
 20
57.3079075448
 30
0.0
 10
34.0892476937
 20
57.4933031986
 30
0.0
 10
33.9972208865
 20
57.643738477
 30
0.0
 10
33.9108065694
 20
57.7163225572
 30
0.0
 10
33.8646494965
 20
57.7429773155
 30
0.0
  0
SPLINE
  5
397
100
AcDbEntity
  8
0
100
AcDbSpline
 62
7
  6
CONTINUOUS
 70
0
 71
3
 72
11
 73
7
 74
0
 42
0.0000001
 43
0.0000001
 44
0.0000000001
 40
0.0
 40
0.0
 40
0.0
 40
0.0
 40
0.2741490281
 40
0.5328963271
 40
0.7749408607
 40
1.0
 40
1.0
 40
1.0
 40
1.0
 10
29.4932884762
 20
53.471175674
 30
0.0
 10
29.7645174703
 20
53.6972018243
 30
0.0
 10
30.3118092552
 20
54.1133109996
 30
0.0
 10
31.1650323415
 20
54.6347240438
 30
0.0
 10
32.0154784722
 20
55.0280063106
 30
0.0
 10
32.5924293073
 20
55.2068617192
 30
0.0
 10
32.8752433731
 20
55.2703012829
 30
0.0
  0
SPLINE
  5
398
100
AcDbEntity
  8
0
100
AcDbSpline
 62
7
  6
CONTINUOUS
 70
0
 71
3
 72
11
 73
7
 74
0
 42
0.0000001
 43
0.0000001
 44
0.0000000001
 40
0.0
 40
0.0
 40
0.0
 40
0.0
 40
0.2177825102
 40
0.4509091639
 40
0.7102957096
 40
1.0
 40
1.0
 40
1.0
 40
1.0
 10
21.4466900329
 20
17.3146923718
 30
0.0
 10
21.3807167502
 20
17.3527812103
 30
0.0
 10
21.2572832793
 20
17.4565505169
 30
0.0
 10
21.1258738946
 20
17.6714104073
 30
0.0
 10
21.0478244926
 20
17.936198446
 30
0.0
 10
21.0324604016
 20
18.1289192785
 30
0.0
 10
21.0324604016
 20
18.2302560247
 30
0.0
  0
SPLINE
  5
399
100
AcDbEntity
  8
0
100
AcDbSpline
 62
7
  6
CONTINUOUS
 70
0
 71
3
 72
15
 73
11
 74
0
 42
0.0000001
 43
0.0000001
 44
0.0000000001
 40
0.0
 40
0.0
 40
0.0
 40
0.0
 40
0.1067028928
 40
0.2257955736
 40
0.3540673803
 40
0.4879579492
 40
0.623469977
 40
0.7565125184
 40
0.883260049
 40
1.0
 40
1.0
 40
1.0
 40
1.0
 10
28.9219396475
 20
21.0543990119
 30
0.0
 10
28.9595920414
 20
20.9330696106
 30
0.0
 10
29.0585701631
 20
20.6822169812
 30
0.0
 10
29.2549993887
 20
20.3085698557
 30
0.0
 10
29.5022066077
 20
19.9271938764
 30
0.0
 10
29.7913399853
 20
19.5516654751
 30
0.0
 10
30.112344909
 20
19.1953231633
 30
0.0
 10
30.4537871493
 20
18.8706729328
 30
0.0
 10
30.8035057044
 20
18.5893975818
 30
0.0
 10
31.045895074
 20
18.4292372635
 30
0.0
 10
31.1662623242
 20
18.3597447713
 30
0.0
  0
SPLINE
  5
39A
100
AcDbEntity
  8
0
100
AcDbSpline
 62
7
  6
CONTINUOUS
 70
0
 71
3
 72
15
 73
11
 74
0
 42
0.0000001
 43
0.0000001
 44
0.0000000001
 40
0.0
 40
0.0
 40
0.0
 40
0.0
 40
0.1141241598
 40
0.2373483675
 40
0.3669736385
 40
0.5000010132
 40
0.6330282465
 40
0.7626531028
 40
0.8858766831
 40
1.0
 40
1.0
 40
1.0
 40
1.0
 10
27.6438409473
 20
68.3784651056
 30
0.0
 10
27.6438409473
 20
68.2359699071
 30
0.0
 10
27.6700050451
 20
67.9393477221
 30
0.0
 10
27.773999359
 20
67.491875002
 30
0.0
 10
27.9407934959
 20
67.0386179947
 30
0.0
 10
28.1638793442
 20
66.5966374476
 30
0.0
 10
28.4351044349
 20
66.182450848
 30
0.0
 10
28.7442404184
 20
65.8113770961
 30
0.0
 10
29.0797662946
 20
65.4975827493
 30
0.0
 10
29.323566498
 20
65.3266158822
 30
0.0
 10
29.4469707464
 20
65.2553700179
 30
0.0
  0
SPLINE
  5
39B
100
AcDbEntity
  8
0
100
AcDbSpline
 62
7
  6
CONTINUOUS
 70
0
 71
3
 72
9
 73
5
 74
0
 42
0.0000001
 43
0.0000001
 44
0.0000000001
 40
0.0
 40
0.0
 40
0.0
 40
0.0
 40
0.2436532651
 40
1.0
 40
1.0
 40
1.0
 40
1.0
 10
27.6601810978
 20
20.4851425063
 30
0.0
 10
27.6574413333
 20
20.4633542
 30
0.0
 10
27.6477062842
 20
20.3737443568
 30
0.0
 10
27.6438409473
 20
20.2835222079
 30
0.0
 10
27.6438409473
 20
20.2153544851
 30
0.0
  0
SPLINE
  5
39C
100
AcDbEntity
  8
0
100
AcDbSpline
 62
7
  6
CONTINUOUS
 70
0
 71
3
 72
12
 73
8
 74
0
 42
0.0000001
 43
0.0000001
 44
0.0000000001
 40
0.0
 40
0.0
 40
0.0
 40
0.0
 40
0.0976870961
 40
0.1988207217
 40
0.4222144797
 40
0.6874402436
 40
1.0
 40
1.0
 40
1.0
 40
1.0
 10
29.9802368393
 20
17.0839758318
 30
0.0
 10
29.9513636115
 20
17.0583528062
 30
0.0
 10
29.8980095162
 20
16.9997625477
 30
0.0
 10
29.8125048411
 20
16.8553272796
 30
0.0
 10
29.7539418776
 20
16.6250880975
 30
0.0
 10
29.759037197
 20
16.3063755826
 30
0.0
 10
29.8042396063
 20
16.0814274563
 30
0.0
 10
29.8362071377
 20
15.9621213365
 30
0.0
  0
SPLINE
  5
39D
100
AcDbEntity
  8
0
100
AcDbSpline
 62
7
  6
CONTINUOUS
 70
0
 71
3
 72
22
 73
18
 74
0
 42
0.0000001
 43
0.0000001
 44
0.0000000001
 40
0.0
 40
0.0
 40
0.0
 40
0.0
 40
0.1297647715
 40
0.1967657668
 40
0.2644653785
 40
0.3324842844
 40
0.400473943
 40
0.4680695206
 40
0.534844541
 40
0.6002951054
 40
0.6638670245
 40
0.7250389564
 40
0.7834727065
 40
0.8392188232
 40
0.8929209216
 40
0.9459035207
 40
1.0
 40
1.0
 40
1.0
 40
1.0
 10
41.1243313956
 20
86.0058903255
 30
0.0
 10
40.8886816592
 20
85.8079815293
 30
0.0
 10
40.5646360194
 20
85.4623660473
 30
0.0
 10
40.2441259077
 20
84.9208276134
 30
0.0
 10
40.0702257117
 20
84.4699004069
 30
0.0
 10
39.9801138035
 20
83.9924620005
 30
0.0
 10
39.980783626
 20
83.5067712584
 30
0.0
 10
40.0699166661
 20
83.0325912132
 30
0.0
 10
40.2374472988
 20
82.5869533747
 30
0.0
 10
40.4694268353
 20
82.1825597413
 30
0.0
 10
40.7514418371
 20
81.828421826
 30
0.0
 10
41.0705091463
 20
81.5312539788
 30
0.0
 10
41.4159552539
 20
81.2966352249
 30
0.0
 10
41.7796912648
 20
81.1298153372
 30
0.0
 10
42.1559083604
 20
81.0362020076
 30
0.0
 10
42.5395558804
 20
81.0209063246
 30
0.0
 10
42.7918629502
 20
81.0638584254
 30
0.0
 10
42.9157790727
 20
81.0970618138
 30
0.0
  0
SPLINE
  5
39E
100
AcDbEntity
  8
0
100
AcDbSpline
 62
7
  6
CONTINUOUS
 70
0
 71
3
 72
9
 73
5
 74
0
 42
0.0000001
 43
0.0000001
 44
0.0000000001
 40
0.0
 40
0.0
 40
0.0
 40
0.0
 40
0.259143469
 40
1.0
 40
1.0
 40
1.0
 40
1.0
 10
41.1243313956
 20
86.0058903255
 30
0.0
 10
41.1751565704
 20
86.0485754958
 30
0.0
 10
41.3744874514
 20
86.2093943899
 30
0.0
 10
41.5869801784
 20
86.3542520231
 30
0.0
 10
41.7513072186
 20
86.4491257176
 30
0.0
  0
SPLINE
  5
39F
100
AcDbEntity
  8
0
100
AcDbSpline
 62
7
  6
CONTINUOUS
 70
0
 71
3
 72
9
 73
5
 74
0
 42
0.0000001
 43
0.0000001
 44
0.0000000001
 40
0.0
 40
0.0
 40
0.0
 40
0.0
 40
0.2615523362
 40
1.0
 40
1.0
 40
1.0
 40
1.0
 10
35.3570273442
 20
55.3707562035
 30
0.0
 10
35.3654306201
 20
55.3756078081
 30
0.0
 10
35.3979876933
 20
55.3933885176
 30
0.0
 10
35.4323516924
 20
55.4079861245
 30
0.0
 10
35.4584720402
 20
55.4162467645
 30
0.0
  0
SPLINE
  5
3A0
100
AcDbEntity
  8
0
100
AcDbSpline
 62
7
  6
CONTINUOUS
 70
0
 71
3
 72
11
 73
7
 74
0
 42
0.0000001
 43
0.0000001
 44
0.0000000001
 40
0.0
 40
0.0
 40
0.0
 40
0.0
 40
0.2324664353
 40
0.4726062898
 40
0.7270667764
 40
1.0
 40
1.0
 40
1.0
 40
1.0
 10
45.1253940655
 20
16.3585197084
 30
0.0
 10
45.0378209468
 20
16.4090708027
 30
0.0
 10
44.8710608564
 20
16.532789468
 30
0.0
 10
44.6633567631
 20
16.774295812
 30
0.0
 10
44.4997060264
 20
17.0675078045
 30
0.0
 10
44.4240277652
 20
17.2852952883
 30
0.0
 10
44.3933016968
 20
17.3999681403
 30
0.0
  0
SPLINE
  5
3A1
100
AcDbEntity
  8
0
100
AcDbSpline
 62
7
  6
CONTINUOUS
 70
0
 71
3
 72
11
 73
7
 74
0
 42
0.0000001
 43
0.0000001
 44
0.0000000001
 40
0.0
 40
0.0
 40
0.0
 40
0.0
 40
0.2401313445
 40
0.490714899
 40
0.7460086887
 40
1.0
 40
1.0
 40
1.0
 40
1.0
 10
48.1753735367
 20
87.0810857947
 30
0.0
 10
48.1400387388
 20
86.9084118228
 30
0.0
 10
48.1016666565
 20
86.5480361288
 30
0.0
 10
48.1351480267
 20
85.9992546417
 30
0.0
 10
48.2562904523
 20
85.4526213472
 30
0.0
 10
48.3931663608
 20
85.1028037523
 30
0.0
 10
48.4750081467
 20
84.935303666
 30
0.0
  0
SPLINE
  5
3A2
100
AcDbEntity
  8
0
100
AcDbSpline
 62
7
  6
CONTINUOUS
 70
0
 71
3
 72
11
 73
7
 74
0
 42
0.0000001
 43
0.0000001
 44
0.0000000001
 40
0.0
 40
0.0
 40
0.0
 40
0.0
 40
0.289702329
 40
0.5490881649
 40
0.7822156415
 40
1.0
 40
1.0
 40
1.0
 40
1.0
 10
29.4469707464
 20
65.2553700179
 30
0.0
 10
29.5588617478
 20
65.1907711796
 30
0.0
 10
29.7814490294
 20
65.0848820459
 30
0.0
 10
30.1235701103
 20
65.0022659346
 30
0.0
 10
30.4445797721
 20
65.010393841
 30
0.0
 10
30.6378447284
 20
65.0805311902
 30
0.0
 10
30.7219586763
 20
65.1290941259
 30
0.0
  0
SPLINE
  5
3A3
100
AcDbEntity
  8
0
100
AcDbSpline
 62
7
  6
CONTINUOUS
 70
0
 71
3
 72
9
 73
5
 74
0
 42
0.0000001
 43
0.0000001
 44
0.0000000001
 40
0.0
 40
0.0
 40
0.0
 40
0.0
 40
0.2542961969
 40
1.0
 40
1.0
 40
1.0
 40
1.0
 10
35.4584720402
 20
55.4162467645
 30
0.0
 10
35.5109898634
 20
55.432855687
 30
0.0
 10
35.7182067276
 20
55.4959422372
 30
0.0
 10
35.9282099145
 20
55.5499542924
 30
0.0
 10
36.0859929526
 20
55.5845084931
 30
0.0
  0
SPLINE
  5
3A4
100
AcDbEntity
  8
0
100
AcDbSpline
 62
7
  6
CONTINUOUS
 70
0
 71
3
 72
9
 73
5
 74
0
 42
0.0000001
 43
0.0000001
 44
0.0000000001
 40
0.0
 40
0.0
 40
0.0
 40
0.0
 40
0.516299661
 40
1.0
 40
1.0
 40
1.0
 40
1.0
 10
30.9036785888
 20
56.7134560122
 30
0.0
 10
30.9146224966
 20
56.6902739395
 30
0.0
 10
30.9414637885
 20
56.6476113917
 30
0.0
 10
30.9804603059
 20
56.6152480466
 30
0.0
 10
31.0012584036
 20
56.6032377214
 30
0.0
  0
SPLINE
  5
3A5
100
AcDbEntity
  8
0
100
AcDbSpline
 62
7
  6
CONTINUOUS
 70
0
 71
3
 72
11
 73
7
 74
0
 42
0.0000001
 43
0.0000001
 44
0.0000000001
 40
0.0
 40
0.0
 40
0.0
 40
0.0
 40
0.2250591393
 40
0.4671036729
 40
0.7258509719
 40
1.0
 40
1.0
 40
1.0
 40
1.0
 10
31.7438678128
 20
55.9234864901
 30
0.0
 10
31.4610537471
 20
55.8600469265
 30
0.0
 10
30.884102912
 20
55.6811915179
 30
0.0
 10
30.0336567813
 20
55.2879092511
 30
0.0
 10
29.1804336949
 20
54.7664962068
 30
0.0
 10
28.6331419101
 20
54.3503870315
 30
0.0
 10
28.3619129159
 20
54.1243608812
 30
0.0
  0
SPLINE
  5
3A6
100
AcDbEntity
  8
0
100
AcDbSpline
 62
7
  6
CONTINUOUS
 70
0
 71
3
 72
9
 73
5
 74
0
 42
0.0000001
 43
0.0000001
 44
0.0000000001
 40
0.0
 40
0.0
 40
0.0
 40
0.0
 40
0.2447270194
 40
1.0
 40
1.0
 40
1.0
 40
1.0
 10
33.0192359732
 20
57.6506509323
 30
0.0
 10
33.0182574475
 20
57.6375846182
 30
0.0
 10
33.0135619269
 20
57.5842468037
 30
0.0
 10
33.0061586693
 20
57.5311549349
 30
0.0
 10
32.9992142698
 20
57.4913176861
 30
0.0
  0
SPLINE
  5
3A7
100
AcDbEntity
  8
0
100
AcDbSpline
 62
7
  6
CONTINUOUS
 70
0
 71
3
 72
9
 73
5
 74
0
 42
0.0000001
 43
0.0000001
 44
0.0000000001
 40
0.0
 40
0.0
 40
0.0
 40
0.0
 40
0.262205077
 40
1.0
 40
1.0
 40
1.0
 40
1.0
 10
31.954550312
 20
55.9988530698
 30
0.0
 10
31.9369311877
 20
55.990312037
 30
0.0
 10
31.868947267
 20
55.9594352232
 30
0.0
 10
31.7976267388
 20
55.9355454476
 30
0.0
 10
31.7438678128
 20
55.9234864901
 30
0.0
  0
SPLINE
  5
3A8
100
AcDbEntity
  8
0
100
AcDbSpline
 62
7
  6
CONTINUOUS
 70
0
 71
3
 72
18
 73
14
 74
0
 42
0.0000001
 43
0.0000001
 44
0.0000000001
 40
0.0
 40
0.0
 40
0.0
 40
0.0
 40
0.1508866956
 40
0.3013909779
 40
0.4466859861
 40
0.5824512048
 40
0.6457707795
 40
0.7056456118
 40
0.8146144239
 40
0.8642521339
 40
0.9111754917
 40
0.9561091645
 40
1.0
 40
1.0
 40
1.0
 40
1.0
 10
21.0324604016
 20
32.9326507726
 30
0.0
 10
20.7099603904
 20
32.5025249561
 30
0.0
 10
20.1219031985
 20
31.5998474102
 30
0.0
 10
19.4266411723
 20
30.1635794725
 30
0.0
 10
18.9419346219
 20
28.6994649824
 30
0.0
 10
18.7277728579
 20
27.4855423656
 30
0.0
 10
18.688504941
 20
26.5622932125
 30
0.0
 10
18.7332869726
 20
25.7357465176
 30
0.0
 10
18.8979823198
 20
24.9650771175
 30
0.0
 10
19.2014877436
 20
24.2958976896
 30
0.0
 10
19.4809982114
 20
23.873419531
 30
0.0
 10
19.816179852
 20
23.52117708
 30
0.0
 10
20.0754974464
 20
23.3357619043
 30
0.0
 10
20.2109357577
 20
23.25758687
 30
0.0
  0
SPLINE
  5
3A9
100
AcDbEntity
  8
0
100
AcDbSpline
 62
7
  6
CONTINUOUS
 70
0
 71
3
 72
10
 73
6
 74
0
 42
0.0000001
 43
0.0000001
 44
0.0000000001
 40
0.0
 40
0.0
 40
0.0
 40
0.0
 40
0.4735109152
 40
0.7301519491
 40
1.0
 40
1.0
 40
1.0
 40
1.0
 10
20.2980190927
 20
36.9881845854
 30
0.0
 10
20.036681088
 20
37.5706442609
 30
0.0
 10
19.7491006894
 20
38.5232245501
 30
0.0
 10
19.5505285163
 20
39.8574115139
 30
0.0
 10
19.5090527224
 20
40.5672647172
 30
0.0
 10
19.5023311881
 20
40.9310199469
 30
0.0
  0
SPLINE
  5
3AA
100
AcDbEntity
  8
0
100
AcDbSpline
 62
7
  6
CONTINUOUS
 70
0
 71
3
 72
16
 73
12
 74
0
 42
0.0000001
 43
0.0000001
 44
0.0000000001
 40
0.0
 40
0.0
 40
0.0
 40
0.0
 40
0.0428631485
 40
0.0875099587
 40
0.1869096316
 40
0.3042228761
 40
0.4379523554
 40
0.582367856
 40
0.729550588
 40
0.8712953453
 40
1.0
 40
1.0
 40
1.0
 40
1.0
 10
35.0317838432
 20
54.2762654298
 30
0.0
 10
35.0157533446
 20
54.2855226071
 30
0.0
 10
34.9853436558
 20
54.3087707392
 30
0.0
 10
34.9348999792
 20
54.3726893983
 30
0.0
 10
34.8971756063
 20
54.48225174
 30
0.0
 10
34.8938493687
 20
54.6350612191
 30
0.0
 10
34.9281002315
 20
54.8035722052
 30
0.0
 10
34.9973224376
 20
54.9746874688
 30
0.0
 10
35.0957440531
 20
55.1349248606
 30
0.0
 10
35.2154319866
 20
55.2709898271
 30
0.0
 10
35.3088901346
 20
55.3429643385
 30
0.0
 10
35.3570273442
 20
55.3707562035
 30
0.0
  0
SPLINE
  5
3AB
100
AcDbEntity
  8
0
100
AcDbSpline
 62
7
  6
CONTINUOUS
 70
0
 71
3
 72
11
 73
7
 74
0
 42
0.0000001
 43
0.0000001
 44
0.0000000001
 40
0.0
 40
0.0
 40
0.0
 40
0.0
 40
0.2152396009
 40
0.4676046309
 40
0.7376736879
 40
1.0
 40
1.0
 40
1.0
 40
1.0
 10
18.1618630965
 20
40.6382007559
 30
0.0
 10
18.1572550888
 20
40.6575550078
 30
0.0
 10
18.1568422047
 20
40.7018019446
 30
0.0
 10
18.1744735402
 20
40.7682072076
 30
0.0
 10
18.208297429
 20
40.8329828878
 30
0.0
 10
18.2399086462
 20
40.8713530702
 30
0.0
 10
18.2576325498
 20
40.887900274
 30
0.0
  0
SPLINE
  5
3AC
100
AcDbEntity
  8
0
100
AcDbSpline
 62
7
  6
CONTINUOUS
 70
0
 71
3
 72
13
 73
9
 74
0
 42
0.0000001
 43
0.0000001
 44
0.0000000001
 40
0.0
 40
0.0
 40
0.0
 40
0.0
 40
0.291155818
 40
0.5783521805
 40
0.7056118324
 40
0.8170604136
 40
0.9133382401
 40
1.0
 40
1.0
 40
1.0
 40
1.0
 10
18.4258224904
 20
41.0449239916
 30
0.0
 10
18.4444313057
 20
41.0622973574
 30
0.0
 10
18.4752802905
 20
41.1034823773
 30
0.0
 10
18.4976256956
 20
41.1621681693
 30
0.0
 10
18.5017616362
 20
41.2082500166
 30
0.0
 10
18.4977047035
 20
41.2376205672
 30
0.0
 10
18.4861732732
 20
41.2612379213
 30
0.0
 10
18.4734845998
 20
41.2719812122
 30
0.0
 10
18.4666906035
 20
41.2753369965
 30
0.0
  0
SPLINE
  5
3AD
100
AcDbEntity
  8
0
100
AcDbSpline
 62
7
  6
CONTINUOUS
 70
0
 71
3
 72
8
 73
4
 74
0
 42
0.0000001
 43
0.0000001
 44
0.0000000001
 40
0.0
 40
0.0
 40
0.0
 40
0.0
 40
1.0
 40
1.0
 40
1.0
 40
1.0
 10
18.3309460958
 20
41.3423857953
 30
0.0
 10
18.326774854
 20
41.3444461126
 30
0.0
 10
18.3228303292
 20
41.347032391
 30
0.0
 10
18.3192550019
 20
41.3500091677
 30
0.0
  0
SPLINE
  5
3AE
100
AcDbEntity
  8
0
100
AcDbSpline
 62
7
  6
CONTINUOUS
 70
0
 71
3
 72
11
 73
7
 74
0
 42
0.0000001
 43
0.0000001
 44
0.0000000001
 40
0.0
 40
0.0
 40
0.0
 40
0.0
 40
0.1975812002
 40
0.4280564664
 40
0.6977291907
 40
1.0
 40
1.0
 40
1.0
 40
1.0
 10
18.3192550019
 20
41.3500091677
 30
0.0
 10
18.3110948788
 20
41.3568031929
 30
0.0
 10
18.2972872802
 20
41.3763585984
 30
0.0
 10
18.2891872812
 20
41.4136168618
 30
0.0
 10
18.2915521219
 20
41.4570430615
 30
0.0
 10
18.2995385534
 20
41.4869468297
 30
0.0
 10
18.3050406732
 20
41.5022309737
 30
0.0
  0
SPLINE
  5
3AF
100
AcDbEntity
  8
0
100
AcDbSpline
 62
7
  6
CONTINUOUS
 70
0
 71
3
 72
9
 73
5
 74
0
 42
0.0000001
 43
0.0000001
 44
0.0000000001
 40
0.0
 40
0.0
 40
0.0
 40
0.0
 40
0.5097858147
 40
1.0
 40
1.0
 40
1.0
 40
1.0
 10
18.3050406732
 20
41.5022309737
 30
0.0
 10
18.3137570076
 20
41.5264437706
 30
0.0
 10
18.337248756
 20
41.5717599685
 30
0.0
 10
18.3710106223
 20
41.6102415855
 30
0.0
 10
18.3900710058
 20
41.6260233181
 30
0.0
  0
SPLINE
  5
3B0
100
AcDbEntity
  8
0
100
AcDbSpline
 62
7
  6
CONTINUOUS
 70
0
 71
3
 72
13
 73
9
 74
0
 42
0.0000001
 43
0.0000001
 44
0.0000000001
 40
0.0
 40
0.0
 40
0.0
 40
0.0
 40
0.1373309648
 40
0.2831770963
 40
0.5011968318
 40
0.700199913
 40
0.8660641367
 40
1.0
 40
1.0
 40
1.0
 40
1.0
 10
18.57102363
 20
41.775849575
 30
0.0
 10
18.580419684
 20
41.783629377
 30
0.0
 10
18.5982203748
 20
41.8016128539
 30
0.0
 10
18.6244383892
 20
41.8377583281
 30
0.0
 10
18.6459866937
 20
41.8833953753
 30
0.0
 10
18.6567215838
 20
41.9345933634
 30
0.0
 10
18.6526758789
 20
41.9797036
 30
0.0
 10
18.6368150417
 20
42.003438776
 30
0.0
 10
18.6270411986
 20
42.0102223046
 30
0.0
  0
SPLINE
  5
3B1
100
AcDbEntity
  8
0
100
AcDbSpline
 62
7
  6
CONTINUOUS
 70
0
 71
3
 72
13
 73
9
 74
0
 42
0.0000001
 43
0.0000001
 44
0.0000000001
 40
0.0
 40
0.0
 40
0.0
 40
0.0
 40
0.087310706
 40
0.1871840357
 40
0.3670398011
 40
0.5765245397
 40
0.7954375252
 40
1.0
 40
1.0
 40
1.0
 40
1.0
 10
18.5025498955
 20
42.0966254001
 30
0.0
 10
18.4946335565
 20
42.1021197293
 30
0.0
 10
18.4806106024
 20
42.1183700183
 30
0.0
 10
18.4678625953
 20
42.1575612149
 30
0.0
 10
18.4703759382
 20
42.2126994707
 30
0.0
 10
18.4915926272
 20
42.2770030116
 30
0.0
 10
18.5282510796
 20
42.3371257377
 30
0.0
 10
18.5616471241
 20
42.3707838445
 30
0.0
 10
18.5799149763
 20
42.3840503588
 30
0.0
  0
SPLINE
  5
3B2
100
AcDbEntity
  8
0
100
AcDbSpline
 62
7
  6
CONTINUOUS
 70
0
 71
3
 72
12
 73
8
 74
0
 42
0.0000001
 43
0.0000001
 44
0.0000000001
 40
0.0
 40
0.0
 40
0.0
 40
0.0
 40
0.2733069488
 40
0.5594674695
 40
0.6919344957
 40
0.8107008968
 40
1.0
 40
1.0
 40
1.0
 40
1.0
 10
18.7635612037
 20
42.5174182699
 30
0.0
 10
18.7834465172
 20
42.5318594199
 30
0.0
 10
18.8180224966
 20
42.5698896082
 30
0.0
 10
18.8458710343
 20
42.6264910834
 30
0.0
 10
18.8560102676
 20
42.6741152496
 30
0.0
 10
18.8569571727
 20
42.7135593509
 30
0.0
 10
18.8467468684
 20
42.7424063722
 30
0.0
 10
18.8343187724
 20
42.7540375982
 30
0.0
  0
SPLINE
  5
3B3
100
AcDbEntity
  8
0
100
AcDbSpline
 62
7
  6
CONTINUOUS
 70
0
 71
3
 72
12
 73
8
 74
0
 42
0.0000001
 43
0.0000001
 44
0.0000000001
 40
0.0
 40
0.0
 40
0.0
 40
0.0
 40
0.1904518159
 40
0.3107882793
 40
0.4451985534
 40
0.7324532456
 40
1.0
 40
1.0
 40
1.0
 40
1.0
 10
18.7219906318
 20
42.8591634351
 30
0.0
 10
18.7065078423
 20
42.8736534925
 30
0.0
 10
18.6943827877
 20
42.910134405
 30
0.0
 10
18.6966994343
 20
42.9594138671
 30
0.0
 10
18.7109282422
 20
43.0185608936
 30
0.0
 10
18.7472040072
 20
43.0873942631
 30
0.0
 10
18.791787912
 20
43.1324558988
 30
0.0
 10
18.8170303903
 20
43.1482749235
 30
0.0
  0
SPLINE
  5
3B4
100
AcDbEntity
  8
0
100
AcDbSpline
 62
7
  6
CONTINUOUS
 70
0
 71
3
 72
12
 73
8
 74
0
 42
0.0000001
 43
0.0000001
 44
0.0000000001
 40
0.0
 40
0.0
 40
0.0
 40
0.0
 40
0.2632719082
 40
0.5472508028
 40
0.6816648344
 40
0.803823257
 40
1.0
 40
1.0
 40
1.0
 40
1.0
 10
19.0020278758
 20
43.2642096484
 30
0.0
 10
19.0223407113
 20
43.2769393511
 30
0.0
 10
19.0585441004
 20
43.3129317606
 30
0.0
 10
19.0887928244
 20
43.3680374507
 30
0.0
 10
19.1018413585
 20
43.4158530506
 30
0.0
 10
19.1055201649
 20
43.4567454313
 30
0.0
 10
19.0982274701
 20
43.4874461984
 30
0.0
 10
19.0870082488
 20
43.5013460283
 30
0.0
  0
SPLINE
  5
3B5
100
AcDbEntity
  8
0
100
AcDbSpline
 62
7
  6
CONTINUOUS
 70
0
 71
3
 72
13
 73
9
 74
0
 42
0.0000001
 43
0.0000001
 44
0.0000000001
 40
0.0
 40
0.0
 40
0.0
 40
0.0
 40
0.1967342942
 40
0.3197782071
 40
0.454826466
 40
0.7388698888
 40
0.8768477764
 40
1.0
 40
1.0
 40
1.0
 40
1.0
 10
18.9876643226
 20
43.624426199
 30
0.0
 10
18.9739714094
 20
43.64139076
 30
0.0
 10
18.9653898658
 20
43.6791046801
 30
0.0
 10
18.9704670507
 20
43.7290320545
 30
0.0
 10
18.9871076051
 20
43.7871686688
 30
0.0
 10
19.0184142169
 20
43.841674159
 30
0.0
 10
19.0591883589
 20
43.8864157952
 30
0.0
 10
19.0825683032
 20
43.90407608
 30
0.0
 10
19.0946371906
 20
43.9104468843
 30
0.0
  0
SPLINE
  5
3B6
100
AcDbEntity
  8
0
100
AcDbSpline
 62
7
  6
CONTINUOUS
 70
0
 71
3
 72
12
 73
8
 74
0
 42
0.0000001
 43
0.0000001
 44
0.0000000001
 40
0.0
 40
0.0
 40
0.0
 40
0.0
 40
0.1214411698
 40
0.2571781825
 40
0.5380606201
 40
0.7968882003
 40
1.0
 40
1.0
 40
1.0
 40
1.0
 10
19.2889060561
 20
44.0129956016
 30
0.0
 10
19.2986162896
 20
44.0181213432
 30
0.0
 10
19.3174618292
 20
44.032201967
 30
0.0
 10
19.3506837708
 20
44.067883659
 30
0.0
 10
19.3822913445
 20
44.1213020105
 30
0.0
 10
19.3992948068
 20
44.186976695
 30
0.0
 10
19.3928383188
 20
44.2310150773
 30
0.0
 10
19.3832626173
 20
44.2466852129
 30
0.0
  0
SPLINE
  5
3B7
100
AcDbEntity
  8
0
100
AcDbSpline
 62
7
  6
CONTINUOUS
 70
0
 71
3
 72
11
 73
7
 74
0
 42
0.0000001
 43
0.0000001
 44
0.0000000001
 40
0.0
 40
0.0
 40
0.0
 40
0.0
 40
0.2324664353
 40
0.4726062898
 40
0.7270667764
 40
1.0
 40
1.0
 40
1.0
 40
1.0
 10
55.6903065464
 20
19.1921286948
 30
0.0
 10
55.6027334277
 20
19.2426797892
 30
0.0
 10
55.4359733373
 20
19.3663984545
 30
0.0
 10
55.228269244
 20
19.6079047984
 30
0.0
 10
55.0646185073
 20
19.9011167909
 30
0.0
 10
54.9889402461
 20
20.1189042748
 30
0.0
 10
54.9582141777
 20
20.2335771268
 30
0.0
  0
SPLINE
  5
3B8
100
AcDbEntity
  8
0
100
AcDbSpline
 62
7
  6
CONTINUOUS
 70
0
 71
3
 72
14
 73
10
 74
0
 42
0.0000001
 43
0.0000001
 44
0.0000000001
 40
0.0
 40
0.0
 40
0.0
 40
0.0
 40
0.2541088618
 40
0.3868632666
 40
0.5195237808
 40
0.649274242
 40
0.7736545162
 40
0.8908380521
 40
1.0
 40
1.0
 40
1.0
 40
1.0
 10
29.8362071377
 20
76.3879420252
 30
0.0
 10
29.7489111976
 20
75.9613445181
 30
0.0
 10
29.7337149802
 20
75.2837244463
 30
0.0
 10
29.9062214456
 20
74.4087589561
 30
0.0
 10
30.1327726105
 20
73.7677109001
 30
0.0
 10
30.4451947699
 20
73.1803324124
 30
0.0
 10
30.8308889108
 20
72.6704759436
 30
0.0
 10
31.2741201158
 20
72.2597700268
 30
0.0
 10
31.6088872297
 20
72.0566788321
 30
0.0
 10
31.7793471001
 20
71.9796442506
 30
0.0
  0
SPLINE
  5
3B9
100
AcDbEntity
  8
0
100
AcDbSpline
 62
7
  6
CONTINUOUS
 70
0
 71
3
 72
10
 73
6
 74
0
 42
0.0000001
 43
0.0000001
 44
0.0000000001
 40
0.0
 40
0.0
 40
0.0
 40
0.0
 40
0.515782685
 40
0.7600889506
 40
1.0
 40
1.0
 40
1.0
 40
1.0
 10
15.851066261
 20
26.3981714111
 30
0.0
 10
15.9738330983
 20
26.1324848299
 30
0.0
 10
16.2063599741
 20
25.7596672031
 30
0.0
 10
16.6138289933
 20
25.3619890456
 30
0.0
 10
16.8406709288
 20
25.2041476902
 30
0.0
 10
16.9585938252
 20
25.1361227664
 30
0.0
  0
SPLINE
  5
3BA
100
AcDbEntity
  8
0
100
AcDbSpline
 62
7
  6
CONTINUOUS
 70
0
 71
3
 72
12
 73
8
 74
0
 42
0.0000001
 43
0.0000001
 44
0.0000000001
 40
0.0
 40
0.0
 40
0.0
 40
0.0
 40
0.1021101526
 40
0.2073306135
 40
0.4360762607
 40
0.7000125528
 40
1.0
 40
1.0
 40
1.0
 40
1.0
 10
28.5790580363
 20
53.2510725183
 30
0.0
 10
28.6084186894
 20
53.2341091469
 30
0.0
 10
28.6720414894
 20
53.206146914
 30
0.0
 10
28.8148887789
 20
53.1771940088
 30
0.0
 10
29.0168798106
 20
53.1971684898
 30
0.0
 10
29.2622327467
 20
53.299166346
 30
0.0
 10
29.4167586343
 20
53.4074002446
 30
0.0
 10
29.4932884762
 20
53.471175674
 30
0.0
  0
SPLINE
  5
3BB
100
AcDbEntity
  8
0
100
AcDbSpline
 62
7
  6
CONTINUOUS
 70
0
 71
3
 72
11
 73
7
 74
0
 42
0.0000001
 43
0.0000001
 44
0.0000000001
 40
0.0
 40
0.0
 40
0.0
 40
0.0
 40
0.2520998016
 40
0.5076584865
 40
0.7592369054
 40
1.0
 40
1.0
 40
1.0
 40
1.0
 10
58.8209631079
 20
94.1810611873
 30
0.0
 10
58.6908973353
 20
94.4092042817
 30
0.0
 10
58.4709405221
 20
94.8936688229
 30
0.0
 10
58.2701592709
 20
95.662442482
 30
0.0
 10
58.2038279208
 20
96.4424813979
 30
0.0
 10
58.2537820609
 20
96.9567360185
 30
0.0
 10
58.3040630845
 20
97.2024491556
 30
0.0
  0
SPLINE
  5
3BC
100
AcDbEntity
  8
0
100
AcDbSpline
 62
7
  6
CONTINUOUS
 70
0
 71
3
 72
12
 73
8
 74
0
 42
0.0000001
 43
0.0000001
 44
0.0000000001
 40
0.0
 40
0.0
 40
0.0
 40
0.0
 40
0.1133408939
 40
0.2281070387
 40
0.4662354257
 40
0.7226585835
 40
1.0
 40
1.0
 40
1.0
 40
1.0
 10
30.0396210193
 20
70.3198011421
 30
0.0
 10
29.9738386376
 20
70.3021711126
 30
0.0
 10
29.8440429277
 20
70.2559732992
 30
0.0
 10
29.5974698605
 20
70.1209313542
 30
0.0
 10
29.3213165098
 20
69.8719071405
 30
0.0
 10
29.0699896429
 20
69.4768213696
 30
0.0
 10
28.9623206466
 20
69.171744226
 30
0.0
 10
28.9219396475
 20
69.0100626924
 30
0.0
  0
SPLINE
  5
3BD
100
AcDbEntity
  8
0
100
AcDbSpline
 62
7
  6
CONTINUOUS
 70
0
 71
3
 72
22
 73
18
 74
0
 42
0.0000001
 43
0.0000001
 44
0.0000000001
 40
0.0
 40
0.0
 40
0.0
 40
0.0
 40
0.1285597812
 40
0.1952137375
 40
0.2626919178
 40
0.330582047
 40
0.3985096458
 40
0.4660930882
 40
0.5328977415
 40
0.5984163035
 40
0.6620945003
 40
0.7234124101
 40
0.7820352281
 40
0.8380209072
 40
0.8920281517
 40
0.9454038997
 40
1.0
 40
1.0
 40
1.0
 40
1.0
 10
51.7959528216
 20
95.458651472
 30
0.0
 10
51.5551106789
 20
95.2675588129
 30
0.0
 10
51.2215297912
 20
94.9310188867
 30
0.0
 10
50.8838402601
 20
94.3988618608
 30
0.0
 10
50.6944506451
 20
93.9516425597
 30
0.0
 10
50.5880991648
 20
93.4743537156
 30
0.0
 10
50.5736756529
 20
92.985182804
 30
0.0
 10
50.6504815716
 20
92.5047164537
 30
0.0
 10
50.8092199457
 20
92.0512687706
 30
0.0
 10
51.0359019485
 20
91.638711901
 30
0.0
 10
51.315650183
 20
91.27685978
 30
0.0
 10
51.6349362123
 20
90.9729143243
 30
0.0
 10
51.9826035062
 20
90.7327557129
 30
0.0
 10
52.3501812707
 20
90.5618577642
 30
0.0
 10
52.7315503458
 20
90.4658389344
 30
0.0
 10
53.1213418478
 20
90.4499698952
 30
0.0
 10
53.3778966237
 20
90.4936891581
 30
0.0
 10
53.5040116811
 20
90.527479581
 30
0.0
  0
SPLINE
  5
3BE
100
AcDbEntity
  8
0
100
AcDbSpline
 62
7
  6
CONTINUOUS
 70
0
 71
3
 72
9
 73
5
 74
0
 42
0.0000001
 43
0.0000001
 44
0.0000000001
 40
0.0
 40
0.0
 40
0.0
 40
0.0
 40
0.2577781122
 40
1.0
 40
1.0
 40
1.0
 40
1.0
 10
51.7959528216
 20
95.458651472
 30
0.0
 10
51.8384116995
 20
95.4923398447
 30
0.0
 10
52.0052967115
 20
95.6202408269
 30
0.0
 10
52.1810684803
 20
95.7367249141
 30
0.0
 10
52.3162196995
 20
95.8147540411
 30
0.0
  0
SPLINE
  5
3BF
100
AcDbEntity
  8
0
100
AcDbSpline
 62
7
  6
CONTINUOUS
 70
0
 71
3
 72
9
 73
5
 74
0
 42
0.0000001
 43
0.0000001
 44
0.0000000001
 40
0.0
 40
0.0
 40
0.0
 40
0.0
 40
0.4548564357
 40
1.0
 40
1.0
 40
1.0
 40
1.0
 10
18.3210491285
 20
22.4087549707
 30
0.0
 10
18.342559999
 20
22.3473062766
 30
0.0
 10
18.3539799914
 20
22.2001898166
 30
0.0
 10
18.3213930767
 20
22.0593674683
 30
0.0
 10
18.2956702817
 20
21.9857012204
 30
0.0
  0
SPLINE
  5
3C0
100
AcDbEntity
  8
0
100
AcDbSpline
 62
7
  6
CONTINUOUS
 70
0
 71
3
 72
12
 73
8
 74
0
 42
0.0000001
 43
0.0000001
 44
0.0000000001
 40
0.0
 40
0.0
 40
0.0
 40
0.0
 40
0.2804695292
 40
0.5557021872
 40
0.6832338199
 40
0.8006831615
 40
1.0
 40
1.0
 40
1.0
 40
1.0
 10
18.2956702817
 20
21.9857012204
 30
0.0
 10
18.2681284331
 20
21.9068254744
 30
0.0
 10
18.1945244394
 20
21.7567860551
 30
0.0
 10
18.066655462
 20
21.596040663
 30
0.0
 10
17.9481224761
 20
21.4952402818
 30
0.0
 10
17.8359643239
 20
21.4251316241
 30
0.0
 10
17.7420310988
 20
21.3953070806
 30
0.0
 10
17.6826616234
 20
21.3947255139
 30
0.0
  0
SPLINE
  5
3C1
100
AcDbEntity
  8
0
100
AcDbSpline
 62
7
  6
CONTINUOUS
 70
0
 71
3
 72
12
 73
8
 74
0
 42
0.0000001
 43
0.0000001
 44
0.0000000001
 40
0.0
 40
0.0
 40
0.0
 40
0.0
 40
0.1124443757
 40
0.226458577
 40
0.4638954321
 40
0.7210012501
 40
1.0
 40
1.0
 40
1.0
 40
1.0
 10
50.4111795814
 20
88.7959048109
 30
0.0
 10
50.3417704869
 20
88.7772957115
 30
0.0
 10
50.2048674048
 20
88.7278680329
 30
0.0
 10
49.9457024485
 20
88.581534012
 30
0.0
 10
49.6586508991
 20
88.3093902374
 30
0.0
 10
49.4054564245
 20
87.8789766121
 30
0.0
 10
49.3037556006
 20
87.5485306328
 30
0.0
 10
49.2680100241
 20
87.3738492696
 30
0.0
  0
SPLINE
  5
3C2
100
AcDbEntity
  8
0
100
AcDbSpline
 62
7
  6
CONTINUOUS
 70
0
 71
3
 72
12
 73
8
 74
0
 42
0.0000001
 43
0.0000001
 44
0.0000000001
 40
0.0
 40
0.0
 40
0.0
 40
0.0
 40
0.0994612502
 40
0.202607625
 40
0.4300364485
 40
0.6964667823
 40
1.0
 40
1.0
 40
1.0
 40
1.0
 10
21.4933426692
 20
20.7067252556
 30
0.0
 10
21.5084255358
 20
20.6980096125
 30
0.0
 10
21.5414591849
 20
20.6839747374
 30
0.0
 10
21.6163165337
 20
20.6714068078
 30
0.0
 10
21.7221951646
 20
20.6880732753
 30
0.0
 10
21.8484404786
 20
20.75085892
 30
0.0
 10
21.9265760211
 20
20.8142283879
 30
0.0
 10
21.9648185074
 20
20.8511565504
 30
0.0
  0
SPLINE
  5
3C3
100
AcDbEntity
  8
0
100
AcDbSpline
 62
7
  6
CONTINUOUS
 70
0
 71
3
 72
13
 73
9
 74
0
 42
0.0000001
 43
0.0000001
 44
0.0000000001
 40
0.0
 40
0.0
 40
0.0
 40
0.0
 40
0.3062174482
 40
0.5753445704
 40
0.6940354508
 40
0.802759196
 40
0.903581263
 40
1.0
 40
1.0
 40
1.0
 40
1.0
 10
20.6880434971
 20
18.8230976369
 30
0.0
 10
20.7080877495
 20
18.8817606384
 30
0.0
 10
20.7358990921
 20
18.9957057519
 30
0.0
 10
20.7377881514
 20
19.1381425932
 30
0.0
 10
20.7146302901
 20
19.2364656518
 30
0.0
 10
20.687219902
 20
19.297535058
 30
0.0
 10
20.649431305
 20
19.3473609925
 30
0.0
 10
20.6174431418
 20
19.3721938148
 30
0.0
 10
20.6005422355
 20
19.3819600131
 30
0.0
  0
SPLINE
  5
3C4
100
AcDbEntity
  8
0
100
AcDbSpline
 62
7
  6
CONTINUOUS
 70
0
 71
3
 72
12
 73
8
 74
0
 42
0.0000001
 43
0.0000001
 44
0.0000000001
 40
0.0
 40
0.0
 40
0.0
 40
0.0
 40
0.1993171242
 40
0.316766626
 40
0.4442983504
 40
0.719530832
 40
1.0
 40
1.0
 40
1.0
 40
1.0
 10
20.1221901751
 20
19.9862949108
 30
0.0
 10
20.1815597356
 20
19.9868764783
 30
0.0
 10
20.2754930787
 20
20.0167011255
 30
0.0
 10
20.3876513557
 20
20.0868098828
 30
0.0
 10
20.5061842781
 20
20.1876103769
 30
0.0
 10
20.634053135
 20
20.3483556812
 30
0.0
 10
20.7076570203
 20
20.498394973
 30
0.0
 10
20.7351988335
 20
20.5772706173
 30
0.0
  0
SPLINE
  5
3C5
100
AcDbEntity
  8
0
100
AcDbSpline
 62
7
  6
CONTINUOUS
 70
0
 71
3
 72
9
 73
5
 74
0
 42
0.0000001
 43
0.0000001
 44
0.0000000001
 40
0.0
 40
0.0
 40
0.0
 40
0.0
 40
0.5451435643
 40
1.0
 40
1.0
 40
1.0
 40
1.0
 10
20.7351988335
 20
20.5772706173
 30
0.0
 10
20.7609216285
 20
20.6509368652
 30
0.0
 10
20.7935085431
 20
20.7917592135
 30
0.0
 10
20.7820885507
 20
20.9388756735
 30
0.0
 10
20.7605776803
 20
21.0003243676
 30
0.0
  0
SPLINE
  5
3C6
100
AcDbEntity
  8
0
100
AcDbSpline
 62
7
  6
CONTINUOUS
 70
0
 71
3
 72
11
 73
7
 74
0
 42
0.0000001
 43
0.0000001
 44
0.0000000001
 40
0.0
 40
0.0
 40
0.0
 40
0.0
 40
0.2524335249
 40
0.5079581147
 40
0.759355766
 40
1.0
 40
1.0
 40
1.0
 40
1.0
 10
48.2190205685
 20
84.7921745276
 30
0.0
 10
48.0930488536
 20
85.018686413
 30
0.0
 10
47.8803438091
 20
85.4982441875
 30
0.0
 10
47.6870871328
 20
86.2571965225
 30
0.0
 10
47.6247337667
 20
87.0258394258
 30
0.0
 10
47.6747036553
 20
87.5322205383
 30
0.0
 10
47.7242378527
 20
87.7742840876
 30
0.0
  0
SPLINE
  5
3C7
100
AcDbEntity
  8
0
100
AcDbSpline
 62
7
  6
CONTINUOUS
 70
0
 71
3
 72
11
 73
7
 74
0
 42
0.0000001
 43
0.0000001
 44
0.0000000001
 40
0.0
 40
0.0
 40
0.0
 40
0.0
 40
0.2364019774
 40
0.4788375162
 40
0.7322344795
 40
1.0
 40
1.0
 40
1.0
 40
1.0
 10
39.8299325092
 20
79.3504526617
 30
0.0
 10
39.7350915144
 20
79.3250250789
 30
0.0
 10
39.5482928598
 20
79.2509046517
 30
0.0
 10
39.2963168803
 20
79.0764385419
 30
0.0
 10
39.0773063051
 20
78.8441988425
 30
0.0
 10
38.9603641543
 20
78.6604519664
 30
0.0
 10
38.9084761125
 20
78.5620804269
 30
0.0
  0
SPLINE
  5
3C8
100
AcDbEntity
  8
0
100
AcDbSpline
 62
7
  6
CONTINUOUS
 70
0
 71
3
 72
15
 73
11
 74
0
 42
0.0000001
 43
0.0000001
 44
0.0000000001
 40
0.0
 40
0.0
 40
0.0
 40
0.0
 40
0.1232418216
 40
0.2514756381
 40
0.3824253748
 40
0.5138647871
 40
0.6434399672
 40
0.7689027728
 40
0.8883304816
 40
1.0
 40
1.0
 40
1.0
 40
1.0
 10
44.3933016968
 20
79.3484575318
 30
0.0
 10
44.4342337535
 20
79.5484841691
 30
0.0
 10
44.5414506439
 20
79.9520549308
 30
0.0
 10
44.7659317729
 20
80.5455334656
 30
0.0
 10
45.0524597268
 20
81.1268791167
 30
0.0
 10
45.3932823461
 20
81.6807247712
 30
0.0
 10
45.7796173986
 20
82.1925419757
 30
0.0
 10
46.2013096822
 20
82.6490832534
 30
0.0
 10
46.6473339956
 20
83.0381465423
 30
0.0
 10
46.9651260503
 20
83.2539963162
 30
0.0
 10
47.1253411297
 20
83.3464959833
 30
0.0
  0
SPLINE
  5
3C9
100
AcDbEntity
  8
0
100
AcDbSpline
 62
7
  6
CONTINUOUS
 70
0
 71
3
 72
15
 73
11
 74
0
 42
0.0000001
 43
0.0000001
 44
0.0000000001
 40
0.0
 40
0.0
 40
0.0
 40
0.0
 40
0.1232418216
 40
0.2514756381
 40
0.3824253748
 40
0.5138647871
 40
0.6434399672
 40
0.7689027728
 40
0.8883304816
 40
1.0
 40
1.0
 40
1.0
 40
1.0
 10
54.9582141777
 20
88.7140858553
 30
0.0
 10
54.9991462344
 20
88.9141124926
 30
0.0
 10
55.1063631248
 20
89.3176832543
 30
0.0
 10
55.3308442538
 20
89.9111617891
 30
0.0
 10
55.6173722077
 20
90.4925074401
 30
0.0
 10
55.958194827
 20
91.0463530947
 30
0.0
 10
56.3445298795
 20
91.5581702992
 30
0.0
 10
56.7662221631
 20
92.0147115769
 30
0.0
 10
57.2122464764
 20
92.4037748658
 30
0.0
 10
57.5300385311
 20
92.6196246397
 30
0.0
 10
57.6902536106
 20
92.7121243068
 30
0.0
  0
ELLIPSE
  5
3CA
100
AcDbEntity
  8
0
100
AcDbEllipse
 62
7
  6
CONTINUOUS
 10
30.746899437
 20
19.9248502605
 30
0.0
 11
-1.6834344222
 21
1.9638896654
 31
0.0
 40
0.4107626802
 41
6.8725981833
 42
6.9918477496
  0
ELLIPSE
  5
3CB
100
AcDbEntity
  8
0
100
AcDbEllipse
 62
7
  6
CONTINUOUS
 10
30.746899437
 20
68.0879608811
 30
0.0
 11
-0.5629335772
 21
2.5502521868
 31
0.0
 40
0.6979052179
 41
1.0026702941
 42
3.0004024649
  0
ENDSEC
  0
SECTION
  2
OBJECTS
  0
DICTIONARY
  5
C
100
AcDbDictionary
280
0
281
1
  3
ACAD_GROUP
350
D
  3
ACAD_MLINESTYLE
350
17
  3
ACAD_LAYOUT
350
1A
  3
ACAD_PLOTSETTINGS
350
19
  3
ACAD_PLOTSTYLENAME
350
E
  0
DICTIONARY
  5
D
102
{ACAD_REACTORS
330
C
102
}
100
AcDbDictionary
280
0
281
1
  0
ACDBDICTIONARYWDFLT
  5
E
102
{ACAD_REACTORS
330
C
102
}
100
AcDbDictionary
281
1
  3
Normal
350
F
100
AcDbDictionaryWithDefault
340
F
  0
DICTIONARY
  5
17
102
{ACAD_REACTORS
330
C
102
}
100
AcDbDictionary
280
0
281
1
  3
Standard
350
18
  0
DICTIONARY
  5
19
102
{ACAD_REACTORS
330
C
102
}
100
AcDbDictionary
281
1
  0
DICTIONARY
  5
1A
102
{ACAD_REACTORS
330
C
102
}
100
AcDbDictionary
281
1
  3
Model
350
3CC
  3
Layout1
350
3CD
  0
ACDBPLACEHOLDER
  5
F
102
{ACAD_REACTORS
330
E
102
}
  0
MLINESTYLE
  5
18
102
{ACAD_REACTORS
330
17
102
}
100
AcDbMlineStyle
  2
STANDARD
 70
0
  3

 62
256
 51
90.0
 52
90.0
 71
2
 49
0.5
 62
256
  6
BYLAYER
 49
-0.5
 62
256
  6
BYLAYER
  0
LAYOUT
  5
3CC
102
{ACAD_REACTORS
330
1A
102
}
100
AcDbPlotSettings
  1

  2
none_device
  4

  6

 40
0.0
 41
0.0
 42
0.0
 43
0.0
 44
210.0
 45
297.0
 46
0.0
 47
0.0
 48
0.0
 49
0.0
140
0.0
141
0.0
142
1.0
143
1.0
 70
1024
 72
1
 73
0
 74
0
  7

 75
0
147
1.0
148
0.0
149
0.0
100
AcDbLayout
  1
Model
 70
0
 71
0
 10
0.0
 20
0.0
 11
210.0
 21
297.0
 12
0.0
 22
0.0
 32
0.0
 14
0.0
 24
0.0
 34
0.0
 15
0.0
 25
0.0
 35
0.0
146
0.0
 13
0.0
 23
0.0
 33
0.0
 16
1.0
 26
0.0
 36
0.0
 17
0.0
 27
1.0
 37
0.0
 76
0
330
210
345
0
346
0
  0
LAYOUT
  5
3CD
102
{ACAD_REACTORS
330
1A
102
}
100
AcDbPlotSettings
  1

  2
none_device
  4

  6

 40
0.0
 41
0.0
 42
0.0
 43
0.0
 44
210.0
 45
297.0
 46
0.0
 47
0.0
 48
0.0
 49
0.0
140
0.0
141
0.0
142
1.0
143
1.0
 70
0
 72
1
 73
0
 74
0
  7

 75
0
147
1.0
148
0.0
149
0.0
100
AcDbLayout
  1
Layout1
 70
0
 71
1
 10
0.0
 20
0.0
 11
210.0
 21
297.0
 12
0.0
 22
0.0
 32
0.0
 14
0.0
 24
0.0
 34
0.0
 15
0.0
 25
0.0
 35
0.0
146
0.0
 13
0.0
 23
0.0
 33
0.0
 16
1.0
 26
0.0
 36
0.0
 17
0.0
 27
1.0
 37
0.0
 76
0
330
211
345
0
346
0
  0
ENDSEC
  0
EOF
