999
DXF file: C:\Users\sesa63760\Dev\_Creo\CAD\MCADID0000488_3D-CAD\drw0001_3.dxf
999
Pro/ENGINEER 2019471 by Parametric Technology Corporation
  0
SECTION
  2
HEADER
  9
$ACADVER
  1
AC1024
  9
$DWGCODEPAGE
  3
ANSI_1252
  9
$EXTMAX
 10
389.9634197555
 20
551.5196936543
 30
0.0
  9
$EXTMIN
 10
0.0
 20
0.0
 30
0.0
  9
$LIMMIN
 10
0.0
 20
0.0
  9
$LIMMAX
 10
389.9634197555
 20
551.5196936543
  9
$VIEWCTR
 10
194.9817098778
 20
275.7598468271
  9
$VIEWSIZE
 40
551.5196936543
  9
$CLAYER
  8
0
  9
$LTSCALE
 40
35.9509133641
  9
$CELTYPE
  6
BYLAYER
  9
$DIMSCALE
 40
1.0
  9
$DIMASZ
 40
4.6424216638
  9
$DIMEXO
 40
1.0
  9
$DIMDLI
 40
24.8388128698
  9
$DIMEXE
 40
1.0
  9
$DIMCEN
 40
5.8828767323
  9
$DIMLFAC
 40
1.0
  9
$DIMBLK
  1
_FILLED
  9
$DIMALT
 70
0
  9
$DIMALTF
 40
0.0393700787
  9
$DIMTXT
 40
6.4993903293
  9
$DIMTOL
 70
1
  9
$DIMLIM
 70
0
  9
$DIMTFAC
 40
1.0
  9
$DIMTP
 40
0.01
  9
$DIMTM
 40
0.01
  9
$DIMGAP
 40
0.625
  9
$DIMDSEP
 70
46
  9
$AUNITS
 70
0
  9
$PDMODE
 70
3
  9
$PDSIZE
 40
0.3125
  9
$HANDSEED
  5
31E
  9
$TILEMODE
 70
1
  9
$MEASUREMENT
 70
1
  9
$INSUNITS
 70
4
  0
ENDSEC
  0
SECTION
  2
CLASSES
  0
CLASS
  1
ACDBDICTIONARYWDFLT
  2
AcDbDictionaryWithDefault
  3
AutoCAD 2000
 90
0
 91
1
280
0
281
0
  0
CLASS
  1
ACDBPLACEHOLDER
  2
AcDbPlaceHolder
  3
AutoCAD 2000
 90
0
 91
1
280
0
281
0
  0
CLASS
  1
LAYOUT
  2
AcDbLayout
  3
AutoCAD 2000
 90
0
 91
0
280
0
281
0
  0
ENDSEC
  0
SECTION
  2
TABLES
  0
TABLE
  2
VPORT
  5
8
100
AcDbSymbolTable
 70
2
  0
VPORT
  5
1F4
100
AcDbSymbolTableRecord
100
AcDbViewportTableRecord
  2
*ACTIVE
 70
0
 10
0.0
 20
0.0
 11
1.0
 21
1.0
 12
194.9817098778
 22
275.7598468271
 13
0.0
 23
0.0
 14
1.0
 24
1.0
 15
0.0
 25
0.0
 16
0.0
 26
0.0
 36
1.0
 17
0.0
 27
0.0
 37
0.0
 40
551.5196936543
 41
0.7070707071
 42
50.0
 43
0.0
 44
0.0
 50
0.0
 51
0.0
 71
0
 72
100
 73
1
 74
1
 75
0
 76
0
 77
0
 78
0
  0
ENDTAB
  0
TABLE
  2
LTYPE
  5
5
100
AcDbSymbolTable
 70
6
  0
LTYPE
  5
14
100
AcDbSymbolTableRecord
100
AcDbLinetypeTableRecord
  2
BYBLOCK
 70
0
  3

 72
65
 73
0
 40
0.0
  0
LTYPE
  5
15
100
AcDbSymbolTableRecord
100
AcDbLinetypeTableRecord
  2
BYLAYER
 70
0
  3

 72
65
 73
0
 40
0.0
  0
LTYPE
  5
16
100
AcDbSymbolTableRecord
100
AcDbLinetypeTableRecord
  2
CONTINUOUS
 70
64
  3
Solid line
 72
65
 73
0
 40
0.0
  0
LTYPE
  5
1F5
100
AcDbSymbolTableRecord
100
AcDbLinetypeTableRecord
  2
CENTER
 70
64
  3
____ _ ____ _ ____ _ ____ _ ____ _ ____ _ ____
 72
65
 73
4
 40
0.6
 49
0.375
 74
0
 49
-0.075
 74
0
 49
0.075
 74
0
 49
-0.075
 74
0
  0
LTYPE
  5
1F6
100
AcDbSymbolTableRecord
100
AcDbLinetypeTableRecord
  2
HIDDEN
 70
64
  3
- - - - - - - - - - - - - - - - - - - -
 72
65
 73
2
 40
0.2
 49
0.1
 74
0
 49
-0.1
 74
0
  0
LTYPE
  5
1F7
100
AcDbSymbolTableRecord
100
AcDbLinetypeTableRecord
  2
PHANTOM
 70
64
  3
_____ _ _ _____ _ _ _____ _ _ _____
 72
65
 73
6
 40
0.8
 49
0.45
 74
0
 49
-0.05
 74
0
 49
0.1
 74
0
 49
-0.05
 74
0
 49
0.1
 74
0
 49
-0.05
 74
0
  0
LTYPE
  5
1F8
100
AcDbSymbolTableRecord
100
AcDbLinetypeTableRecord
  2
DOT
 70
64
  3
. . . . . . . . . . . . . . . . . . . .
 72
65
 73
2
 40
0.2
 49
0.1
 74
0
 49
-0.1
 74
0
  0
LTYPE
  5
1F9
100
AcDbSymbolTableRecord
100
AcDbLinetypeTableRecord
  2
DASHED
 70
64
  3
- - - - - - - - - - - - - - - - - - - -
 72
65
 73
2
 40
0.2
 49
0.1
 74
0
 49
-0.1
 74
0
  0
ENDTAB
  0
TABLE
  2
LAYER
  5
2
100
AcDbSymbolTable
 70
36
  0
LAYER
  5
10
100
AcDbSymbolTableRecord
100
AcDbLayerTableRecord
  2
0
 70
0
 62
7
  6
CONTINUOUS
370
-3
390
F
  0
LAYER
  5
1FA
100
AcDbSymbolTableRecord
100
AcDbLayerTableRecord
  2
DEFAULT_1
 70
0
 62
7
  6
CENTER
370
-3
390
F
  0
LAYER
  5
1FB
100
AcDbSymbolTableRecord
100
AcDbLayerTableRecord
  2
DEFAULT_2
 70
0
 62
8
  6
HIDDEN
370
-3
390
F
  0
LAYER
  5
1FC
100
AcDbSymbolTableRecord
100
AcDbLayerTableRecord
  2
DEFAULT_3
 70
0
 62
7
  6
PHANTOM
370
-3
390
F
  0
LAYER
  5
1FD
100
AcDbSymbolTableRecord
100
AcDbLayerTableRecord
  2
00_COMPONENTS
 70
0
 62
7
  6
CONTINUOUS
370
-3
390
F
  0
LAYER
  5
1FE
100
AcDbSymbolTableRecord
100
AcDbLayerTableRecord
  2
01_1_DEFAULT_DATUMS
 70
0
 62
7
  6
CONTINUOUS
370
-3
390
F
  0
LAYER
  5
1FF
100
AcDbSymbolTableRecord
100
AcDbLayerTableRecord
  2
01_PLANES
 70
0
 62
7
  6
CONTINUOUS
370
-3
390
F
  0
LAYER
  5
200
100
AcDbSymbolTableRecord
100
AcDbLayerTableRecord
  2
02_COORD_SYS
 70
0
 62
7
  6
CONTINUOUS
370
-3
390
F
  0
LAYER
  5
201
100
AcDbSymbolTableRecord
100
AcDbLayerTableRecord
  2
03_AXES
 70
0
 62
7
  6
CONTINUOUS
370
-3
390
F
  0
LAYER
  5
202
100
AcDbSymbolTableRecord
100
AcDbLayerTableRecord
  2
04_POINTS
 70
0
 62
7
  6
CONTINUOUS
370
-3
390
F
  0
LAYER
  5
203
100
AcDbSymbolTableRecord
100
AcDbLayerTableRecord
  2
05_CURVES
 70
0
 62
7
  6
CONTINUOUS
370
-3
390
F
  0
LAYER
  5
204
100
AcDbSymbolTableRecord
100
AcDbLayerTableRecord
  2
06_SURFS
 70
0
 62
7
  6
CONTINUOUS
370
-3
390
F
  0
LAYER
  5
205
100
AcDbSymbolTableRecord
100
AcDbLayerTableRecord
  2
07_COSMETICS
 70
0
 62
7
  6
CONTINUOUS
370
-3
390
F
  0
LAYER
  5
206
100
AcDbSymbolTableRecord
100
AcDbLayerTableRecord
  2
10_NOTES
 70
0
 62
7
  6
CONTINUOUS
370
-3
390
F
  0
LAYER
  5
207
100
AcDbSymbolTableRecord
100
AcDbLayerTableRecord
  2
11_NOTES_PUB
 70
0
 62
7
  6
CONTINUOUS
370
-3
390
F
  0
LAYER
  5
208
100
AcDbSymbolTableRecord
100
AcDbLayerTableRecord
  2
13_REF_GTOL
 70
0
 62
7
  6
CONTINUOUS
370
-3
390
F
  0
LAYER
  5
209
100
AcDbSymbolTableRecord
100
AcDbLayerTableRecord
  2
16_MISC
 70
0
 62
7
  6
CONTINUOUS
370
-3
390
F
  0
LAYER
  5
20A
100
AcDbSymbolTableRecord
100
AcDbLayerTableRecord
  2
17_NO_PRINT
 70
0
 62
7
  6
CONTINUOUS
370
-3
390
F
  0
LAYER
  5
20B
100
AcDbSymbolTableRecord
100
AcDbLayerTableRecord
  2
18_DATUM_CAMS_JOINTS
 70
0
 62
7
  6
CONTINUOUS
370
-3
390
F
  0
LAYER
  5
20C
100
AcDbSymbolTableRecord
100
AcDbLayerTableRecord
  2
19_DATUM_FUNCTIONAL
 70
0
 62
7
  6
CONTINUOUS
370
-3
390
F
  0
LAYER
  5
20D
100
AcDbSymbolTableRecord
100
AcDbLayerTableRecord
  2
20_DATUM_KINEMATIC_SCHEME
 70
0
 62
7
  6
CONTINUOUS
370
-3
390
F
  0
ENDTAB
  0
TABLE
  2
STYLE
  5
3
100
AcDbSymbolTable
 70
1
  0
STYLE
  5
11
100
AcDbSymbolTableRecord
100
AcDbTextStyleTableRecord
  2
STANDARD
 70
0
 40
0.0
 41
0.8
 50
0.0
 71
0
 42
0.2
  3
txt
  4

  0
STYLE
  5
20E
100
AcDbSymbolTableRecord
100
AcDbTextStyleTableRecord
  2
TEXTSTYLE_1
 70
0
 40
0.0
 41
0.8
 50
0.0
 71
0
 42
0.2
  3
gdt
  4

  0
ENDTAB
  0
TABLE
  2
VIEW
  5
6
100
AcDbSymbolTable
 70
0
  0
ENDTAB
  0
TABLE
  2
UCS
  5
7
100
AcDbSymbolTable
 70
0
  0
ENDTAB
  0
TABLE
  2
APPID
  5
9
100
AcDbSymbolTable
 70
1
  0
APPID
  5
20F
100
AcDbSymbolTableRecord
100
AcDbRegAppTableRecord
  2
ACAD
 70
0
  0
ENDTAB
  0
TABLE
  2
BLOCK_RECORD
  5
1
100
AcDbSymbolTable
 70
0
  0
BLOCK_RECORD
  5
210
100
AcDbSymbolTableRecord
100
AcDbBlockTableRecord
  2
*Model_Space
  0
BLOCK_RECORD
  5
211
100
AcDbSymbolTableRecord
100
AcDbBlockTableRecord
  2
*Paper_Space
  0
BLOCK_RECORD
  5
212
100
AcDbSymbolTableRecord
100
AcDbBlockTableRecord
  2
_FILLED
  0
ENDTAB
  0
TABLE
  2
DIMSTYLE
  5
A
100
AcDbSymbolTable
 70
1
100
AcDbDimStyleTable
 71
0
  0
DIMSTYLE
105
213
100
AcDbSymbolTableRecord
100
AcDbDimStyleTableRecord
  2
STANDARD
 70
0
  3

  4

 40
1.0
 41
4.6424216638
 42
1.0
 43
0.38
 44
1.0
 45
0.0
 46
0.0
 47
0.01
 48
0.01
140
6.4993903293
141
0.09
142
0.0
143
25.4
144
1.0
145
0.0
146
1.0
147
0.625
 71
1
 72
0
 73
0
 74
0
 75
0
 76
0
 77
1
 78
8
 79
2
170
0
171
1
172
0
173
0
174
0
175
0
176
0
177
0
178
0
270
2
179
2
271
2
272
2
273
2
274
2
275
0
280
0
281
0
282
0
283
1
284
8
285
0
286
0
287
3
288
0
340
11
278
46
341
212
342
212
343
212
344
212
  0
ENDTAB
  0
ENDSEC
  0
SECTION
  2
BLOCKS
  0
BLOCK
  5
20
100
AcDbEntity
  8
0
100
AcDbBlockBegin
  2
*Model_Space
 70
0
 10
0.0
 20
0.0
 30
0.0
  3
*Model_Space
  1

  0
ENDBLK
  5
21
100
AcDbEntity
  8
0
100
AcDbBlockEnd
  0
BLOCK
  5
1C
100
AcDbEntity
  8
0
100
AcDbBlockBegin
  2
*Paper_Space
 70
0
 10
0.0
 20
0.0
 30
0.0
  3
*Paper_Space
  1

  0
ENDBLK
  5
1D
100
AcDbEntity
  8
0
100
AcDbBlockEnd
  0
BLOCK
  5
214
100
AcDbEntity
  8
0
100
AcDbBlockBegin
  2
_FILLED
 70
64
 10
0.0
 20
0.0
  3
_FILLED
  1

  0
SOLID
  5
215
100
AcDbEntity
  8
0
  6
BYBLOCK
 62
0
100
AcDbTrace
 10
0.0
 20
0.0
 11
-1.0
 21
0.25
 12
-1.0
 22
-0.25
 13
-1.0
 23
-0.25
  0
ENDBLK
  5
216
100
AcDbEntity
  8
0
  6
BYBLOCK
 62
0
100
AcDbBlockEnd
  0
ENDSEC
  0
SECTION
  2
ENTITIES
  0
LINE
  5
217
100
AcDbEntity
  8
0
100
AcDbLine
 62
7
  6
CONTINUOUS
 10
53.8821475145
 20
280.3199562363
 11
53.2821475145
 21
303.6199562363
  0
LINE
  5
218
100
AcDbEntity
  8
0
100
AcDbLine
 62
7
  6
CONTINUOUS
 10
49.4067988885
 20
310.4199562363
 11
49.4067988885
 21
310.3199562363
  0
LINE
  5
219
100
AcDbEntity
  8
0
100
AcDbLine
 62
7
  6
CONTINUOUS
 10
53.632147518
 20
303.6199562363
 11
53.632147518
 21
310.3199562363
  0
LINE
  5
21A
100
AcDbEntity
  8
0
100
AcDbLine
 62
7
  6
CONTINUOUS
 10
46.7183215602
 20
310.3199562363
 11
46.1321475145
 21
303.6199562363
  0
LINE
  5
21B
100
AcDbEntity
  8
0
100
AcDbLine
 62
7
  6
CONTINUOUS
 10
57.7498569481
 20
278.3199562363
 11
57.6887456308
 21
279.8199558577
  0
LINE
  5
21C
100
AcDbEntity
  8
0
100
AcDbLine
 62
7
  6
CONTINUOUS
 10
54.1821475145
 20
280.3199562363
 11
54.3579700793
 21
275.2850567396
  0
LINE
  5
21D
100
AcDbEntity
  8
0
100
AcDbLine
 62
7
  6
CONTINUOUS
 10
55.2862632154
 20
277.3374095598
 11
55.3573608922
 21
275.3025043052
  0
LINE
  5
21E
100
AcDbEntity
  8
0
100
AcDbLine
 62
7
  6
CONTINUOUS
 10
56.7809876353
 20
303.6199562363
 11
57.3809876353
 21
280.3199562363
  0
LINE
  5
21F
100
AcDbEntity
  8
0
100
AcDbLine
 62
7
  6
CONTINUOUS
 10
57.6887456308
 20
279.8199558577
 11
57.6800154091
 21
280.3199562363
  0
LINE
  5
220
100
AcDbEntity
  8
0
100
AcDbLine
 62
7
  6
CONTINUOUS
 10
62.7197274721
 20
275.3025038299
 11
62.6842080625
 21
277.3374094414
  0
LINE
  5
221
100
AcDbEntity
  8
0
100
AcDbLine
 62
7
  6
CONTINUOUS
 10
63.719484787
 20
275.2849944876
 11
63.6833899973
 21
277.3548535538
  0
LINE
  5
222
100
AcDbEntity
  8
0
100
AcDbLine
 62
7
  6
CONTINUOUS
 10
54.3321475145
 20
310.3199562363
 11
54.3321475145
 21
311.3199562363
  0
LINE
  5
223
100
AcDbEntity
  8
0
100
AcDbLine
 62
7
  6
CONTINUOUS
 10
55.3573609063
 20
274.3199562364
 11
55.3573609063
 21
275.3025043052
  0
LINE
  5
224
100
AcDbEntity
  8
0
100
AcDbLine
 62
7
  6
CONTINUOUS
 10
55.5321475145
 20
275.9199562363
 11
55.5321475145
 21
278.3199562363
  0
LINE
  5
225
100
AcDbEntity
  8
0
100
AcDbLine
 62
7
  6
CONTINUOUS
 10
58.6321475117
 20
275.9199562363
 11
58.6321475149
 21
274.3199562364
  0
LINE
  5
226
100
AcDbEntity
  8
0
100
AcDbLine
 62
7
  6
CONTINUOUS
 10
61.1321475145
 20
275.9199562363
 11
61.1321475145
 21
278.3199562363
  0
LINE
  5
227
100
AcDbEntity
  8
0
100
AcDbLine
 62
7
  6
CONTINUOUS
 10
55.286263212
 20
277.3374095598
 11
55.2863004789
 21
278.3199562363
  0
LINE
  5
228
100
AcDbEntity
  8
0
100
AcDbLine
 62
7
  6
CONTINUOUS
 10
48.3321475145
 20
311.1042129222
 11
48.4797713196
 21
310.4199562363
  0
LINE
  5
229
100
AcDbEntity
  8
0
100
AcDbLine
 62
7
  6
CONTINUOUS
 10
72.5728948247
 20
264.8199562363
 11
72.2446395915
 21
274.2199562363
  0
LINE
  5
22A
100
AcDbEntity
  8
0
100
AcDbLine
 62
7
  6
CONTINUOUS
 10
67.3821475145
 20
311.3999562363
 11
67.3821475145
 21
311.3199562363
  0
LINE
  5
22B
100
AcDbEntity
  8
0
100
AcDbLine
 62
7
  6
CONTINUOUS
 10
67.3821475145
 20
274.2199562363
 11
67.3821475145
 21
274.3199562363
  0
LINE
  5
22C
100
AcDbEntity
  8
0
100
AcDbLine
 62
7
  6
CONTINUOUS
 10
69.3821475145
 20
311.3199562363
 11
69.3821475145
 21
311.3999562363
  0
LINE
  5
22D
100
AcDbEntity
  8
0
100
AcDbLine
 62
7
  6
CONTINUOUS
 10
72.6900185804
 20
264.3199562363
 11
72.6900185804
 21
264.8199562363
  0
LINE
  5
22E
100
AcDbEntity
  8
0
100
AcDbLine
 62
7
  6
CONTINUOUS
 10
73.3821475145
 20
274.2199562363
 11
73.3821475145
 21
274.3199562365
  0
LINE
  5
22F
100
AcDbEntity
  8
0
100
AcDbLine
 62
7
  6
CONTINUOUS
 10
74.5903552094
 20
264.8199562363
 11
74.5903552094
 21
264.3199562363
  0
LINE
  5
230
100
AcDbEntity
  8
0
100
AcDbLine
 62
7
  6
CONTINUOUS
 10
75.6821475145
 20
276.3199562363
 11
75.6821475145
 21
280.3199562363
  0
LINE
  5
231
100
AcDbEntity
  8
0
100
AcDbLine
 62
7
  6
CONTINUOUS
 10
77.0821475145
 20
280.3199562363
 11
77.0821475145
 21
276.3199562363
  0
LINE
  5
232
100
AcDbEntity
  8
0
100
AcDbLine
 62
7
  6
CONTINUOUS
 10
77.7821475145
 20
274.3199562363
 11
77.7821475145
 21
264.8199562363
  0
LINE
  5
233
100
AcDbEntity
  8
0
100
AcDbLine
 62
7
  6
CONTINUOUS
 10
80.8945687811
 20
286.3375943265
 11
79.6197655396
 21
281.5799638597
  0
LINE
  5
234
100
AcDbEntity
  8
0
100
AcDbLine
 62
7
  6
CONTINUOUS
 10
102.8821475145
 20
311.3999562363
 11
102.8821475145
 21
311.3199562363
  0
LINE
  5
235
100
AcDbEntity
  8
0
100
AcDbLine
 62
7
  6
CONTINUOUS
 10
104.8821475145
 20
311.3199562363
 11
104.8821475145
 21
311.3999562363
  0
LINE
  5
236
100
AcDbEntity
  8
0
100
AcDbLine
 62
7
  6
CONTINUOUS
 10
105.8821475145
 20
277.3199562363
 11
105.8821475145
 21
278.3199562363
  0
LINE
  5
237
100
AcDbEntity
  8
0
100
AcDbLine
 62
7
  6
CONTINUOUS
 10
100.3671476578
 20
282.3199562363
 11
100.3673614931
 21
283.2850567303
  0
LINE
  5
238
100
AcDbEntity
  8
0
100
AcDbLine
 62
7
  6
CONTINUOUS
 10
106.4945687811
 20
293.8375943265
 11
105.2793451911
 21
289.3023181461
  0
LINE
  5
239
100
AcDbEntity
  8
0
100
AcDbLine
 62
7
  6
CONTINUOUS
 10
108.8821475145
 20
277.3199562363
 11
108.8821475145
 21
278.3199562363
  0
LINE
  5
23A
100
AcDbEntity
  8
0
100
AcDbLine
 62
7
  6
CONTINUOUS
 10
93.1861867203
 20
275.2846609507
 11
96.5252920069
 21
281.0688887332
  0
LINE
  5
23B
100
AcDbEntity
  8
0
100
AcDbLine
 62
7
  6
CONTINUOUS
 10
97.3911554227
 20
280.6035075833
 11
94.6292443124
 21
275.8197372144
  0
LINE
  5
23C
100
AcDbEntity
  8
0
100
AcDbLine
 62
7
  6
CONTINUOUS
 10
94.5921233158
 20
275.7572163189
 11
94.6293075357
 21
275.8198467257
  0
LWPOLYLINE
  5
23D
100
AcDbEntity
  8
0
100
AcDbPolyline
 62
7
  6
CONTINUOUS
 90
4
 70
0
 10
95.6650735053
 20
277.6137563838
 10
95.7317195036
 20
277.7192337556
 10
96.2023584018
 20
278.1636877384
 10
96.5474177244
 20
278.3199562363
  0
LINE
  5
23E
100
AcDbEntity
  8
0
100
AcDbLine
 62
7
  6
CONTINUOUS
 10
109.3821475145
 20
278.3199562363
 11
109.7840713032
 21
276.8199562363
  0
LINE
  5
23F
100
AcDbEntity
  8
0
100
AcDbLine
 62
7
  6
CONTINUOUS
 10
100.1259893375
 20
282.3113549364
 11
96.9480885493
 21
278.3199562708
  0
LINE
  5
240
100
AcDbEntity
  8
0
100
AcDbLine
 62
7
  6
CONTINUOUS
 10
133.6071475145
 20
277.6699562363
 11
133.6071475145
 21
278.3199561101
  0
LINE
  5
241
100
AcDbEntity
  8
0
100
AcDbLine
 62
7
  6
CONTINUOUS
 10
137.1571475145
 20
278.3199560946
 11
137.1571475145
 21
277.6699562363
  0
LINE
  5
242
100
AcDbEntity
  8
0
100
AcDbLine
 62
7
  6
CONTINUOUS
 10
111.3821475145
 20
276.8199562363
 11
112.8821475145
 21
278.3199562363
  0
LINE
  5
243
100
AcDbEntity
  8
0
100
AcDbLine
 62
7
  6
CONTINUOUS
 10
154.3821475145
 20
277.3199562363
 11
154.3821475145
 21
278.3199562363
  0
LINE
  5
244
100
AcDbEntity
  8
0
100
AcDbLine
 62
7
  6
CONTINUOUS
 10
157.3821475145
 20
277.3199562363
 11
157.3821475145
 21
278.3199562363
  0
LINE
  5
245
100
AcDbEntity
  8
0
100
AcDbLine
 62
7
  6
CONTINUOUS
 10
165.8821475145
 20
277.3199562363
 11
165.8821475145
 21
278.3199562363
  0
LINE
  5
246
100
AcDbEntity
  8
0
100
AcDbLine
 62
7
  6
CONTINUOUS
 10
168.8821475145
 20
277.3199562363
 11
168.8821475145
 21
278.3199562363
  0
LINE
  5
247
100
AcDbEntity
  8
0
100
AcDbLine
 62
7
  6
CONTINUOUS
 10
265.5426236791
 20
242.8199562363
 11
263.5426236791
 21
242.8199562363
  0
LINE
  5
248
100
AcDbEntity
  8
0
100
AcDbLine
 62
7
  6
CONTINUOUS
 10
316.8821475145
 20
243.2199562363
 11
272.8821475145
 21
243.2199562363
  0
LINE
  5
249
100
AcDbEntity
  8
0
100
AcDbLine
 62
7
  6
CONTINUOUS
 10
321.5478752396
 20
243.3199562363
 11
263.5293518845
 21
243.3199562363
  0
LINE
  5
24A
100
AcDbEntity
  8
0
100
AcDbLine
 62
7
  6
CONTINUOUS
 10
180.3821475145
 20
278.3199562363
 11
180.3821475145
 21
275.2199562363
  0
LINE
  5
24B
100
AcDbEntity
  8
0
100
AcDbLine
 62
7
  6
CONTINUOUS
 10
74.5903552094
 20
264.3199562363
 11
72.6900185804
 21
264.3199562363
  0
LINE
  5
24C
100
AcDbEntity
  8
0
100
AcDbLine
 62
7
  6
CONTINUOUS
 10
242.3821475145
 20
264.8199562363
 11
236.8821475145
 21
264.8199562363
  0
LINE
  5
24D
100
AcDbEntity
  8
0
100
AcDbLine
 62
7
  6
CONTINUOUS
 10
77.7821475145
 20
264.8199562363
 11
72.5728948247
 21
264.8199562363
  0
LINE
  5
24E
100
AcDbEntity
  8
0
100
AcDbLine
 62
7
  6
CONTINUOUS
 10
330.3813230551
 20
269.2869529548
 11
336.2178927135
 21
269.318463383
  0
LINE
  5
24F
100
AcDbEntity
  8
0
100
AcDbLine
 62
7
  6
CONTINUOUS
 10
287.3727337478
 20
268.7992815366
 11
318.0019128983
 21
268.7992815366
  0
LINE
  5
250
100
AcDbEntity
  8
0
100
AcDbLine
 62
7
  6
CONTINUOUS
 10
231.6194853588
 20
269.3199562363
 11
324.8680199019
 21
269.3199562363
  0
LINE
  5
251
100
AcDbEntity
  8
0
100
AcDbLine
 62
7
  6
CONTINUOUS
 10
336.2161013265
 20
269.3199562363
 11
345.2323302753
 21
269.3199562363
  0
LINE
  5
252
100
AcDbEntity
  8
0
100
AcDbLine
 62
7
  6
CONTINUOUS
 10
345.2323302753
 20
270.3025038299
 11
337.9572922409
 21
270.3025043131
  0
LINE
  5
253
100
AcDbEntity
  8
0
100
AcDbLine
 62
7
  6
CONTINUOUS
 10
332.5845777656
 20
274.2199562363
 11
328.1797172635
 21
274.2199562363
  0
LINE
  5
254
100
AcDbEntity
  8
0
100
AcDbLine
 62
7
  6
CONTINUOUS
 10
73.3821475145
 20
274.2199562363
 11
67.3821475145
 21
274.2199562363
  0
LINE
  5
255
100
AcDbEntity
  8
0
100
AcDbLine
 62
7
  6
CONTINUOUS
 10
55.3573609063
 20
274.3199562363
 11
67.5810901477
 21
274.3199562363
  0
LINE
  5
256
100
AcDbEntity
  8
0
100
AcDbLine
 62
7
  6
CONTINUOUS
 10
73.1830026908
 20
274.3199562363
 11
227.000949668
 21
274.3199562363
  0
LINE
  5
257
100
AcDbEntity
  8
0
100
AcDbLine
 62
7
  6
CONTINUOUS
 10
218.8821475145
 20
274.5199562363
 11
215.8821475145
 21
274.5199562363
  0
LINE
  5
258
100
AcDbEntity
  8
0
100
AcDbLine
 62
7
  6
CONTINUOUS
 10
226.856613758
 20
274.5699533659
 11
218.8821475145
 21
274.5699533659
  0
LINE
  5
259
100
AcDbEntity
  8
0
100
AcDbLine
 62
7
  6
CONTINUOUS
 10
215.8821475145
 20
274.5699533659
 11
93.1999736883
 21
274.5699533659
  0
LINE
  5
25A
100
AcDbEntity
  8
0
100
AcDbLine
 62
7
  6
CONTINUOUS
 10
180.3821475145
 20
275.2199562363
 11
226.4813344258
 21
275.2199562363
  0
LINE
  5
25B
100
AcDbEntity
  8
0
100
AcDbLine
 62
7
  6
CONTINUOUS
 10
62.7197274637
 20
275.3025043052
 11
55.3573608922
 21
275.3025043052
  0
LINE
  5
25C
100
AcDbEntity
  8
0
100
AcDbLine
 62
7
  6
CONTINUOUS
 10
345.2321475145
 20
275.9199562363
 11
339.6321475145
 21
275.9199562363
  0
LINE
  5
25D
100
AcDbEntity
  8
0
100
AcDbLine
 62
7
  6
CONTINUOUS
 10
61.1321475145
 20
275.9199562363
 11
55.5321475145
 21
275.9199562363
  0
LINE
  5
25E
100
AcDbEntity
  8
0
100
AcDbLine
 62
7
  6
CONTINUOUS
 10
75.6821475145
 20
276.3199562363
 11
77.0821475145
 21
276.3199562363
  0
LINE
  5
25F
100
AcDbEntity
  8
0
100
AcDbLine
 62
7
  6
CONTINUOUS
 10
323.6821475145
 20
276.3199562363
 11
325.0821475145
 21
276.3199562363
  0
LINE
  5
260
100
AcDbEntity
  8
0
100
AcDbLine
 62
7
  6
CONTINUOUS
 10
111.3821475145
 20
276.8199562363
 11
109.7840713032
 21
276.8199562363
  0
LINE
  5
261
100
AcDbEntity
  8
0
100
AcDbLine
 62
7
  6
CONTINUOUS
 10
75.6821475145
 20
277.2290599004
 11
77.0821475145
 21
277.2290599004
  0
LINE
  5
262
100
AcDbEntity
  8
0
100
AcDbLine
 62
7
  6
CONTINUOUS
 10
323.6821475145
 20
277.229059899
 11
325.0821475145
 21
277.229059899
  0
LINE
  5
263
100
AcDbEntity
  8
0
100
AcDbLine
 62
7
  6
CONTINUOUS
 10
168.8821475145
 20
277.3199562363
 11
165.8821475145
 21
277.3199562363
  0
LINE
  5
264
100
AcDbEntity
  8
0
100
AcDbLine
 62
7
  6
CONTINUOUS
 10
157.3821475145
 20
277.3199562363
 11
154.3821475145
 21
277.3199562363
  0
LINE
  5
265
100
AcDbEntity
  8
0
100
AcDbLine
 62
7
  6
CONTINUOUS
 10
108.8821475145
 20
277.3199562363
 11
105.8821475145
 21
277.3199562363
  0
LINE
  5
266
100
AcDbEntity
  8
0
100
AcDbLine
 62
7
  6
CONTINUOUS
 10
338.0800869652
 20
277.3374093674
 11
339.6321475145
 21
277.3374093674
  0
LINE
  5
267
100
AcDbEntity
  8
0
100
AcDbLine
 62
7
  6
CONTINUOUS
 10
345.2321475145
 20
277.3374093674
 11
345.4780127695
 21
277.3374093674
  0
LINE
  5
268
100
AcDbEntity
  8
0
100
AcDbLine
 62
7
  6
CONTINUOUS
 10
61.1321475145
 20
277.3374094414
 11
62.6842080625
 21
277.3374094414
  0
LINE
  5
269
100
AcDbEntity
  8
0
100
AcDbLine
 62
7
  6
CONTINUOUS
 10
55.2862632154
 20
277.3374095598
 11
55.5321475145
 21
277.3374095598
  0
LINE
  5
26A
100
AcDbEntity
  8
0
100
AcDbLine
 62
7
  6
CONTINUOUS
 10
133.6071475145
 20
277.6699562363
 11
137.1571475145
 21
277.6699562363
  0
LINE
  5
26B
100
AcDbEntity
  8
0
100
AcDbLine
 62
7
  6
CONTINUOUS
 10
346.5123059756
 20
278.3199562363
 11
338.7919480094
 21
278.3199562363
  0
LINE
  5
26C
100
AcDbEntity
  8
0
100
AcDbLine
 62
7
  6
CONTINUOUS
 10
61.9723469579
 20
278.3199562363
 11
54.2519890163
 21
278.3199562363
  0
LINE
  5
26D
100
AcDbEntity
  8
0
100
AcDbLine
 62
7
  6
CONTINUOUS
 10
96.5397436183
 20
278.3199562363
 11
224.1938843696
 21
278.3199557132
  0
LINE
  5
26E
100
AcDbEntity
  8
0
100
AcDbLine
 62
7
  6
CONTINUOUS
 10
273.6213117226
 20
269.3176391035
 11
330.3813230551
 21
269.2869529548
  0
LINE
  5
26F
100
AcDbEntity
  8
0
100
AcDbLine
 62
7
  6
CONTINUOUS
 10
231.4969563344
 20
269.3224704118
 11
231.619618589
 21
269.3199562393
  0
LINE
  5
270
100
AcDbEntity
  8
0
100
AcDbLine
 62
7
  6
CONTINUOUS
 10
192.4849498379
 20
289.3023181461
 11
191.2697262479
 21
293.8375943265
  0
LINE
  5
271
100
AcDbEntity
  8
0
100
AcDbLine
 62
7
  6
CONTINUOUS
 10
209.4945687811
 20
293.8375943265
 11
208.2793451912
 21
289.3023181461
  0
LINE
  5
272
100
AcDbEntity
  8
0
100
AcDbLine
 62
7
  6
CONTINUOUS
 10
68.3588911107
 20
279.3199562363
 11
72.4053936458
 21
279.3199562363
  0
LINE
  5
273
100
AcDbEntity
  8
0
100
AcDbLine
 62
7
  6
CONTINUOUS
 10
328.3589263199
 20
279.3199562363
 11
332.4053687092
 21
279.3199562363
  0
LINE
  5
274
100
AcDbEntity
  8
0
100
AcDbLine
 62
7
  6
CONTINUOUS
 10
325.0821475145
 20
279.6413947362
 11
323.6821475145
 21
279.6413947362
  0
LINE
  5
275
100
AcDbEntity
  8
0
100
AcDbLine
 62
7
  6
CONTINUOUS
 10
77.0821475145
 20
279.6413947351
 11
75.6821475145
 21
279.6413947351
  0
LINE
  5
276
100
AcDbEntity
  8
0
100
AcDbLine
 62
7
  6
CONTINUOUS
 10
53.8821475145
 20
280.3199562363
 11
77.9776916349
 21
280.3199562363
  0
LINE
  5
277
100
AcDbEntity
  8
0
100
AcDbLine
 62
7
  6
CONTINUOUS
 10
320.6866033941
 20
280.3199562363
 11
346.8821475145
 21
280.3199562363
  0
LINE
  5
278
100
AcDbEntity
  8
0
100
AcDbLine
 62
7
  6
CONTINUOUS
 10
220.1784007749
 20
282.3113632451
 11
100.1259893375
 21
282.3113549364
  0
LINE
  5
279
100
AcDbEntity
  8
0
100
AcDbLine
 62
7
  6
CONTINUOUS
 10
219.8906078408
 20
283.2850567303
 11
100.3678341372
 21
283.2850567303
  0
LINE
  5
27A
100
AcDbEntity
  8
0
100
AcDbLine
 62
7
  6
CONTINUOUS
 10
315.8378745953
 20
287.8199562363
 11
302.9168014905
 21
287.8199562363
  0
LINE
  5
27B
100
AcDbEntity
  8
0
100
AcDbLine
 62
7
  6
CONTINUOUS
 10
206.3474935386
 20
287.8199562363
 11
194.4168014905
 21
287.8199562363
  0
LINE
  5
27C
100
AcDbEntity
  8
0
100
AcDbLine
 62
7
  6
CONTINUOUS
 10
103.3474935386
 20
287.8199562363
 11
82.8264204337
 21
287.8199562363
  0
LINE
  5
27D
100
AcDbEntity
  8
0
100
AcDbLine
 62
7
  6
CONTINUOUS
 10
223.7574376855
 20
278.3945217789
 11
223.8706776311
 21
278.3855103816
  0
LINE
  5
27E
100
AcDbEntity
  8
0
100
AcDbLine
 62
7
  6
CONTINUOUS
 10
223.8724885546
 20
278.3859089502
 11
224.2557663521
 21
278.3072569882
  0
LINE
  5
27F
100
AcDbEntity
  8
0
100
AcDbLine
 62
7
  6
CONTINUOUS
 10
219.8908412697
 20
282.3199562363
 11
219.8906079079
 21
283.2850567303
  0
LINE
  5
280
100
AcDbEntity
  8
0
100
AcDbLine
 62
7
  6
CONTINUOUS
 10
215.8821475145
 20
274.5199562363
 11
215.8821475145
 21
275.2199562363
  0
LINE
  5
281
100
AcDbEntity
  8
0
100
AcDbLine
 62
7
  6
CONTINUOUS
 10
218.8821475145
 20
274.5199562363
 11
218.8821475145
 21
275.2199562363
  0
LINE
  5
282
100
AcDbEntity
  8
0
100
AcDbLine
 62
7
  6
CONTINUOUS
 10
297.8378745953
 20
295.3199562363
 11
211.4264204337
 21
295.3199562363
  0
LINE
  5
283
100
AcDbEntity
  8
0
100
AcDbLine
 62
7
  6
CONTINUOUS
 10
189.3378745953
 20
295.3199562363
 11
108.4264204337
 21
295.3199562363
  0
LWPOLYLINE
  5
284
100
AcDbEntity
  8
0
100
AcDbPolyline
 62
7
  6
CONTINUOUS
 90
3
 70
0
 10
224.2557663521
 20
278.3072569882
 10
224.731595778
 20
278.0441401535
 10
225.0992988517
 20
277.6136699598
  0
LWPOLYLINE
  5
285
100
AcDbEntity
  8
0
100
AcDbPolyline
 62
7
  6
CONTINUOUS
 90
4
 70
0
 10
229.1529500474
 20
270.6122151161
 10
229.8638478245
 20
269.867249713
 10
230.4999205119
 20
269.5224597916
 10
231.4954046221
 20
269.3226589496
  0
LINE
  5
286
100
AcDbEntity
  8
0
100
AcDbLine
 62
7
  6
CONTINUOUS
 10
223.7574376855
 20
278.3945217789
 11
220.6598305583
 21
282.2843326261
  0
LINE
  5
287
100
AcDbEntity
  8
0
100
AcDbLine
 62
7
  6
CONTINUOUS
 10
229.0218067371
 20
270.8197291179
 11
223.6227669122
 21
280.1711404067
  0
LWPOLYLINE
  5
288
100
AcDbEntity
  8
0
100
AcDbPolyline
 62
7
  6
CONTINUOUS
 90
4
 70
0
 10
92.2208034451
 20
274.3259478228
 10
93.3554683379
 20
274.608702048
 10
94.0111924493
 20
275.0531205567
 10
94.5914826824
 20
275.7562756571
  0
LINE
  5
289
100
AcDbEntity
  8
0
100
AcDbLine
 62
7
  6
CONTINUOUS
 10
354.6321475145
 20
303.6199562363
 11
46.1321475145
 21
303.6199562363
  0
LINE
  5
28A
100
AcDbEntity
  8
0
100
AcDbLine
 62
7
  6
CONTINUOUS
 10
224.4888406529
 20
280.6361571669
 11
230.4642482386
 21
270.2836858922
  0
LINE
  5
28B
100
AcDbEntity
  8
0
100
AcDbLine
 62
7
  6
CONTINUOUS
 10
236.8821475145
 20
264.8199562363
 11
236.8821475145
 21
269.3199562363
  0
LINE
  5
28C
100
AcDbEntity
  8
0
100
AcDbLine
 62
7
  6
CONTINUOUS
 10
242.3821475145
 20
269.3199562363
 11
242.3821475145
 21
264.8199562363
  0
LINE
  5
28D
100
AcDbEntity
  8
0
100
AcDbLine
 62
7
  6
CONTINUOUS
 10
46.7183215602
 20
310.3199562363
 11
354.0459734689
 21
310.3199562363
  0
LINE
  5
28E
100
AcDbEntity
  8
0
100
AcDbLine
 62
7
  6
CONTINUOUS
 10
48.4797713197
 20
310.4199562363
 11
352.2845237094
 21
310.4199562363
  0
LINE
  5
28F
100
AcDbEntity
  8
0
100
AcDbLine
 62
7
  6
CONTINUOUS
 10
48.3321475145
 20
311.1042129222
 11
352.4321475145
 21
311.1042129222
  0
LINE
  5
290
100
AcDbEntity
  8
0
100
AcDbLine
 62
7
  6
CONTINUOUS
 10
49.2591750878
 20
311.3042129231
 11
351.5051199412
 21
311.3042129231
  0
LINE
  5
291
100
AcDbEntity
  8
0
100
AcDbLine
 62
7
  6
CONTINUOUS
 10
49.4067988885
 20
311.3199562363
 11
351.3574961405
 21
311.3199562363
  0
LINE
  5
292
100
AcDbEntity
  8
0
100
AcDbLine
 62
7
  6
CONTINUOUS
 10
67.3821475145
 20
311.3999562363
 11
104.8821475145
 21
311.3999562363
  0
LINE
  5
293
100
AcDbEntity
  8
0
100
AcDbLine
 62
7
  6
CONTINUOUS
 10
314.8821475145
 20
311.3999562363
 11
333.3821475145
 21
311.3999562363
  0
LINE
  5
294
100
AcDbEntity
  8
0
100
AcDbLine
 62
7
  6
CONTINUOUS
 10
263.5426236791
 20
242.8199562363
 11
262.2034821505
 21
268.3722987874
  0
LINE
  5
295
100
AcDbEntity
  8
0
100
AcDbLine
 62
7
  6
CONTINUOUS
 10
267.1742207306
 20
268.441940158
 11
268.4913470112
 21
243.3199562363
  0
LINE
  5
296
100
AcDbEntity
  8
0
100
AcDbLine
 62
7
  6
CONTINUOUS
 10
265.5426236791
 20
243.3199562363
 11
265.5426236791
 21
242.8199562363
  0
LINE
  5
297
100
AcDbEntity
  8
0
100
AcDbLine
 62
7
  6
CONTINUOUS
 10
272.8821475145
 20
243.3199562363
 11
272.8821475145
 21
243.2199562363
  0
LINE
  5
298
100
AcDbEntity
  8
0
100
AcDbLine
 62
7
  6
CONTINUOUS
 10
273.8821475145
 20
243.2199562363
 11
273.8821475145
 21
243.3199562363
  0
LINE
  5
299
100
AcDbEntity
  8
0
100
AcDbLine
 62
7
  6
CONTINUOUS
 10
49.2591750834
 20
311.3042129222
 11
48.3321475145
 21
311.1042129222
  0
LINE
  5
29A
100
AcDbEntity
  8
0
100
AcDbLine
 62
7
  6
CONTINUOUS
 10
352.4321475145
 20
311.1042129222
 11
351.5051199456
 21
311.3042129222
  0
LINE
  5
29B
100
AcDbEntity
  8
0
100
AcDbLine
 62
7
  6
CONTINUOUS
 10
281.8369715393
 20
243.3199562363
 11
280.4742385498
 21
269.3199562363
  0
LINE
  5
29C
100
AcDbEntity
  8
0
100
AcDbLine
 62
7
  6
CONTINUOUS
 10
283.8267886723
 20
243.3199562363
 11
282.4641864109
 21
269.3199562363
  0
LINE
  5
29D
100
AcDbEntity
  8
0
100
AcDbLine
 62
7
  6
CONTINUOUS
 10
287.3727337478
 20
268.7992815366
 11
288.7080485912
 21
243.3199562363
  0
LINE
  5
29E
100
AcDbEntity
  8
0
100
AcDbLine
 62
7
  6
CONTINUOUS
 10
287.3727337449
 20
268.7992815366
 11
287.3727337449
 21
269.3115232519
  0
LINE
  5
29F
100
AcDbEntity
  8
0
100
AcDbLine
 62
7
  6
CONTINUOUS
 10
300.9849498379
 20
289.3023181461
 11
299.7697262479
 21
293.8375943265
  0
LINE
  5
2A0
100
AcDbEntity
  8
0
100
AcDbLine
 62
7
  6
CONTINUOUS
 10
314.8821475145
 20
311.3999562363
 11
314.8821475145
 21
311.3199562363
  0
LINE
  5
2A1
100
AcDbEntity
  8
0
100
AcDbLine
 62
7
  6
CONTINUOUS
 10
315.8821475145
 20
243.3199562363
 11
315.8821475145
 21
243.2199562363
  0
LINE
  5
2A2
100
AcDbEntity
  8
0
100
AcDbLine
 62
7
  6
CONTINUOUS
 10
316.8821475145
 20
243.2199562363
 11
316.8821475145
 21
243.3199562363
  0
LINE
  5
2A3
100
AcDbEntity
  8
0
100
AcDbLine
 62
7
  6
CONTINUOUS
 10
316.8821475145
 20
311.3199562363
 11
316.8821475145
 21
311.3999562363
  0
LINE
  5
2A4
100
AcDbEntity
  8
0
100
AcDbLine
 62
7
  6
CONTINUOUS
 10
319.0445294894
 20
281.5799638596
 11
317.7697262479
 21
286.3375943265
  0
LINE
  5
2A5
100
AcDbEntity
  8
0
100
AcDbLine
 62
7
  6
CONTINUOUS
 10
318.001912898
 20
268.7992815366
 11
318.0019214346
 21
269.2949457234
  0
LINE
  5
2A6
100
AcDbEntity
  8
0
100
AcDbLine
 62
7
  6
CONTINUOUS
 10
323.6821475145
 20
276.3199562363
 11
323.6821475145
 21
280.3199562363
  0
LINE
  5
2A7
100
AcDbEntity
  8
0
100
AcDbLine
 62
7
  6
CONTINUOUS
 10
325.0821475145
 20
280.3199562363
 11
325.0821475145
 21
276.3199562363
  0
LINE
  5
2A8
100
AcDbEntity
  8
0
100
AcDbLine
 62
7
  6
CONTINUOUS
 10
318.0019128983
 20
268.7992815366
 11
316.6666153208
 21
243.3199562363
  0
LINE
  5
2A9
100
AcDbEntity
  8
0
100
AcDbLine
 62
7
  6
CONTINUOUS
 10
322.8608125335
 20
268.3722922034
 11
321.5478752396
 21
243.3199562363
  0
LINE
  5
2AA
100
AcDbEntity
  8
0
100
AcDbLine
 62
7
  6
CONTINUOUS
 10
331.3821475145
 20
311.3999562363
 11
331.3821475145
 21
311.3199562363
  0
LINE
  5
2AB
100
AcDbEntity
  8
0
100
AcDbLine
 62
7
  6
CONTINUOUS
 10
333.3821475145
 20
311.3199562363
 11
333.3821475145
 21
311.3999562363
  0
LINE
  5
2AC
100
AcDbEntity
  8
0
100
AcDbLine
 62
7
  6
CONTINUOUS
 10
336.9572945137
 20
270.2849120289
 11
337.0808958649
 21
277.3548578051
  0
LINE
  5
2AD
100
AcDbEntity
  8
0
100
AcDbLine
 62
7
  6
CONTINUOUS
 10
338.0800869686
 20
277.3374095564
 11
337.9572922366
 21
270.3025040715
  0
LINE
  5
2AE
100
AcDbEntity
  8
0
100
AcDbLine
 62
7
  6
CONTINUOUS
 10
354.6321475145
 20
303.6199562363
 11
354.0459734689
 21
310.3199562363
  0
LINE
  5
2AF
100
AcDbEntity
  8
0
100
AcDbLine
 62
7
  6
CONTINUOUS
 10
339.6321475145
 20
275.9199562363
 11
339.6321475145
 21
278.3199562363
  0
LINE
  5
2B0
100
AcDbEntity
  8
0
100
AcDbLine
 62
7
  6
CONTINUOUS
 10
342.1321475069
 20
269.3199562364
 11
342.1321475069
 21
275.9199562363
  0
LINE
  5
2B1
100
AcDbEntity
  8
0
100
AcDbLine
 62
7
  6
CONTINUOUS
 10
345.2321475145
 20
275.9199562363
 11
345.2321475145
 21
278.3199562363
  0
LINE
  5
2B2
100
AcDbEntity
  8
0
100
AcDbLine
 62
7
  6
CONTINUOUS
 10
345.2323302756
 20
270.3025038299
 11
345.2323302756
 21
269.3199562364
  0
LINE
  5
2B3
100
AcDbEntity
  8
0
100
AcDbLine
 62
7
  6
CONTINUOUS
 10
345.4780118599
 20
277.3374093674
 11
345.4779945681
 21
278.3199562363
  0
LINE
  5
2B4
100
AcDbEntity
  8
0
100
AcDbLine
 62
7
  6
CONTINUOUS
 10
346.4321475145
 20
311.3199562363
 11
346.4321475145
 21
310.3199562363
  0
LINE
  5
2B5
100
AcDbEntity
  8
0
100
AcDbLine
 62
7
  6
CONTINUOUS
 10
347.1321475132
 20
310.3199562363
 11
347.1321475131
 21
303.6199562363
  0
LINE
  5
2B6
100
AcDbEntity
  8
0
100
AcDbLine
 62
7
  6
CONTINUOUS
 10
351.3574961405
 20
310.3199562363
 11
351.3574961405
 21
310.4199562363
  0
LINE
  5
2B7
100
AcDbEntity
  8
0
100
AcDbLine
 62
7
  6
CONTINUOUS
 10
343.0755494005
 20
279.8199561099
 11
343.0842796199
 21
280.3199562363
  0
LINE
  5
2B8
100
AcDbEntity
  8
0
100
AcDbLine
 62
7
  6
CONTINUOUS
 10
343.3833073938
 20
280.3199562363
 11
343.9833073938
 21
303.6199562363
  0
LINE
  5
2B9
100
AcDbEntity
  8
0
100
AcDbLine
 62
7
  6
CONTINUOUS
 10
347.4821475145
 20
303.6199562363
 11
346.8821475145
 21
280.3199562363
  0
LINE
  5
2BA
100
AcDbEntity
  8
0
100
AcDbLine
 62
7
  6
CONTINUOUS
 10
345.2323302753
 20
270.3025038299
 11
345.4780127695
 21
277.3374093674
  0
LINE
  5
2BB
100
AcDbEntity
  8
0
100
AcDbLine
 62
7
  6
CONTINUOUS
 10
346.2317211023
 20
270.2850567396
 11
346.5821475145
 21
280.3199562363
  0
LINE
  5
2BC
100
AcDbEntity
  8
0
100
AcDbLine
 62
7
  6
CONTINUOUS
 10
343.0144381461
 20
278.3199579319
 11
343.0755494005
 21
279.8199561099
  0
LINE
  5
2BD
100
AcDbEntity
  8
0
100
AcDbLine
 62
7
  6
CONTINUOUS
 10
352.2845237094
 20
310.4199562363
 11
352.4321475146
 21
311.1042129222
  0
ARC
  5
2BE
100
AcDbEntity
  8
0
100
AcDbCircle
 62
7
  6
CONTINUOUS
 10
-767.8914903856
 20
247.2825291563
 40
840.9074198616
100
AcDbArc
 50
1.9083049
 51
2.183419567
  0
ARC
  5
2BF
100
AcDbEntity
  8
0
100
AcDbCircle
 62
7
  6
CONTINUOUS
 10
61.6843603812
 20
277.3199562363
 40
1.0
100
AcDbArc
 50
1.0000457651
 51
74.3375261514
  0
ARC
  5
2C0
100
AcDbEntity
  8
0
100
AcDbCircle
 62
7
  6
CONTINUOUS
 10
63.7195751672
 20
275.3199562363
 40
1.0
100
AcDbArc
 50
181.0
 51
269.9942174369
  0
ARC
  5
2C1
100
AcDbEntity
  8
0
100
AcDbCircle
 62
7
  6
CONTINUOUS
 10
55.3573609063
 20
275.3199562363
 40
1.0
100
AcDbArc
 50
181.9999999999
 51
270.0
  0
ARC
  5
2C2
100
AcDbEntity
  8
0
100
AcDbCircle
 62
7
  6
CONTINUOUS
 10
49.4067988886
 20
310.6199562363
 40
0.7
100
AcDbArc
 50
90.0000000015
 51
102.1745810232
  0
ARC
  5
2C3
100
AcDbEntity
  8
0
100
AcDbCircle
 62
7
  6
CONTINUOUS
 10
265.1977330695
 20
78.3531271773
 40
190.0989327706
100
AcDbArc
 50
89.4041144484
 51
90.1202877647
  0
ARC
  5
2C4
100
AcDbEntity
  8
0
100
AcDbCircle
 62
7
  6
CONTINUOUS
 10
100.3666097507
 20
278.8478657938
 40
4.4371911055
100
AcDbArc
 50
89.9841899572
 51
149.9638005403
  0
ARC
  5
2C5
100
AcDbEntity
  8
0
100
AcDbCircle
 62
7
  6
CONTINUOUS
 10
219.8923561176
 20
277.9332342543
 40
4.3866403116
100
AcDbArc
 50
88.8735800844
 51
90.0193488979
  0
ARC
  5
2C6
100
AcDbEntity
  8
0
100
AcDbCircle
 62
7
  6
CONTINUOUS
 10
219.8930895376
 20
277.965078089
 40
4.3547881592
100
AcDbArc
 50
86.4045730816
 51
88.8749831256
  0
ARC
  5
2C7
100
AcDbEntity
  8
0
100
AcDbCircle
 62
7
  6
CONTINUOUS
 10
100.3655621259
 20
278.884369512
 40
3.4354387065
100
AcDbArc
 50
90.1037817858
 51
149.9741741367
  0
ARC
  5
2C8
100
AcDbEntity
  8
0
100
AcDbCircle
 62
7
  6
CONTINUOUS
 10
92.0312945534
 20
277.3199562363
 40
3.0
100
AcDbArc
 50
293.8613709137
 51
328.6064657951
  0
ARC
  5
2C9
100
AcDbEntity
  8
0
100
AcDbCircle
 62
7
  6
CONTINUOUS
 10
92.0312945534
 20
277.3199562363
 40
3.0
100
AcDbArc
 50
270.001847319
 51
273.8617575122
  0
ARC
  5
2CA
100
AcDbEntity
  8
0
100
AcDbCircle
 62
7
  6
CONTINUOUS
 10
231.6197518216
 20
272.3199562363
 40
3.0
100
AcDbArc
 50
234.7783379026
 51
269.9974554461
  0
ARC
  5
2CB
100
AcDbEntity
  8
0
100
AcDbCircle
 62
7
  6
CONTINUOUS
 10
231.6197518216
 20
272.3199562363
 40
3.0
100
AcDbArc
 50
209.9854367689
 51
214.7740769745
  0
ARC
  5
2CC
100
AcDbEntity
  8
0
100
AcDbCircle
 62
7
  6
CONTINUOUS
 10
97.0223215312
 20
276.8248900492
 40
1.5709976405
100
AcDbArc
 50
107.8890689497
 51
121.5052437284
  0
ARC
  5
2CD
100
AcDbEntity
  8
0
100
AcDbCircle
 62
7
  6
CONTINUOUS
 10
223.7492358203
 20
276.8421117881
 40
1.5523973456
100
AcDbArc
 50
49.9251877829
 51
89.7115692241
  0
ARC
  5
2CE
100
AcDbEntity
  8
0
100
AcDbCircle
 62
7
  6
CONTINUOUS
 10
283.4121120843
 20
270.1205144614
 40
1.0088788921
100
AcDbArc
 50
233.6054370817
 51
246.7536144306
  0
ARC
  5
2CF
100
AcDbEntity
  8
0
100
AcDbCircle
 62
7
  6
CONTINUOUS
 10
261.2048529614
 20
268.3199562363
 40
1.0
100
AcDbArc
 50
3.0003575398
 51
90.0
  0
ARC
  5
2D0
100
AcDbEntity
  8
0
100
AcDbCircle
 62
7
  6
CONTINUOUS
 10
323.8594420677
 20
268.3199562363
 40
1.0
100
AcDbArc
 50
94.553277152
 51
176.9999993778
  0
ARC
  5
2D1
100
AcDbEntity
  8
0
100
AcDbCircle
 62
7
  6
CONTINUOUS
 10
345.2323302753
 20
270.3199562363
 40
1.0
100
AcDbArc
 50
270.0
 51
358.0000000001
  0
ARC
  5
2D2
100
AcDbEntity
  8
0
100
AcDbCircle
 62
7
  6
CONTINUOUS
 10
336.9574445372
 20
270.3199562363
 40
1.0
100
AcDbArc
 50
270.0000000015
 51
359.0000138439
  0
ARC
  5
2D3
100
AcDbEntity
  8
0
100
AcDbCircle
 62
7
  6
CONTINUOUS
 10
339.0799346478
 20
277.3199562363
 40
1.0
100
AcDbArc
 50
105.7165331548
 51
178.9999476453
  0
ARC
  5
2D4
100
AcDbEntity
  8
0
100
AcDbCircle
 62
7
  6
CONTINUOUS
 10
245.351762189
 20
313.8079646478
 40
45.9971873308
100
AcDbArc
 50
249.9625442656
 51
250.3615908618
  0
ARC
  5
2D5
100
AcDbEntity
  8
0
100
AcDbCircle
 62
7
  6
CONTINUOUS
 10
71.6551260582
 20
299.4402590112
 40
32.352330051
100
AcDbArc
 50
309.6209266661
 51
310.0438504083
  0
ARC
  5
2D6
100
AcDbEntity
  8
0
100
AcDbCircle
 62
7
  6
CONTINUOUS
 10
233.3438382866
 20
281.3466588062
 40
11.3857015203
100
AcDbArc
 50
249.0425231691
 51
249.5471228247
  0
ARC
  5
2D7
100
AcDbEntity
  8
0
100
AcDbCircle
 62
7
  6
CONTINUOUS
 10
315.8378745953
 20
285.8199562363
 40
2.0
100
AcDbArc
 50
15.0
 51
90.0
  0
ARC
  5
2D8
100
AcDbEntity
  8
0
100
AcDbCircle
 62
7
  6
CONTINUOUS
 10
302.9168014905
 20
289.8199562363
 40
2.0
100
AcDbArc
 50
195.0000000001
 51
270.0
  0
ARC
  5
2D9
100
AcDbEntity
  8
0
100
AcDbCircle
 62
7
  6
CONTINUOUS
 10
297.8378745953
 20
293.3199562363
 40
2.0
100
AcDbArc
 50
15.0
 51
90.0
  0
ARC
  5
2DA
100
AcDbEntity
  8
0
100
AcDbCircle
 62
7
  6
CONTINUOUS
 10
211.4264204337
 20
293.3199562363
 40
2.0
100
AcDbArc
 50
90.0
 51
165.0
  0
ARC
  5
2DB
100
AcDbEntity
  8
0
100
AcDbCircle
 62
7
  6
CONTINUOUS
 10
206.3474935386
 20
289.8199562363
 40
2.0
100
AcDbArc
 50
270.0
 51
344.9999999999
  0
ARC
  5
2DC
100
AcDbEntity
  8
0
100
AcDbCircle
 62
7
  6
CONTINUOUS
 10
194.4168014905
 20
289.8199562363
 40
2.0
100
AcDbArc
 50
195.0000000001
 51
270.0
  0
ARC
  5
2DD
100
AcDbEntity
  8
0
100
AcDbCircle
 62
7
  6
CONTINUOUS
 10
189.3378745953
 20
293.3199562363
 40
2.0
100
AcDbArc
 50
15.0
 51
90.0
  0
ARC
  5
2DE
100
AcDbEntity
  8
0
100
AcDbCircle
 62
7
  6
CONTINUOUS
 10
108.4264204337
 20
293.3199562363
 40
2.0
100
AcDbArc
 50
90.0
 51
165.0
  0
ARC
  5
2DF
100
AcDbEntity
  8
0
100
AcDbCircle
 62
7
  6
CONTINUOUS
 10
103.3474935386
 20
289.8199562363
 40
2.0
100
AcDbArc
 50
270.0
 51
344.9999999999
  0
ARC
  5
2E0
100
AcDbEntity
  8
0
100
AcDbCircle
 62
7
  6
CONTINUOUS
 10
82.8264204337
 20
285.8199562363
 40
2.0
100
AcDbArc
 50
90.0
 51
165.0
  0
ARC
  5
2E1
100
AcDbEntity
  8
0
100
AcDbCircle
 62
7
  6
CONTINUOUS
 10
320.6866033941
 20
282.0199562363
 40
1.7
100
AcDbArc
 50
195.0
 51
270.0
  0
ARC
  5
2E2
100
AcDbEntity
  8
0
100
AcDbCircle
 62
7
  6
CONTINUOUS
 10
77.9776916349
 20
282.0199562363
 40
1.7
100
AcDbArc
 50
270.0
 51
345.0000000002
  0
ARC
  5
2E3
100
AcDbEntity
  8
0
100
AcDbCircle
 62
7
  6
CONTINUOUS
 10
351.3574961405
 20
310.6199562362
 40
0.7
100
AcDbArc
 50
77.8254189776
 51
89.9999999971
  0
ARC
  5
2E4
100
AcDbEntity
  8
0
100
AcDbCircle
 62
7
  6
CONTINUOUS
 10
907.8536418152
 20
247.2949898547
 40
840.1054038561
100
AcDbArc
 50
177.8153454429
 51
178.0907089969
  0
SPLINE
  5
2E5
100
AcDbEntity
  8
0
100
AcDbSpline
 62
7
  6
CONTINUOUS
 70
0
 71
3
 72
9
 73
5
 74
0
 42
0.0000001
 43
0.0000001
 44
0.0000000001
 40
0.0
 40
0.0
 40
0.0
 40
0.0
 40
0.4999144733
 40
1.0
 40
1.0
 40
1.0
 40
1.0
 10
223.622635309
 20
280.171016827
 30
0.0
 10
223.2733785259
 20
280.7760847342
 30
0.0
 10
222.2597839012
 20
281.8313232018
 30
0.0
 10
220.8636764541
 20
282.2674416482
 30
0.0
 10
220.1661820547
 20
282.3112948793
 30
0.0
  0
SPLINE
  5
2E6
100
AcDbEntity
  8
0
100
AcDbSpline
 62
7
  6
CONTINUOUS
 70
0
 71
3
 72
16
 73
12
 74
0
 42
0.0000001
 43
0.0000001
 44
0.0000000001
 40
0.0
 40
0.0
 40
0.0
 40
0.0
 40
0.3825678771
 40
0.5556307421
 40
0.7071406442
 40
0.8307186748
 40
0.9226810951
 40
0.9558693044
 40
0.9800338865
 40
0.9948194356
 40
1.0
 40
1.0
 40
1.0
 40
1.0
 10
55.2862812581
 20
277.3373894316
 30
0.0
 10
55.1586866581
 20
277.3418332345
 30
0.0
 10
54.9733257646
 20
277.3476877902
 30
0.0
 10
54.7374718419
 20
277.3537532824
 30
0.0
 10
54.5878098599
 20
277.3569787077
 30
0.0
 10
54.4657038916
 20
277.3585730645
 30
0.0
 10
54.381876395
 20
277.359311911
 30
0.0
 10
54.3331882396
 20
277.3582553815
 30
0.0
 10
54.3071790271
 20
277.3583647427
 30
0.0
 10
54.2959989871
 20
277.3559703808
 30
0.0
 10
54.2856211334
 20
277.3565638183
 30
0.0
 10
54.2856933146
 20
277.3548364488
 30
0.0
  0
SPLINE
  5
2E7
100
AcDbEntity
  8
0
100
AcDbSpline
 62
7
  6
CONTINUOUS
 70
0
 71
3
 72
9
 73
5
 74
0
 42
0.0000001
 43
0.0000001
 44
0.0000000001
 40
0.0
 40
0.0
 40
0.0
 40
0.0
 40
0.5026156176
 40
1.0
 40
1.0
 40
1.0
 40
1.0
 10
63.6833899973
 20
277.3548535538
 30
0.0
 10
63.4460584299
 20
277.5921868001
 30
0.0
 10
62.9701676439
 20
278.0624048182
 30
0.0
 10
62.3045087204
 20
278.3199687154
 30
0.0
 10
61.9723633476
 20
278.3199562363
 30
0.0
  0
SPLINE
  5
2E8
100
AcDbEntity
  8
0
100
AcDbSpline
 62
7
  6
CONTINUOUS
 70
0
 71
3
 72
16
 73
12
 74
0
 42
0.0000001
 43
0.0000001
 44
0.0000000001
 40
0.0
 40
0.0
 40
0.0
 40
0.0
 40
0.3824246833
 40
0.5552872077
 40
0.7067124999
 40
0.8309593013
 40
0.9234426898
 40
0.9564901485
 40
0.9803497915
 40
0.9948632447
 40
1.0
 40
1.0
 40
1.0
 40
1.0
 10
55.3573423206
 20
275.3025032128
 30
0.0
 10
55.2299499151
 20
275.2980559683
 30
0.0
 10
55.0449306264
 20
275.292171224
 30
0.0
 10
54.809499258
 20
275.2861209776
 30
0.0
 10
54.6599010177
 20
275.2829128006
 30
0.0
 10
54.5375455197
 20
275.2813035068
 30
0.0
 10
54.4535326241
 20
275.2805276955
 30
0.0
 10
54.4047824645
 20
275.2815985049
 30
0.0
 10
54.3792322714
 20
275.2815171466
 30
0.0
 10
54.3679146572
 20
275.2839013548
 30
0.0
 10
54.3580321763
 20
275.2833452973
 30
0.0
 10
54.3579700929
 20
275.2850563575
 30
0.0
  0
SPLINE
  5
2E9
100
AcDbEntity
  8
0
100
AcDbSpline
 62
7
  6
CONTINUOUS
 70
0
 71
3
 72
9
 73
5
 74
0
 42
0.0000001
 43
0.0000001
 44
0.0000000001
 40
0.0
 40
0.0
 40
0.0
 40
0.0
 40
0.2661670308
 40
1.0
 40
1.0
 40
1.0
 40
1.0
 10
264.7985733039
 20
269.0624709121
 30
0.0
 10
264.6359034801
 20
269.0990944247
 30
0.0
 10
264.0237674876
 20
269.2293437352
 30
0.0
 10
263.3983339976
 20
269.3200234345
 30
0.0
 10
262.9386209245
 20
269.319934
 30
0.0
  0
SPLINE
  5
2EA
100
AcDbEntity
  8
0
100
AcDbSpline
 62
7
  6
CONTINUOUS
 70
0
 71
3
 72
9
 73
5
 74
0
 42
0.0000001
 43
0.0000001
 44
0.0000000001
 40
0.0
 40
0.0
 40
0.0
 40
0.0
 40
0.4999098604
 40
1.0
 40
1.0
 40
1.0
 40
1.0
 10
224.4888406529
 20
280.6361571669
 30
0.0
 10
224.0309364707
 20
281.4290339081
 30
0.0
 10
222.6722805727
 20
282.798582367
 30
0.0
 10
220.8065415084
 20
283.2852438675
 30
0.0
 10
219.8906078408
 20
283.2850567303
 30
0.0
  0
SPLINE
  5
2EB
100
AcDbEntity
  8
0
100
AcDbSpline
 62
7
  6
CONTINUOUS
 70
0
 71
3
 72
11
 73
7
 74
0
 42
0.0000001
 43
0.0000001
 44
0.0000000001
 40
0.0
 40
0.0
 40
0.0
 40
0.0
 40
0.0600477359
 40
0.2423832841
 40
0.5591118012
 40
1.0
 40
1.0
 40
1.0
 40
1.0
 10
223.6226575108
 20
280.1709783613
 30
0.0
 10
223.625542815
 20
280.1659823106
 30
0.0
 10
223.6554408828
 20
280.1848187274
 30
0.0
 10
223.6962925656
 20
280.1967074366
 30
0.0
 10
223.7815666022
 20
280.2440480502
 30
0.0
 10
223.8443208443
 20
280.2759957204
 30
0.0
 10
223.8816400308
 20
280.2960375864
 30
0.0
  0
SPLINE
  5
2EC
100
AcDbEntity
  8
0
100
AcDbSpline
 62
7
  6
CONTINUOUS
 70
0
 71
3
 72
9
 73
5
 74
0
 42
0.0000001
 43
0.0000001
 44
0.0000000001
 40
0.0
 40
0.0
 40
0.0
 40
0.0
 40
0.2249458696
 40
1.0
 40
1.0
 40
1.0
 40
1.0
 10
223.8816400308
 20
280.2960375864
 30
0.0
 10
223.9276158742
 20
280.3207284165
 30
0.0
 10
224.1312496138
 20
280.4318902432
 30
0.0
 10
224.3330657894
 20
280.5463523617
 30
0.0
 10
224.4888317844
 20
280.6361752977
 30
0.0
  0
SPLINE
  5
2ED
100
AcDbEntity
  8
0
100
AcDbSpline
 62
7
  6
CONTINUOUS
 70
0
 71
3
 72
11
 73
7
 74
0
 42
0.0000001
 43
0.0000001
 44
0.0000000001
 40
0.0
 40
0.0
 40
0.0
 40
0.0
 40
0.2461090556
 40
0.4954794042
 40
0.7479302641
 40
1.0
 40
1.0
 40
1.0
 40
1.0
 10
229.8928886723
 20
270.4863248827
 30
0.0
 10
229.9399415175
 20
270.4701859201
 30
0.0
 10
230.0348087445
 20
270.4381454684
 30
0.0
 10
230.1755624045
 20
270.3823829863
 30
0.0
 10
230.3206351991
 20
270.337279776
 30
0.0
 10
230.4200059448
 20
270.3089323648
 30
0.0
 10
230.4642538344
 20
270.2836762334
 30
0.0
  0
LINE
  5
2EE
100
AcDbEntity
  8
0
100
AcDbLine
 62
7
  6
CONTINUOUS
 10
229.3652540622
 20
270.6787130489
 11
229.5108907626
 21
270.6246452157
  0
SPLINE
  5
2EF
100
AcDbEntity
  8
0
100
AcDbSpline
 62
7
  6
CONTINUOUS
 70
0
 71
3
 72
8
 73
4
 74
0
 42
0.0000001
 43
0.0000001
 44
0.0000000001
 40
0.0
 40
0.0
 40
0.0
 40
0.0
 40
1.0
 40
1.0
 40
1.0
 40
1.0
 10
229.5108907626
 20
270.6246452157
 30
0.0
 10
229.5377363958
 20
270.614671321
 30
0.0
 10
229.5645421236
 20
270.604581276
 30
0.0
 10
229.5915448129
 20
270.5950407639
 30
0.0
  0
SPLINE
  5
2F0
100
AcDbEntity
  8
0
100
AcDbSpline
 62
7
  6
CONTINUOUS
 70
0
 71
3
 72
9
 73
5
 74
0
 42
0.0000001
 43
0.0000001
 44
0.0000000001
 40
0.0
 40
0.0
 40
0.0
 40
0.0
 40
0.2192637533
 40
1.0
 40
1.0
 40
1.0
 40
1.0
 10
229.1271291368
 20
270.7705645505
 30
0.0
 10
229.1377205841
 20
270.7665536108
 30
0.0
 10
229.1856719615
 20
270.7473451174
 30
0.0
 10
229.233779712
 20
270.7285395562
 30
0.0
 10
229.2714577667
 20
270.714165401
 30
0.0
  0
SPLINE
  5
2F1
100
AcDbEntity
  8
0
100
AcDbSpline
 62
7
  6
CONTINUOUS
 70
0
 71
3
 72
9
 73
5
 74
0
 42
0.0000001
 43
0.0000001
 44
0.0000000001
 40
0.0
 40
0.0
 40
0.0
 40
0.0
 40
0.2967813502
 40
1.0
 40
1.0
 40
1.0
 40
1.0
 10
229.0218014426
 20
270.8197382882
 30
0.0
 10
229.0275583539
 20
270.8097670253
 30
0.0
 10
229.0701519895
 20
270.7990795882
 30
0.0
 10
229.1018587639
 20
270.7808458858
 30
0.0
 10
229.1271291368
 20
270.7705645505
 30
0.0
  0
SPLINE
  5
2F2
100
AcDbEntity
  8
0
100
AcDbSpline
 62
7
  6
CONTINUOUS
 70
0
 71
3
 72
9
 73
5
 74
0
 42
0.0000001
 43
0.0000001
 44
0.0000000001
 40
0.0
 40
0.0
 40
0.0
 40
0.0
 40
0.4722837135
 40
1.0
 40
1.0
 40
1.0
 40
1.0
 10
282.5139243709
 20
268.3722756637
 30
0.0
 10
282.5055042371
 20
268.5290233665
 30
0.0
 10
282.6079146485
 20
268.8697988326
 30
0.0
 10
282.8634924834
 20
269.1033439229
 30
0.0
 10
283.0139219602
 20
269.1935403685
 30
0.0
  0
SPLINE
  5
2F3
100
AcDbEntity
  8
0
100
AcDbSpline
 62
7
  6
CONTINUOUS
 70
0
 71
3
 72
9
 73
5
 74
0
 42
0.0000001
 43
0.0000001
 44
0.0000000001
 40
0.0
 40
0.0
 40
0.0
 40
0.0
 40
0.5886287683
 40
1.0
 40
1.0
 40
1.0
 40
1.0
 10
230.9236272398
 20
269.8926087621
 30
0.0
 10
231.0487579817
 20
269.7813828632
 30
0.0
 10
231.2700360254
 20
269.602705917
 30
0.0
 10
231.4850298035
 20
269.4159310034
 30
0.0
 10
231.5793410301
 20
269.3466850706
 30
0.0
  0
SPLINE
  5
2F4
100
AcDbEntity
  8
0
100
AcDbSpline
 62
7
  6
CONTINUOUS
 70
0
 71
3
 72
9
 73
5
 74
0
 42
0.0000001
 43
0.0000001
 44
0.0000000001
 40
0.0
 40
0.0
 40
0.0
 40
0.0
 40
0.3966152949
 40
1.0
 40
1.0
 40
1.0
 40
1.0
 10
231.5793410301
 20
269.3466850706
 30
0.0
 10
231.5844940207
 20
269.3429016012
 30
0.0
 10
231.5978233365
 20
269.3341273012
 30
0.0
 10
231.6101334731
 20
269.3224298767
 30
0.0
 10
231.6194852732
 20
269.3197594687
 30
0.0
  0
SPLINE
  5
2F5
100
AcDbEntity
  8
0
100
AcDbSpline
 62
7
  6
CONTINUOUS
 70
0
 71
3
 72
10
 73
6
 74
0
 42
0.0000001
 43
0.0000001
 44
0.0000000001
 40
0.0
 40
0.0
 40
0.0
 40
0.0
 40
0.2532808155
 40
0.5054683361
 40
1.0
 40
1.0
 40
1.0
 40
1.0
 10
230.4642256355
 20
270.283681084
 30
0.0
 10
230.5077328588
 20
270.2571830246
 30
0.0
 10
230.5792602455
 20
270.1829227427
 30
0.0
 10
230.7300829178
 20
270.0506563099
 30
0.0
 10
230.8475995466
 20
269.9567393118
 30
0.0
 10
230.9236272398
 20
269.8926087621
 30
0.0
  0
SPLINE
  5
2F6
100
AcDbEntity
  8
0
100
AcDbSpline
 62
7
  6
CONTINUOUS
 70
0
 71
3
 72
11
 73
7
 74
0
 42
0.0000001
 43
0.0000001
 44
0.0000000001
 40
0.0
 40
0.0
 40
0.0
 40
0.0
 40
0.0684855981
 40
0.2624753998
 40
0.5771622087
 40
1.0
 40
1.0
 40
1.0
 40
1.0
 10
97.3911516907
 20
280.6035011194
 30
0.0
 10
97.3878624788
 20
280.5978040373
 30
0.0
 10
97.3555694632
 20
280.6191398969
 30
0.0
 10
97.3133631347
 20
280.6310275731
 30
0.0
 10
97.2290935144
 20
280.6780661756
 30
0.0
 10
97.1679266326
 20
280.7091755979
 30
0.0
 10
97.1321370654
 20
280.7283787371
 30
0.0
  0
SPLINE
  5
2F7
100
AcDbEntity
  8
0
100
AcDbSpline
 62
7
  6
CONTINUOUS
 70
0
 71
3
 72
9
 73
5
 74
0
 42
0.0000001
 43
0.0000001
 44
0.0000000001
 40
0.0
 40
0.0
 40
0.0
 40
0.0
 40
0.2135850765
 40
1.0
 40
1.0
 40
1.0
 40
1.0
 10
97.1321370654
 20
280.7283787371
 30
0.0
 10
97.0884928416
 20
280.7517963466
 30
0.0
 10
96.8848565741
 20
280.8627485704
 30
0.0
 10
96.6831015852
 20
280.9771240305
 30
0.0
 10
96.5250961149
 20
281.0681855149
 30
0.0
  0
SPLINE
  5
2F8
100
AcDbEntity
  8
0
100
AcDbSpline
 62
7
  6
CONTINUOUS
 70
0
 71
3
 72
8
 73
4
 74
0
 42
0.0000001
 43
0.0000001
 44
0.0000000001
 40
0.0
 40
0.0
 40
0.0
 40
0.0
 40
1.0
 40
1.0
 40
1.0
 40
1.0
 10
324.8680178617
 20
270.2850571083
 30
0.0
 10
293.4000946665
 20
270.2840605928
 30
0.0
 10
261.9321714317
 20
270.2847483107
 30
0.0
 10
230.4642482386
 20
270.2836858922
 30
0.0
  0
LINE
  5
2F9
100
AcDbEntity
  8
0
100
AcDbLine
 62
7
  6
CONTINUOUS
 10
336.2161963553
 20
270.2851362105
 11
324.8680178617
 21
270.2850571083
  0
LINE
  5
2FA
100
AcDbEntity
  8
0
100
AcDbLine
 62
7
  6
CONTINUOUS
 10
336.9572945137
 20
270.2849120289
 11
336.2161963553
 21
270.2851362105
  0
SPLINE
  5
2FB
100
AcDbEntity
  8
0
100
AcDbSpline
 62
7
  6
CONTINUOUS
 70
0
 71
3
 72
9
 73
5
 74
0
 42
0.0000001
 43
0.0000001
 44
0.0000000001
 40
0.0
 40
0.0
 40
0.0
 40
0.0
 40
0.0692373508
 40
1.0
 40
1.0
 40
1.0
 40
1.0
 10
336.9340877103
 20
269.3199562497
 30
0.0
 10
336.9346059691
 20
269.3422234553
 30
0.0
 10
336.943245973
 20
269.6638020186
 30
0.0
 10
336.9541715042
 20
269.9853222462
 30
0.0
 10
336.9661330442
 20
270.2845039261
 30
0.0
  0
SPLINE
  5
2FC
100
AcDbEntity
  8
0
100
AcDbSpline
 62
7
  6
CONTINUOUS
 70
0
 71
3
 72
14
 73
10
 74
0
 42
0.0000001
 43
0.0000001
 44
0.0000000001
 40
0.0
 40
0.0
 40
0.0
 40
0.0
 40
0.3825447552
 40
0.5554656266
 40
0.7068402793
 40
0.8308614124
 40
0.9230624122
 40
0.9798727894
 40
1.0
 40
1.0
 40
1.0
 40
1.0
 10
63.6833726286
 20
277.3548536329
 30
0.0
 10
63.555794282
 20
277.3570690826
 30
0.0
 10
63.3703342819
 20
277.3590925565
 30
0.0
 10
63.1350184653
 20
277.3588052066
 30
0.0
 10
62.9844155253
 20
277.3577633596
 30
0.0
 10
62.8648031147
 20
277.3536144203
 30
0.0
 10
62.7667261058
 20
277.3524856491
 30
0.0
 10
62.7233956655
 20
277.3427276457
 30
0.0
 10
62.6840827215
 20
277.3441189968
 30
0.0
 10
62.6842081095
 20
277.3374067484
 30
0.0
  0
SPLINE
  5
2FD
100
AcDbEntity
  8
0
100
AcDbSpline
 62
7
  6
CONTINUOUS
 70
0
 71
3
 72
14
 73
10
 74
0
 42
0.0000001
 43
0.0000001
 44
0.0000000001
 40
0.0
 40
0.0
 40
0.0
 40
0.0
 40
0.3813301584
 40
0.5537738348
 40
0.7051325152
 40
0.8294909759
 40
0.9221439582
 40
0.9794493057
 40
1.0
 40
1.0
 40
1.0
 40
1.0
 10
63.7195021473
 20
275.2849948919
 30
0.0
 10
63.5922784531
 20
275.2812843228
 30
0.0
 10
63.4072418216
 20
275.2789779213
 30
0.0
 10
63.1723221758
 20
275.2808953694
 30
0.0
 10
63.0217321793
 20
275.2824261273
 30
0.0
 10
62.9016394785
 20
275.2863831514
 30
0.0
 10
62.8033637116
 20
275.2871198803
 30
0.0
 10
62.7590287198
 20
275.2968526688
 30
0.0
 10
62.7198489282
 20
275.2956454138
 30
0.0
 10
62.7197274759
 20
275.3025036098
 30
0.0
  0
SPLINE
  5
2FE
100
AcDbEntity
  8
0
100
AcDbSpline
 62
7
  6
CONTINUOUS
 70
0
 71
3
 72
9
 73
5
 74
0
 42
0.0000001
 43
0.0000001
 44
0.0000000001
 40
0.0
 40
0.0
 40
0.0
 40
0.0
 40
0.499984565
 40
1.0
 40
1.0
 40
1.0
 40
1.0
 10
64.7614811604
 20
275.2850467833
 30
0.0
 10
64.5878212435
 20
275.284471009
 30
0.0
 10
64.2405843661
 20
275.2908609022
 30
0.0
 10
63.8929632052
 20
275.2768054208
 30
0.0
 10
63.719484787
 20
275.2849944876
 30
0.0
  0
SPLINE
  5
2FF
100
AcDbEntity
  8
0
100
AcDbSpline
 62
7
  6
CONTINUOUS
 70
0
 71
3
 72
9
 73
5
 74
0
 42
0.0000001
 43
0.0000001
 44
0.0000000001
 40
0.0
 40
0.0
 40
0.0
 40
0.0
 40
0.3734846052
 40
1.0
 40
1.0
 40
1.0
 40
1.0
 10
63.7108845515
 20
275.284556692
 30
0.0
 10
63.7156847071
 20
275.1644979423
 30
0.0
 10
63.7274492861
 20
274.8430017989
 30
0.0
 10
63.7382421119
 20
274.5214595208
 30
0.0
 10
63.7429319961
 20
274.3199562491
 30
0.0
  0
SPLINE
  5
300
100
AcDbEntity
  8
0
100
AcDbSpline
 62
7
  6
CONTINUOUS
 70
0
 71
3
 72
14
 73
10
 74
0
 42
0.0000001
 43
0.0000001
 44
0.0000000001
 40
0.0
 40
0.0
 40
0.0
 40
0.0
 40
0.0204647939
 40
0.0777395319
 40
0.1703868851
 40
0.2947387522
 40
0.4460900422
 40
0.6185670856
 40
1.0
 40
1.0
 40
1.0
 40
1.0
 10
337.957292225
 20
270.30250342
 30
0.0
 10
337.9571693844
 20
270.2956735993
 30
0.0
 10
337.9179722308
 20
270.2971313158
 30
0.0
 10
337.8737552909
 20
270.2871576319
 30
0.0
 10
337.7754624482
 20
270.2860950854
 30
0.0
 10
337.6553823249
 20
270.2821937533
 30
0.0
 10
337.5047653652
 20
270.2813535462
 30
0.0
 10
337.2698037938
 20
270.2786645462
 30
0.0
 10
337.0846956019
 20
270.2808568182
 30
0.0
 10
336.9574419664
 20
270.2849094583
 30
0.0
  0
SPLINE
  5
301
100
AcDbEntity
  8
0
100
AcDbSpline
 62
7
  6
CONTINUOUS
 70
0
 71
3
 72
9
 73
5
 74
0
 42
0.0000001
 43
0.0000001
 44
0.0000000001
 40
0.0
 40
0.0
 40
0.0
 40
0.0
 40
0.197417783
 40
1.0
 40
1.0
 40
1.0
 40
1.0
 10
67.5813395867
 20
274.3197244693
 30
0.0
 10
67.5994688365
 20
274.3209701455
 30
0.0
 10
67.6907636192
 20
274.3384873366
 30
0.0
 10
67.768046008
 20
274.3977985633
 30
0.0
 10
67.8223181738
 20
274.4479209961
 30
0.0
  0
SPLINE
  5
302
100
AcDbEntity
  8
0
100
AcDbSpline
 62
7
  6
CONTINUOUS
 70
0
 71
3
 72
9
 73
5
 74
0
 42
0.0000001
 43
0.0000001
 44
0.0000000001
 40
0.0
 40
0.0
 40
0.0
 40
0.0
 40
0.2080627884
 40
1.0
 40
1.0
 40
1.0
 40
1.0
 10
67.8223181738
 20
274.4479209961
 30
0.0
 10
67.8699691131
 20
274.4919284715
 30
0.0
 10
68.0780090044
 20
274.7241655824
 30
0.0
 10
68.2038994427
 20
275.0383376872
 30
0.0
 10
68.2147154978
 20
275.2849866818
 30
0.0
  0
LINE
  5
303
100
AcDbEntity
  8
0
100
AcDbLine
 62
7
  6
CONTINUOUS
 10
68.2146422971
 20
275.2849894326
 11
64.7614811604
 21
275.2850467833
  0
SPLINE
  5
304
100
AcDbEntity
  8
0
100
AcDbSpline
 62
7
  6
CONTINUOUS
 70
0
 71
3
 72
11
 73
7
 74
0
 42
0.0000001
 43
0.0000001
 44
0.0000000001
 40
0.0
 40
0.0
 40
0.0
 40
0.0
 40
0.1533719504
 40
0.3809334813
 40
0.6688430094
 40
1.0
 40
1.0
 40
1.0
 40
1.0
 10
73.1829315257
 20
274.3197183663
 30
0.0
 10
73.1207651803
 20
274.3240508295
 30
0.0
 10
72.975252262
 20
274.399939839
 30
0.0
 10
72.7922788557
 20
274.6012653222
 30
0.0
 10
72.6102741162
 20
274.8983355065
 30
0.0
 10
72.557395837
 20
275.150457033
 30
0.0
 10
72.5494297008
 20
275.2847746462
 30
0.0
  0
SPLINE
  5
305
100
AcDbEntity
  8
0
100
AcDbSpline
 62
7
  6
CONTINUOUS
 70
0
 71
3
 72
14
 73
10
 74
0
 42
0.0000001
 43
0.0000001
 44
0.0000000001
 40
0.0
 40
0.0
 40
0.0
 40
0.0
 40
0.4042278631
 40
0.5790082058
 40
0.7263572919
 40
0.8422045408
 40
0.9255839784
 40
0.976867777
 40
1.0
 40
1.0
 40
1.0
 40
1.0
 10
287.3727311152
 20
268.799111593
 30
0.0
 10
286.7092833411
 20
268.8044539657
 30
0.0
 10
285.7582988954
 20
268.7949657681
 30
0.0
 10
284.5679298439
 20
268.7419608026
 30
0.0
 10
283.849283122
 20
268.6880379685
 30
0.0
 10
283.2879265279
 20
268.6283707298
 30
0.0
 10
282.8728271834
 20
268.5502117766
 30
0.0
 10
282.640713497
 20
268.4941737638
 30
0.0
 10
282.5119596759
 20
268.4100290726
 30
0.0
 10
282.5139328569
 20
268.3721128856
 30
0.0
  0
LINE
  5
306
100
AcDbEntity
  8
0
100
AcDbLine
 62
7
  6
CONTINUOUS
 10
93.1861867203
 20
275.2846609507
 11
78.371242037
 21
275.285056991
  0
LINE
  5
307
100
AcDbEntity
  8
0
100
AcDbLine
 62
7
  6
CONTINUOUS
 10
78.371242037
 20
275.285056991
 11
72.5495619441
 21
275.2847850869
  0
SPLINE
  5
308
100
AcDbEntity
  8
0
100
AcDbSpline
 62
7
  6
CONTINUOUS
 70
0
 71
3
 72
9
 73
5
 74
0
 42
0.0000001
 43
0.0000001
 44
0.0000000001
 40
0.0
 40
0.0
 40
0.0
 40
0.0
 40
0.2708965238
 40
1.0
 40
1.0
 40
1.0
 40
1.0
 10
92.2863806277
 20
274.5198939534
 30
0.0
 10
92.2745714839
 20
274.5091183688
 30
0.0
 10
92.2294390726
 20
274.4710486263
 30
0.0
 10
92.1819473782
 20
274.435900797
 30
0.0
 10
92.1494202856
 20
274.4077351955
 30
0.0
  0
SPLINE
  5
309
100
AcDbEntity
  8
0
100
AcDbSpline
 62
7
  6
CONTINUOUS
 70
0
 71
3
 72
8
 73
4
 74
0
 42
0.0000001
 43
0.0000001
 44
0.0000000001
 40
0.0
 40
0.0
 40
0.0
 40
0.0
 40
1.0
 40
1.0
 40
1.0
 40
1.0
 10
92.1494202856
 20
274.4077351955
 30
0.0
 10
92.1334618291
 20
274.3939165758
 30
0.0
 10
92.1179673398
 20
274.3791670118
 30
0.0
 10
92.0998761489
 20
274.3682888043
 30
0.0
  0
SPLINE
  5
30A
100
AcDbEntity
  8
0
100
AcDbSpline
 62
7
  6
CONTINUOUS
 70
0
 71
3
 72
9
 73
5
 74
0
 42
0.0000001
 43
0.0000001
 44
0.0000000001
 40
0.0
 40
0.0
 40
0.0
 40
0.0
 40
0.326888914
 40
1.0
 40
1.0
 40
1.0
 40
1.0
 10
92.0998761489
 20
274.3682888043
 30
0.0
 10
92.0937047377
 20
274.3634051074
 30
0.0
 10
92.0746232733
 20
274.3487360623
 30
0.0
 10
92.0554029748
 20
274.3341668593
 30
0.0
 10
92.0417663719
 20
274.3254113167
 30
0.0
  0
SPLINE
  5
30B
100
AcDbEntity
  8
0
100
AcDbSpline
 62
7
  6
CONTINUOUS
 70
0
 71
3
 72
14
 73
10
 74
0
 42
0.0000001
 43
0.0000001
 44
0.0000000001
 40
0.0
 40
0.0
 40
0.0
 40
0.0
 40
0.0231325876
 40
0.0744168432
 40
0.1577964546
 40
0.2736449529
 40
0.4209972157
 40
0.5957797225
 40
1.0
 40
1.0
 40
1.0
 40
1.0
 10
322.8607346162
 20
268.3722182409
 30
0.0
 10
322.8627078363
 20
268.4101351446
 30
0.0
 10
322.733951066
 20
268.494280203
 30
0.0
 10
322.5018353387
 20
268.55031754
 30
0.0
 10
322.0867307501
 20
268.6284740457
 30
0.0
 10
321.5253645231
 20
268.6881373696
 30
0.0
 10
320.8067043192
 20
268.7420561074
 30
0.0
 10
319.6163350537
 20
268.7950564576
 30
0.0
 10
318.6653565659
 20
268.8045442597
 30
0.0
 10
318.0019191598
 20
268.7992017175
 30
0.0
  0
SPLINE
  5
30C
100
AcDbEntity
  8
0
100
AcDbSpline
 62
7
  6
CONTINUOUS
 70
0
 71
3
 72
11
 73
7
 74
0
 42
0.0000001
 43
0.0000001
 44
0.0000000001
 40
0.0
 40
0.0
 40
0.0
 40
0.0
 40
0.0999302899
 40
0.3054724851
 40
0.6121992058
 40
1.0
 40
1.0
 40
1.0
 40
1.0
 10
94.6292528894
 20
275.8197520702
 30
0.0
 10
94.6254120299
 20
275.8130995064
 30
0.0
 10
94.6018285958
 20
275.803156136
 30
0.0
 10
94.5605025144
 20
275.7841553181
 30
0.0
 10
94.4952550269
 20
275.758812143
 30
0.0
 10
94.4458082868
 20
275.7393254247
 30
0.0
 10
94.4180060396
 20
275.7285688526
 30
0.0
  0
SPLINE
  5
30D
100
AcDbEntity
  8
0
100
AcDbSpline
 62
7
  6
CONTINUOUS
 70
0
 71
3
 72
9
 73
5
 74
0
 42
0.0000001
 43
0.0000001
 44
0.0000000001
 40
0.0
 40
0.0
 40
0.0
 40
0.0
 40
0.2179115451
 40
1.0
 40
1.0
 40
1.0
 40
1.0
 10
94.4180060396
 20
275.7285688526
 30
0.0
 10
94.3722306073
 20
275.7108585311
 30
0.0
 10
94.1618820011
 20
275.6302999013
 30
0.0
 10
93.9491756137
 20
275.5561094726
 30
0.0
 10
93.7837753981
 20
275.4954975348
 30
0.0
  0
SPLINE
  5
30E
100
AcDbEntity
  8
0
100
AcDbSpline
 62
7
  6
CONTINUOUS
 70
0
 71
3
 72
11
 73
7
 74
0
 42
0.0000001
 43
0.0000001
 44
0.0000000001
 40
0.0
 40
0.0
 40
0.0
 40
0.0
 40
0.2457419099
 40
0.4949455913
 40
0.7478540178
 40
1.0
 40
1.0
 40
1.0
 40
1.0
 10
93.7837753981
 20
275.4954975348
 30
0.0
 10
93.7349988371
 20
275.4776230606
 30
0.0
 10
93.6357647821
 20
275.4445175118
 30
0.0
 10
93.4883193687
 20
275.3867378108
 30
0.0
 10
93.3355968828
 20
275.342543126
 30
0.0
 10
93.2320572177
 20
275.311243557
 30
0.0
 10
93.1859165741
 20
275.2845568947
 30
0.0
  0
SPLINE
  5
30F
100
AcDbEntity
  8
0
100
AcDbSpline
 62
7
  6
CONTINUOUS
 70
0
 71
3
 72
10
 73
6
 74
0
 42
0.0000001
 43
0.0000001
 44
0.0000000001
 40
0.0
 40
0.0
 40
0.0
 40
0.0
 40
0.2534714125
 40
0.5061051074
 40
1.0
 40
1.0
 40
1.0
 40
1.0
 10
93.186244714
 20
275.2845961631
 30
0.0
 10
93.1410958326
 20
275.2563220226
 30
0.0
 10
93.0647651908
 20
275.1805955426
 30
0.0
 10
92.9090058911
 20
275.0401930396
 30
0.0
 10
92.7858178485
 20
274.9425392535
 30
0.0
 10
92.707584781
 20
274.8743178043
 30
0.0
  0
SPLINE
  5
310
100
AcDbEntity
  8
0
100
AcDbSpline
 62
7
  6
CONTINUOUS
 70
0
 71
3
 72
9
 73
5
 74
0
 42
0.0000001
 43
0.0000001
 44
0.0000000001
 40
0.0
 40
0.0
 40
0.0
 40
0.0
 40
0.758216537
 40
1.0
 40
1.0
 40
1.0
 40
1.0
 10
92.707584781
 20
274.8743178043
 30
0.0
 10
92.6482143156
 20
274.822545078
 30
0.0
 10
92.5688042218
 20
274.7555709223
 30
0.0
 10
92.4883951616
 20
274.6897083162
 30
0.0
 10
92.4697643868
 20
274.6728592491
 30
0.0
  0
SPLINE
  5
311
100
AcDbEntity
  8
0
100
AcDbSpline
 62
7
  6
CONTINUOUS
 70
0
 71
3
 72
9
 73
5
 74
0
 42
0.0000001
 43
0.0000001
 44
0.0000000001
 40
0.0
 40
0.0
 40
0.0
 40
0.0
 40
0.5001042346
 40
1.0
 40
1.0
 40
1.0
 40
1.0
 10
265.8080607246
 20
269.3221319764
 30
0.0
 10
266.0446933469
 20
269.1900582043
 30
0.0
 10
266.504049692
 20
268.9018219406
 30
0.0
 10
266.9546411153
 20
268.6005656876
 30
0.0
 10
267.1742207306
 20
268.441940158
 30
0.0
  0
SPLINE
  5
312
100
AcDbEntity
  8
0
100
AcDbSpline
 62
7
  6
CONTINUOUS
 70
0
 71
3
 72
10
 73
6
 74
0
 42
0.0000001
 43
0.0000001
 44
0.0000000001
 40
0.0
 40
0.0
 40
0.0
 40
0.0
 40
0.1089285306
 40
0.3343628511
 40
1.0
 40
1.0
 40
1.0
 40
1.0
 10
283.1457679099
 20
269.3174083817
 30
0.0
 10
283.1503362443
 20
269.3124404937
 30
0.0
 10
283.1375680686
 20
269.287559299
 30
0.0
 10
283.0966116621
 20
269.2498232109
 30
0.0
 10
283.049497491
 20
269.2143771033
 30
0.0
 10
283.0139160833
 20
269.1935239584
 30
0.0
  0
SPLINE
  5
313
100
AcDbEntity
  8
0
100
AcDbSpline
 62
7
  6
CONTINUOUS
 70
0
 71
3
 72
8
 73
4
 74
0
 42
0.0000001
 43
0.0000001
 44
0.0000000001
 40
0.0
 40
0.0
 40
0.0
 40
0.0
 40
1.0
 40
1.0
 40
1.0
 40
1.0
 10
95.7672323154
 20
277.7686811533
 30
0.0
 10
95.8845984897
 20
277.9253874389
 30
0.0
 10
96.0344607236
 20
278.0619484925
 30
0.0
 10
96.2013549312
 20
278.1643106062
 30
0.0
  0
SPLINE
  5
314
100
AcDbEntity
  8
0
100
AcDbSpline
 62
7
  6
CONTINUOUS
 70
0
 71
3
 72
17
 73
13
 74
0
 42
0.0000001
 43
0.0000001
 44
0.0000000001
 40
0.0
 40
0.0
 40
0.0
 40
0.0
 40
0.2171980914
 40
0.4137499003
 40
0.5863600721
 40
0.7317362263
 40
0.8469619334
 40
0.9306128943
 40
0.9602830877
 40
0.9817007273
 40
0.9948137111
 40
1.0
 40
1.0
 40
1.0
 40
1.0
 10
264.7986450829
 20
268.4515079631
 30
0.0
 10
264.6103979875
 20
268.4509697094
 30
0.0
 10
264.2518058281
 20
268.4492053538
 30
0.0
 10
263.7435984395
 20
268.4441983086
 30
0.0
 10
263.2977716936
 20
268.4371018546
 30
0.0
 10
262.9221863728
 20
268.4281090161
 30
0.0
 10
262.6245756234
 20
268.4173861662
 30
0.0
 10
262.4255590591
 20
268.4064565409
 30
0.0
 10
262.3108357354
 20
268.3964677973
 30
0.0
 10
262.2528817597
 20
268.3891756917
 30
0.0
 10
262.2240441505
 20
268.3832951665
 30
0.0
 10
262.2034109504
 20
268.3766026774
 30
0.0
 10
262.2036335497
 20
268.3721131815
 30
0.0
  0
SPLINE
  5
315
100
AcDbEntity
  8
0
100
AcDbSpline
 62
7
  6
CONTINUOUS
 70
0
 71
3
 72
16
 73
12
 74
0
 42
0.0000001
 43
0.0000001
 44
0.0000000001
 40
0.0
 40
0.0
 40
0.0
 40
0.0
 40
0.0051374156
 40
0.0196516601
 40
0.0435115973
 40
0.0765582522
 40
0.1690330051
 40
0.2932570256
 40
0.4446409205
 40
0.6174996324
 40
1.0
 40
1.0
 40
1.0
 40
1.0
 10
346.2317210847
 20
270.2850562453
 30
0.0
 10
346.2316585393
 20
270.2833449654
 30
0.0
 10
346.2217761039
 20
270.2839015447
 30
0.0
 10
346.2104570412
 20
270.2815169328
 30
0.0
 10
346.1849070236
 20
270.2815984849
 30
0.0
 10
346.1361590665
 20
270.2805276641
 30
0.0
 10
346.0521564536
 20
270.2813034191
 30
0.0
 10
345.929823872
 20
270.2829123025
 30
0.0
 10
345.7802469307
 20
270.2861192308
 30
0.0
 10
345.5448031743
 20
270.2921702441
 30
0.0
 10
345.3597581767
 20
270.298055315
 30
0.0
 10
345.232339354
 20
270.3025035129
 30
0.0
  0
SPLINE
  5
316
100
AcDbEntity
  8
0
100
AcDbSpline
 62
7
  6
CONTINUOUS
 70
0
 71
3
 72
16
 73
12
 74
0
 42
0.0000001
 43
0.0000001
 44
0.0000000001
 40
0.0
 40
0.0
 40
0.0
 40
0.0
 40
0.0050179541
 40
0.0194311963
 40
0.0432261979
 40
0.0762577832
 40
0.1688466173
 40
0.2932221033
 40
0.4446790788
 40
0.6175662854
 40
1.0
 40
1.0
 40
1.0
 40
1.0
 10
346.4786038451
 20
277.3548535026
 30
0.0
 10
346.4786663843
 20
277.3565269681
 30
0.0
 10
346.468611253
 20
277.3560240771
 30
0.0
 10
346.4576229067
 20
277.3583259965
 30
0.0
 10
346.431951434
 20
277.3582455695
 30
0.0
 10
346.3832266221
 20
277.359291312
 30
0.0
 10
346.2989695628
 20
277.3585881665
 30
0.0
 10
346.1764059877
 20
277.3570125671
 30
0.0
 10
346.0265537802
 20
277.3537008866
 30
0.0
 10
345.7908202924
 20
277.3475391483
 30
0.0
 10
345.6055550791
 20
277.3418536503
 30
0.0
 10
345.4780035874
 20
277.3374067225
 30
0.0
  0
SPLINE
  5
317
100
AcDbEntity
  8
0
100
AcDbSpline
 62
7
  6
CONTINUOUS
 70
0
 71
3
 72
9
 73
5
 74
0
 42
0.0000001
 43
0.0000001
 44
0.0000000001
 40
0.0
 40
0.0
 40
0.0
 40
0.0
 40
0.4973842755
 40
1.0
 40
1.0
 40
1.0
 40
1.0
 10
338.7919495916
 20
278.3199579319
 30
0.0
 10
338.45980079
 20
278.3199719046
 30
0.0
 10
337.7941251546
 20
278.0624157395
 30
0.0
 10
337.3182539637
 20
277.592169621
 30
0.0
 10
337.0808958649
 20
277.3548578051
 30
0.0
  0
SPLINE
  5
318
100
AcDbEntity
  8
0
100
AcDbSpline
 62
7
  6
CONTINUOUS
 70
0
 71
3
 72
14
 73
10
 74
0
 42
0.0000001
 43
0.0000001
 44
0.0000000001
 40
0.0
 40
0.0
 40
0.0
 40
0.0
 40
0.0206692825
 40
0.0781498679
 40
0.1700598248
 40
0.2935066942
 40
0.4448617276
 40
0.6177628183
 40
1.0
 40
1.0
 40
1.0
 40
1.0
 10
338.080074513
 20
277.3373894263
 30
0.0
 10
338.0802204486
 20
277.3442824713
 30
0.0
 10
338.0401339473
 20
277.3426197926
 30
0.0
 10
337.9966579056
 20
277.3526241555
 30
0.0
 10
337.8986463837
 20
277.3536321751
 30
0.0
 10
337.7793093529
 20
277.3577476438
 30
0.0
 10
337.6289041959
 20
277.3587945338
 30
0.0
 10
337.3936917576
 20
277.3591366782
 30
0.0
 10
337.2083315647
 20
277.3570578276
 30
0.0
 10
337.080849231
 20
277.3548360296
 30
0.0
  0
SPLINE
  5
319
100
AcDbEntity
  8
0
100
AcDbSpline
 62
7
  6
CONTINUOUS
 70
0
 71
3
 72
9
 73
5
 74
0
 42
0.0000001
 43
0.0000001
 44
0.0000000001
 40
0.0
 40
0.0
 40
0.0
 40
0.0
 40
0.5118061057
 40
1.0
 40
1.0
 40
1.0
 40
1.0
 10
267.1742113093
 20
268.4419246627
 30
0.0
 10
266.7723791262
 20
268.5602742737
 30
0.0
 10
265.9811227497
 20
268.7699893931
 30
0.0
 10
265.1883917242
 20
268.9742716767
 30
0.0
 10
264.7985909365
 20
269.0620976355
 30
0.0
  0
ELLIPSE
  5
31A
100
AcDbEntity
  8
0
100
AcDbEllipse
 62
7
  6
CONTINUOUS
 10
330.3821475145
 20
215.8883863498
 30
0.0
 11
0.0
 21
85.9087598487
 31
0.0
 40
0.0349207695
 41
0.7401613637
 42
0.8244042727
  0
ELLIPSE
  5
31B
100
AcDbEntity
  8
0
100
AcDbEllipse
 62
7
  6
CONTINUOUS
 10
330.3821475145
 20
215.8883863498
 30
0.0
 11
0.0
 21
85.9087598487
 31
0.0
 40
0.0349207695
 41
-0.8244042727
 42
-0.7401613637
  0
ENDSEC
  0
SECTION
  2
OBJECTS
  0
DICTIONARY
  5
C
100
AcDbDictionary
280
0
281
1
  3
ACAD_GROUP
350
D
  3
ACAD_MLINESTYLE
350
17
  3
ACAD_LAYOUT
350
1A
  3
ACAD_PLOTSETTINGS
350
19
  3
ACAD_PLOTSTYLENAME
350
E
  0
DICTIONARY
  5
D
102
{ACAD_REACTORS
330
C
102
}
100
AcDbDictionary
280
0
281
1
  0
ACDBDICTIONARYWDFLT
  5
E
102
{ACAD_REACTORS
330
C
102
}
100
AcDbDictionary
281
1
  3
Normal
350
F
100
AcDbDictionaryWithDefault
340
F
  0
DICTIONARY
  5
17
102
{ACAD_REACTORS
330
C
102
}
100
AcDbDictionary
280
0
281
1
  3
Standard
350
18
  0
DICTIONARY
  5
19
102
{ACAD_REACTORS
330
C
102
}
100
AcDbDictionary
281
1
  0
DICTIONARY
  5
1A
102
{ACAD_REACTORS
330
C
102
}
100
AcDbDictionary
281
1
  3
Model
350
31C
  3
Layout1
350
31D
  0
ACDBPLACEHOLDER
  5
F
102
{ACAD_REACTORS
330
E
102
}
  0
MLINESTYLE
  5
18
102
{ACAD_REACTORS
330
17
102
}
100
AcDbMlineStyle
  2
STANDARD
 70
0
  3

 62
256
 51
90.0
 52
90.0
 71
2
 49
0.5
 62
256
  6
BYLAYER
 49
-0.5
 62
256
  6
BYLAYER
  0
LAYOUT
  5
31C
102
{ACAD_REACTORS
330
1A
102
}
100
AcDbPlotSettings
  1

  2
none_device
  4

  6

 40
0.0
 41
0.0
 42
0.0
 43
0.0
 44
210.0
 45
297.0
 46
0.0
 47
0.0
 48
0.0
 49
0.0
140
0.0
141
0.0
142
1.0
143
1.0
 70
1024
 72
1
 73
0
 74
0
  7

 75
0
147
1.0
148
0.0
149
0.0
100
AcDbLayout
  1
Model
 70
0
 71
0
 10
0.0
 20
0.0
 11
210.0
 21
297.0
 12
0.0
 22
0.0
 32
0.0
 14
0.0
 24
0.0
 34
0.0
 15
0.0
 25
0.0
 35
0.0
146
0.0
 13
0.0
 23
0.0
 33
0.0
 16
1.0
 26
0.0
 36
0.0
 17
0.0
 27
1.0
 37
0.0
 76
0
330
210
345
0
346
0
  0
LAYOUT
  5
31D
102
{ACAD_REACTORS
330
1A
102
}
100
AcDbPlotSettings
  1

  2
none_device
  4

  6

 40
0.0
 41
0.0
 42
0.0
 43
0.0
 44
210.0
 45
297.0
 46
0.0
 47
0.0
 48
0.0
 49
0.0
140
0.0
141
0.0
142
1.0
143
1.0
 70
0
 72
1
 73
0
 74
0
  7

 75
0
147
1.0
148
0.0
149
0.0
100
AcDbLayout
  1
Layout1
 70
0
 71
1
 10
0.0
 20
0.0
 11
210.0
 21
297.0
 12
0.0
 22
0.0
 32
0.0
 14
0.0
 24
0.0
 34
0.0
 15
0.0
 25
0.0
 35
0.0
146
0.0
 13
0.0
 23
0.0
 33
0.0
 16
1.0
 26
0.0
 36
0.0
 17
0.0
 27
1.0
 37
0.0
 76
0
330
211
345
0
346
0
  0
ENDSEC
  0
EOF
