999
DXF file: C:\Users\sesa63760\Dev\_Creo\CAD\MCADID0005242_3D-CAD\drw0001_1.dxf
999
Pro/ENGINEER 2019471 by Parametric Technology Corporation
  0
SECTION
  2
HEADER
  9
$ACADVER
  1
AC1024
  9
$DWGCODEPAGE
  3
ANSI_1252
  9
$EXTMAX
 10
78.5734072893
 20
111.125247452
 30
0.0
  9
$EXTMIN
 10
0.0
 20
0.0
 30
0.0
  9
$LIMMIN
 10
0.0
 20
0.0
  9
$LIMMAX
 10
78.5734072893
 20
111.125247452
  9
$VIEWCTR
 10
39.2867036446
 20
55.562623726
  9
$VIEWSIZE
 40
111.125247452
  9
$CLAYER
  8
0
  9
$LTSCALE
 40
7.2437198339
  9
$CELTYPE
  6
BYLAYER
  9
$DIMSCALE
 40
1.0
  9
$DIMASZ
 40
0.9353977058
  9
$DIMEXO
 40
1.0
  9
$DIMDLI
 40
5.0047518852
  9
$DIMEXE
 40
1.0
  9
$DIMCEN
 40
1.1853359728
  9
$DIMLFAC
 40
1.0
  9
$DIMBLK
  1
_FILLED
  9
$DIMALT
 70
0
  9
$DIMALTF
 40
0.0393700787
  9
$DIMTXT
 40
1.3095567882
  9
$DIMTOL
 70
1
  9
$DIMLIM
 70
0
  9
$DIMTFAC
 40
1.0
  9
$DIMTP
 40
0.01
  9
$DIMTM
 40
0.01
  9
$DIMGAP
 40
0.625
  9
$DIMDSEP
 70
46
  9
$AUNITS
 70
0
  9
$PDMODE
 70
3
  9
$PDSIZE
 40
0.3125
  9
$HANDSEED
  5
32E
  9
$TILEMODE
 70
1
  9
$MEASUREMENT
 70
1
  9
$INSUNITS
 70
4
  0
ENDSEC
  0
SECTION
  2
CLASSES
  0
CLASS
  1
ACDBDICTIONARYWDFLT
  2
AcDbDictionaryWithDefault
  3
AutoCAD 2000
 90
0
 91
1
280
0
281
0
  0
CLASS
  1
ACDBPLACEHOLDER
  2
AcDbPlaceHolder
  3
AutoCAD 2000
 90
0
 91
1
280
0
281
0
  0
CLASS
  1
LAYOUT
  2
AcDbLayout
  3
AutoCAD 2000
 90
0
 91
0
280
0
281
0
  0
ENDSEC
  0
SECTION
  2
TABLES
  0
TABLE
  2
VPORT
  5
8
100
AcDbSymbolTable
 70
2
  0
VPORT
  5
1F4
100
AcDbSymbolTableRecord
100
AcDbViewportTableRecord
  2
*ACTIVE
 70
0
 10
0.0
 20
0.0
 11
1.0
 21
1.0
 12
39.2867036446
 22
55.562623726
 13
0.0
 23
0.0
 14
1.0
 24
1.0
 15
0.0
 25
0.0
 16
0.0
 26
0.0
 36
1.0
 17
0.0
 27
0.0
 37
0.0
 40
111.125247452
 41
0.7070707071
 42
50.0
 43
0.0
 44
0.0
 50
0.0
 51
0.0
 71
0
 72
100
 73
1
 74
1
 75
0
 76
0
 77
0
 78
0
  0
ENDTAB
  0
TABLE
  2
LTYPE
  5
5
100
AcDbSymbolTable
 70
6
  0
LTYPE
  5
14
100
AcDbSymbolTableRecord
100
AcDbLinetypeTableRecord
  2
BYBLOCK
 70
0
  3

 72
65
 73
0
 40
0.0
  0
LTYPE
  5
15
100
AcDbSymbolTableRecord
100
AcDbLinetypeTableRecord
  2
BYLAYER
 70
0
  3

 72
65
 73
0
 40
0.0
  0
LTYPE
  5
16
100
AcDbSymbolTableRecord
100
AcDbLinetypeTableRecord
  2
CONTINUOUS
 70
64
  3
Solid line
 72
65
 73
0
 40
0.0
  0
LTYPE
  5
1F5
100
AcDbSymbolTableRecord
100
AcDbLinetypeTableRecord
  2
CENTER
 70
64
  3
____ _ ____ _ ____ _ ____ _ ____ _ ____ _ ____
 72
65
 73
4
 40
0.6
 49
0.375
 74
0
 49
-0.075
 74
0
 49
0.075
 74
0
 49
-0.075
 74
0
  0
LTYPE
  5
1F6
100
AcDbSymbolTableRecord
100
AcDbLinetypeTableRecord
  2
HIDDEN
 70
64
  3
- - - - - - - - - - - - - - - - - - - -
 72
65
 73
2
 40
0.2
 49
0.1
 74
0
 49
-0.1
 74
0
  0
LTYPE
  5
1F7
100
AcDbSymbolTableRecord
100
AcDbLinetypeTableRecord
  2
PHANTOM
 70
64
  3
_____ _ _ _____ _ _ _____ _ _ _____
 72
65
 73
6
 40
0.8
 49
0.45
 74
0
 49
-0.05
 74
0
 49
0.1
 74
0
 49
-0.05
 74
0
 49
0.1
 74
0
 49
-0.05
 74
0
  0
LTYPE
  5
1F8
100
AcDbSymbolTableRecord
100
AcDbLinetypeTableRecord
  2
DOT
 70
64
  3
. . . . . . . . . . . . . . . . . . . .
 72
65
 73
2
 40
0.2
 49
0.1
 74
0
 49
-0.1
 74
0
  0
LTYPE
  5
1F9
100
AcDbSymbolTableRecord
100
AcDbLinetypeTableRecord
  2
DASHED
 70
64
  3
- - - - - - - - - - - - - - - - - - - -
 72
65
 73
2
 40
0.2
 49
0.1
 74
0
 49
-0.1
 74
0
  0
ENDTAB
  0
TABLE
  2
LAYER
  5
2
100
AcDbSymbolTable
 70
36
  0
LAYER
  5
10
100
AcDbSymbolTableRecord
100
AcDbLayerTableRecord
  2
0
 70
0
 62
7
  6
CONTINUOUS
370
-3
390
F
  0
LAYER
  5
1FA
100
AcDbSymbolTableRecord
100
AcDbLayerTableRecord
  2
DEFAULT_1
 70
0
 62
7
  6
CENTER
370
-3
390
F
  0
LAYER
  5
1FB
100
AcDbSymbolTableRecord
100
AcDbLayerTableRecord
  2
DEFAULT_2
 70
0
 62
7
  6
HIDDEN
370
-3
390
F
  0
LAYER
  5
1FC
100
AcDbSymbolTableRecord
100
AcDbLayerTableRecord
  2
DEFAULT_3
 70
0
 62
7
  6
PHANTOM
370
-3
390
F
  0
LAYER
  5
1FD
100
AcDbSymbolTableRecord
100
AcDbLayerTableRecord
  2
00_COMPONENTS
 70
0
 62
7
  6
CONTINUOUS
370
-3
390
F
  0
LAYER
  5
1FE
100
AcDbSymbolTableRecord
100
AcDbLayerTableRecord
  2
00_COMPONENTS_1
 70
0
 62
7
  6
CONTINUOUS
370
-3
390
F
  0
LAYER
  5
1FF
100
AcDbSymbolTableRecord
100
AcDbLayerTableRecord
  2
00_COMPONENTS_2
 70
0
 62
7
  6
CONTINUOUS
370
-3
390
F
  0
LAYER
  5
200
100
AcDbSymbolTableRecord
100
AcDbLayerTableRecord
  2
00_COMPONENTS_3
 70
0
 62
7
  6
CONTINUOUS
370
-3
390
F
  0
LAYER
  5
201
100
AcDbSymbolTableRecord
100
AcDbLayerTableRecord
  2
01_1_DEFAULT_DATUMS
 70
0
 62
7
  6
CONTINUOUS
370
-3
390
F
  0
LAYER
  5
202
100
AcDbSymbolTableRecord
100
AcDbLayerTableRecord
  2
01_PLANES
 70
0
 62
7
  6
CONTINUOUS
370
-3
390
F
  0
LAYER
  5
203
100
AcDbSymbolTableRecord
100
AcDbLayerTableRecord
  2
02_COORD_SYS
 70
0
 62
7
  6
CONTINUOUS
370
-3
390
F
  0
LAYER
  5
204
100
AcDbSymbolTableRecord
100
AcDbLayerTableRecord
  2
03_AXES
 70
0
 62
7
  6
CONTINUOUS
370
-3
390
F
  0
LAYER
  5
205
100
AcDbSymbolTableRecord
100
AcDbLayerTableRecord
  2
04_POINTS
 70
0
 62
7
  6
CONTINUOUS
370
-3
390
F
  0
LAYER
  5
206
100
AcDbSymbolTableRecord
100
AcDbLayerTableRecord
  2
05_CURVES
 70
0
 62
7
  6
CONTINUOUS
370
-3
390
F
  0
LAYER
  5
207
100
AcDbSymbolTableRecord
100
AcDbLayerTableRecord
  2
06_SURFS
 70
0
 62
7
  6
CONTINUOUS
370
-3
390
F
  0
LAYER
  5
208
100
AcDbSymbolTableRecord
100
AcDbLayerTableRecord
  2
07_COSMETICS
 70
0
 62
7
  6
CONTINUOUS
370
-3
390
F
  0
LAYER
  5
209
100
AcDbSymbolTableRecord
100
AcDbLayerTableRecord
  2
10_NOTES
 70
0
 62
7
  6
CONTINUOUS
370
-3
390
F
  0
LAYER
  5
20A
100
AcDbSymbolTableRecord
100
AcDbLayerTableRecord
  2
11_NOTES_PUB
 70
0
 62
7
  6
CONTINUOUS
370
-3
390
F
  0
LAYER
  5
20B
100
AcDbSymbolTableRecord
100
AcDbLayerTableRecord
  2
13_REF_GTOL
 70
0
 62
7
  6
CONTINUOUS
370
-3
390
F
  0
LAYER
  5
20C
100
AcDbSymbolTableRecord
100
AcDbLayerTableRecord
  2
16_MISC
 70
0
 62
7
  6
CONTINUOUS
370
-3
390
F
  0
LAYER
  5
20D
100
AcDbSymbolTableRecord
100
AcDbLayerTableRecord
  2
17_NO_PRINT
 70
0
 62
7
  6
CONTINUOUS
370
-3
390
F
  0
LAYER
  5
20E
100
AcDbSymbolTableRecord
100
AcDbLayerTableRecord
  2
18_DATUM_CAMS_JOINTS
 70
0
 62
7
  6
CONTINUOUS
370
-3
390
F
  0
LAYER
  5
20F
100
AcDbSymbolTableRecord
100
AcDbLayerTableRecord
  2
19_DATUM_FUNCTIONAL
 70
0
 62
7
  6
CONTINUOUS
370
-3
390
F
  0
LAYER
  5
210
100
AcDbSymbolTableRecord
100
AcDbLayerTableRecord
  2
20_DATUM_KINEMATIC_SCHEME
 70
0
 62
7
  6
CONTINUOUS
370
-3
390
F
  0
LAYER
  5
211
100
AcDbSymbolTableRecord
100
AcDbLayerTableRecord
  2
INTFCLR_28848
 70
0
 62
7
  6
CONTINUOUS
370
-3
390
F
  0
LAYER
  5
212
100
AcDbSymbolTableRecord
100
AcDbLayerTableRecord
  2
INTF_BLANK
 70
0
 62
7
  6
CONTINUOUS
370
-3
390
F
  0
LAYER
  5
213
100
AcDbSymbolTableRecord
100
AcDbLayerTableRecord
  2
SHELL35
 70
0
 62
7
  6
CONTINUOUS
370
-3
390
F
  0
LAYER
  5
214
100
AcDbSymbolTableRecord
100
AcDbLayerTableRecord
  2
SHELL36
 70
0
 62
7
  6
CONTINUOUS
370
-3
390
F
  0
LAYER
  5
215
100
AcDbSymbolTableRecord
100
AcDbLayerTableRecord
  2
SHELL980
 70
0
 62
7
  6
CONTINUOUS
370
-3
390
F
  0
LAYER
  5
216
100
AcDbSymbolTableRecord
100
AcDbLayerTableRecord
  2
_BLACK_HOLE
 70
0
 62
7
  6
CONTINUOUS
370
-3
390
F
  0
LAYER
  5
217
100
AcDbSymbolTableRecord
100
AcDbLayerTableRecord
  2
black
 70
0
 62
7
  6
CONTINUOUS
370
-3
390
F
  0
ENDTAB
  0
TABLE
  2
STYLE
  5
3
100
AcDbSymbolTable
 70
1
  0
STYLE
  5
11
100
AcDbSymbolTableRecord
100
AcDbTextStyleTableRecord
  2
STANDARD
 70
0
 40
0.0
 41
1.0
 50
0.0
 71
0
 42
0.2
  3
ARIAL.TTF
  4

  0
STYLE
  5
218
100
AcDbSymbolTableRecord
100
AcDbTextStyleTableRecord
  2
TEXTSTYLE_1
 70
0
 40
0.0
 41
0.8
 50
0.0
 71
0
 42
0.2
  3
gdt
  4

  0
ENDTAB
  0
TABLE
  2
VIEW
  5
6
100
AcDbSymbolTable
 70
0
  0
ENDTAB
  0
TABLE
  2
UCS
  5
7
100
AcDbSymbolTable
 70
0
  0
ENDTAB
  0
TABLE
  2
APPID
  5
9
100
AcDbSymbolTable
 70
1
  0
APPID
  5
219
100
AcDbSymbolTableRecord
100
AcDbRegAppTableRecord
  2
ACAD
 70
0
  0
ENDTAB
  0
TABLE
  2
BLOCK_RECORD
  5
1
100
AcDbSymbolTable
 70
0
  0
BLOCK_RECORD
  5
21A
100
AcDbSymbolTableRecord
100
AcDbBlockTableRecord
  2
*Model_Space
  0
BLOCK_RECORD
  5
21B
100
AcDbSymbolTableRecord
100
AcDbBlockTableRecord
  2
*Paper_Space
  0
BLOCK_RECORD
  5
21C
100
AcDbSymbolTableRecord
100
AcDbBlockTableRecord
  2
_FILLED
  0
ENDTAB
  0
TABLE
  2
DIMSTYLE
  5
A
100
AcDbSymbolTable
 70
1
100
AcDbDimStyleTable
 71
0
  0
DIMSTYLE
105
21D
100
AcDbSymbolTableRecord
100
AcDbDimStyleTableRecord
  2
STANDARD
 70
0
  3

  4

 40
1.0
 41
0.9353977058
 42
1.0
 43
0.38
 44
1.0
 45
0.0
 46
0.0
 47
0.01
 48
0.01
140
1.3095567882
141
0.09
142
0.0
143
25.4
144
1.0
145
0.0
146
1.0
147
0.625
 71
1
 72
0
 73
0
 74
0
 75
0
 76
0
 77
1
 78
8
 79
2
170
0
171
1
172
0
173
0
174
0
175
0
176
0
177
0
178
0
270
2
179
2
271
2
272
2
273
2
274
2
275
0
280
0
281
0
282
0
283
1
284
8
285
0
286
0
287
3
288
0
340
11
278
46
341
21C
342
21C
343
21C
344
21C
  0
ENDTAB
  0
ENDSEC
  0
SECTION
  2
BLOCKS
  0
BLOCK
  5
20
100
AcDbEntity
  8
0
100
AcDbBlockBegin
  2
*Model_Space
 70
0
 10
0.0
 20
0.0
 30
0.0
  3
*Model_Space
  1

  0
ENDBLK
  5
21
100
AcDbEntity
  8
0
100
AcDbBlockEnd
  0
BLOCK
  5
1C
100
AcDbEntity
  8
0
100
AcDbBlockBegin
  2
*Paper_Space
 70
0
 10
0.0
 20
0.0
 30
0.0
  3
*Paper_Space
  1

  0
ENDBLK
  5
1D
100
AcDbEntity
  8
0
100
AcDbBlockEnd
  0
BLOCK
  5
21E
100
AcDbEntity
  8
0
100
AcDbBlockBegin
  2
_FILLED
 70
64
 10
0.0
 20
0.0
  3
_FILLED
  1

  0
SOLID
  5
21F
100
AcDbEntity
  8
0
  6
BYBLOCK
 62
0
100
AcDbTrace
 10
0.0
 20
0.0
 11
-1.0
 21
0.25
 12
-1.0
 22
-0.25
 13
-1.0
 23
-0.25
  0
ENDBLK
  5
220
100
AcDbEntity
  8
0
  6
BYBLOCK
 62
0
100
AcDbBlockEnd
  0
ENDSEC
  0
SECTION
  2
ENTITIES
  0
LINE
  5
221
100
AcDbEntity
  8
0
100
AcDbLine
 62
7
  6
BYLAYER
 10
21.511295004
 20
94.5953845487
 11
26.0912065576
 21
97.2395819334
  0
LINE
  5
222
100
AcDbEntity
  8
0
100
AcDbLine
 62
7
  6
BYLAYER
 10
27.0828751614
 20
97.5839663731
 11
26.288795051
 21
97.1255067442
  0
LINE
  5
223
100
AcDbEntity
  8
0
100
AcDbLine
 62
7
  6
BYLAYER
 10
21.511295004
 20
94.3672322707
 11
18.3643559579
 21
92.5503570106
  0
LINE
  5
224
100
AcDbEntity
  8
0
100
AcDbLine
 62
7
  6
BYLAYER
 10
26.0912140353
 20
96.2026460997
 11
23.3073462282
 21
94.5953888659
  0
LINE
  5
225
100
AcDbEntity
  8
0
100
AcDbLine
 62
7
  6
BYLAYER
 10
26.0912140353
 20
94.7301656406
 11
24.5825699427
 21
93.8591547669
  0
LINE
  5
226
100
AcDbEntity
  8
0
100
AcDbLine
 62
7
  6
BYLAYER
 10
28.5338463921
 20
95.8293550709
 11
27.6358245189
 21
95.3108849955
  0
LINE
  5
227
100
AcDbEntity
  8
0
100
AcDbLine
 62
7
  6
BYLAYER
 10
24.8519567118
 20
93.7036277617
 11
23.9539348385
 21
93.1851576863
  0
LINE
  5
228
100
AcDbEntity
  8
0
100
AcDbLine
 62
7
  6
BYLAYER
 10
28.5338463921
 20
94.3568746119
 11
27.6358245189
 21
93.8384045365
  0
LINE
  5
229
100
AcDbEntity
  8
0
100
AcDbLine
 62
7
  6
BYLAYER
 10
24.8519567118
 20
92.2311473027
 11
23.9539348385
 21
91.7126772273
  0
LINE
  5
22A
100
AcDbEntity
  8
0
100
AcDbLine
 62
7
  6
BYLAYER
 10
12.6573185943
 20
82.6654234637
 11
13.5780647609
 21
84.2602114579
  0
LINE
  5
22B
100
AcDbEntity
  8
0
100
AcDbLine
 62
7
  6
BYLAYER
 10
15.3687573054
 20
87.3617991432
 11
18.3643559579
 21
92.5503570106
  0
LINE
  5
22C
100
AcDbEntity
  8
0
100
AcDbLine
 62
7
  6
BYLAYER
 10
9.1154192541
 20
72.4831545384
 11
10.8221762348
 21
75.4393607554
  0
LINE
  5
22D
100
AcDbEntity
  8
0
100
AcDbLine
 62
7
  6
BYLAYER
 10
12.6128687794
 20
78.5409484407
 11
14.4099112975
 21
81.6535346639
  0
LWPOLYLINE
  5
22E
100
AcDbEntity
  8
00_COMPONENTS
100
AcDbPolyline
 62
7
  6
BYLAYER
 90
5
 70
0
 10
32.45760037
 20
19.1777846219
 10
34.7034865841
 20
18.2396042316
 10
38.4132976511
 20
17.5462544349
 10
42.3231028376
 20
17.547559105
 10
46.0239302797
 20
18.2411556211
  0
LINE
  5
22F
100
AcDbEntity
  8
0
100
AcDbLine
 62
7
  6
BYLAYER
 10
19.2091305615
 20
85.716454875
 11
18.9616153841
 21
85.2877436323
  0
LINE
  5
230
100
AcDbEntity
  8
0
100
AcDbLine
 62
7
  6
BYLAYER
 10
18.8664539142
 20
85.1229182165
 11
18.4760868373
 21
84.4467788523
  0
LINE
  5
231
100
AcDbEntity
  8
0
100
AcDbLine
 62
7
  6
BYLAYER
 10
17.1695966363
 20
82.183858883
 11
16.923140079
 21
81.7569812343
  0
LINE
  5
232
100
AcDbEntity
  8
0
100
AcDbLine
 62
7
  6
BYLAYER
 10
21.0313851148
 20
87.7440840976
 11
18.8702202568
 21
84.0008159807
  0
LINE
  5
233
100
AcDbEntity
  8
0
100
AcDbLine
 62
7
  6
BYLAYER
 10
18.2395705941
 20
82.9084926595
 11
17.5471204565
 21
81.7091271816
  0
LINE
  5
234
100
AcDbEntity
  8
0
100
AcDbLine
 62
7
  6
BYLAYER
 10
17.4253612842
 20
81.4982329382
 11
16.7388029866
 21
80.3090724833
  0
LINE
  5
235
100
AcDbEntity
  8
0
100
AcDbLine
 62
7
  6
BYLAYER
 10
17.4253612842
 20
81.6388299103
 11
24.5157389964
 21
85.7324369556
  0
LINE
  5
236
100
AcDbEntity
  8
0
100
AcDbLine
 62
7
  6
BYLAYER
 10
38.8920791416
 20
94.0325712633
 11
45.9824568539
 21
98.1261783086
  0
LINE
  5
237
100
AcDbEntity
  8
0
100
AcDbLine
 62
7
  6
BYLAYER
 10
47.7785155557
 20
97.0892467921
 11
35.1613082364
 21
89.8047422325
  0
LINE
  5
238
100
AcDbEntity
  8
0
100
AcDbLine
 62
7
  6
BYLAYER
 10
31.8386273054
 20
87.8864029535
 11
19.221419986
 21
80.6018983939
  0
LINE
  5
239
100
AcDbEntity
  8
0
100
AcDbLine
 62
7
  6
BYLAYER
 10
19.239380573
 20
80.5915290787
 11
31.8296472362
 21
87.860479536
  0
LINE
  5
23A
100
AcDbEntity
  8
0
100
AcDbLine
 62
7
  6
BYLAYER
 10
35.1882488926
 20
89.7995571734
 11
47.7964761428
 21
97.0788774769
  0
LINE
  5
23B
100
AcDbEntity
  8
0
100
AcDbLine
 62
7
  6
BYLAYER
 10
35.736047021
 20
89.4729241472
 11
32.41336609
 21
87.5545848682
  0
LINE
  5
23C
100
AcDbEntity
  8
0
100
AcDbLine
 62
7
  6
BYLAYER
 10
10.0437102097
 20
64.5676409161
 11
10.0437102097
 21
62.5421161532
  0
LINE
  5
23D
100
AcDbEntity
  8
0
100
AcDbLine
 62
7
  6
BYLAYER
 10
16.4532420354
 20
76.8956041725
 11
16.205726858
 21
76.4668929298
  0
LINE
  5
23E
100
AcDbEntity
  8
0
100
AcDbLine
 62
7
  6
BYLAYER
 10
16.1105653881
 20
76.302067514
 11
15.7201983112
 21
75.6259281499
  0
LINE
  5
23F
100
AcDbEntity
  8
0
100
AcDbLine
 62
7
  6
BYLAYER
 10
14.4137081102
 20
73.3630081805
 11
14.167251553
 21
72.9361305318
  0
LINE
  5
240
100
AcDbEntity
  8
0
100
AcDbLine
 62
7
  6
BYLAYER
 10
17.4253612842
 20
77.4507476804
 11
16.1143317307
 21
75.1799652782
  0
LINE
  5
241
100
AcDbEntity
  8
0
100
AcDbLine
 62
7
  6
BYLAYER
 10
15.483682068
 20
74.0876419571
 11
13.6908156767
 21
70.9822890378
  0
LINE
  5
242
100
AcDbEntity
  8
0
100
AcDbLine
 62
7
  6
BYLAYER
 10
33.5974447406
 20
86.8839416761
 11
35.736047021
 21
88.1186569081
  0
LINE
  5
243
100
AcDbEntity
  8
0
100
AcDbLine
 62
7
  6
BYLAYER
 10
18.9712282602
 20
67.9337103794
 11
19.221419986
 21
68.3670575658
  0
LINE
  5
244
100
AcDbEntity
  8
0
100
AcDbLine
 62
7
  6
BYLAYER
 10
23.9181134914
 20
77.8903224783
 11
27.25875486
 21
79.8190311588
  0
LINE
  5
245
100
AcDbEntity
  8
0
100
AcDbLine
 62
7
  6
BYLAYER
 10
31.9464485551
 20
79.8190424266
 11
49.1435674281
 21
89.7477443709
  0
LINE
  5
246
100
AcDbEntity
  8
0
100
AcDbLine
 62
7
  6
BYLAYER
 10
17.4253612842
 20
61.5218433571
 11
17.4253612842
 21
67.6855356288
  0
LINE
  5
247
100
AcDbEntity
  8
0
100
AcDbLine
 62
7
  6
BYLAYER
 10
17.4253612842
 20
69.4039890822
 11
17.4253612842
 21
81.6388299103
  0
LINE
  5
248
100
AcDbEntity
  8
0
100
AcDbLine
 62
7
  6
BYLAYER
 10
18.9712282602
 20
66.7930565027
 11
18.9712282602
 21
67.9337103794
  0
LINE
  5
249
100
AcDbEntity
  8
0
100
AcDbLine
 62
7
  6
BYLAYER
 10
19.221419986
 20
80.6018983939
 11
19.221419986
 21
68.3670575658
  0
LINE
  5
24A
100
AcDbEntity
  8
0
100
AcDbLine
 62
7
  6
BYLAYER
 10
19.221419986
 20
66.6486041124
 11
19.221419986
 21
60.4849118406
  0
LINE
  5
24B
100
AcDbEntity
  8
0
100
AcDbLine
 62
7
  6
BYLAYER
 10
19.239380573
 20
80.5915290787
 11
19.239380573
 21
60.4745425255
  0
LINE
  5
24C
100
AcDbEntity
  8
0
100
AcDbLine
 62
7
  6
BYLAYER
 10
10.0437102097
 20
64.5676409161
 11
16.4347260503
 21
68.2574736068
  0
LINE
  5
24D
100
AcDbEntity
  8
0
100
AcDbLine
 62
7
  6
BYLAYER
 10
57.1539419795
 20
91.6764642761
 11
53.813300611
 21
89.7477555955
  0
LINE
  5
24E
100
AcDbEntity
  8
0
100
AcDbLine
 62
7
  6
BYLAYER
 10
53.813300611
 20
88.7107975258
 11
55.9505926694
 21
89.9447563053
  0
LWPOLYLINE
  5
24F
100
AcDbEntity
  8
00_COMPONENTS
100
AcDbPolyline
 62
7
  6
BYLAYER
 90
3
 70
0
 10
21.7694014073
 20
44.8008103171
 10
24.4852651434
 20
41.9325877381
 10
25.1842774787
 20
41.5296523211
  0
LWPOLYLINE
  5
250
100
AcDbEntity
  8
00_COMPONENTS
100
AcDbPolyline
 62
7
  6
BYLAYER
 90
3
 70
0
 10
20.5171179394
 20
48.8059511376
 10
20.565960969
 20
48.004216546
 10
21.7694014073
 20
44.8008103171
  0
LINE
  5
251
100
AcDbEntity
  8
00_COMPONENTS
100
AcDbLine
 62
7
  6
BYLAYER
 10
20.5173048742
 20
48.8059511298
 11
20.5173048742
 21
50.0503008135
  0
LINE
  5
252
100
AcDbEntity
  8
0
100
AcDbLine
 62
7
  6
BYLAYER
 10
20.7312891014
 20
56.3717791948
 11
20.7312891014
 21
52.4739470494
  0
LINE
  5
253
100
AcDbEntity
  8
0
100
AcDbLine
 62
7
  6
BYLAYER
 10
21.0316809857
 20
58.2238765459
 11
21.0316809857
 21
56.198351783
  0
LINE
  5
254
100
AcDbEntity
  8
0
100
AcDbLine
 62
7
  6
BYLAYER
 10
21.511295004
 20
93.1229040897
 11
21.511295004
 21
94.5953845487
  0
LINE
  5
255
100
AcDbEntity
  8
00_COMPONENTS
100
AcDbLine
 62
7
  6
BYLAYER
 10
47.5943319104
 20
37.6871755015
 11
46.9636009587
 21
37.6871739854
  0
LINE
  5
256
100
AcDbEntity
  8
00_COMPONENTS
100
AcDbLine
 62
7
  6
BYLAYER
 10
33.7586541963
 20
37.6871422447
 11
33.1279232446
 21
37.6871407286
  0
LINE
  5
257
100
AcDbEntity
  8
00_COMPONENTS
100
AcDbLine
 62
7
  6
BYLAYER
 10
33.1279232446
 20
37.6871407286
 11
32.6819272547
 21
37.9446308082
  0
LWPOLYLINE
  5
258
100
AcDbEntity
  8
0
100
AcDbPolyline
 62
7
  6
BYLAYER
 90
3
 70
0
 10
22.0288247261
 20
51.0630126109
 10
22.4389701495
 20
50.3167280964
 10
23.0696062823
 20
49.7615062493
  0
LINE
  5
259
100
AcDbEntity
  8
00_COMPONENTS
100
AcDbLine
 62
7
  6
BYLAYER
 10
22.898584989
 20
43.5929183175
 11
22.898584989
 21
39.1328973238
  0
LINE
  5
25A
100
AcDbEntity
  8
0
100
AcDbLine
 62
7
  6
BYLAYER
 10
23.1459662167
 20
55.9248122364
 11
23.1459662167
 21
49.8482379476
  0
LINE
  5
25B
100
AcDbEntity
  8
0
100
AcDbLine
 62
7
  6
BYLAYER
 10
23.9181134914
 20
57.773335925
 11
23.9181134914
 21
77.8903224783
  0
LINE
  5
25C
100
AcDbEntity
  8
0
100
AcDbLine
 62
7
  6
BYLAYER
 10
23.9539348385
 20
91.7126772273
 11
23.9539348385
 21
93.1851576863
  0
LINE
  5
25D
100
AcDbEntity
  8
00_COMPONENTS
100
AcDbLine
 62
7
  6
BYLAYER
 10
24.3610548702
 20
37.1298032643
 11
24.3610548702
 21
37.965189891
  0
LINE
  5
25E
100
AcDbEntity
  8
0
100
AcDbLine
 62
7
  6
BYLAYER
 10
24.8519567118
 20
92.2311473027
 11
24.8519567118
 21
93.7036277617
  0
LINE
  5
25F
100
AcDbEntity
  8
0
100
AcDbLine
 62
7
  6
BYLAYER
 10
25.391039594
 20
54.6286478408
 11
25.391039594
 21
48.552073552
  0
LINE
  5
260
100
AcDbEntity
  8
0
100
AcDbLine
 62
7
  6
BYLAYER
 10
26.0912140353
 20
94.7301656406
 11
26.0912140353
 21
96.2026460997
  0
LINE
  5
261
100
AcDbEntity
  8
0
100
AcDbLine
 62
7
  6
BYLAYER
 10
19.221419986
 20
60.4849118406
 11
19.239380573
 21
60.4952813285
  0
LINE
  5
262
100
AcDbEntity
  8
0
100
AcDbLine
 62
7
  6
BYLAYER
 10
49.1435479861
 20
77.0138414604
 11
51.2808400445
 21
78.2478002399
  0
LINE
  5
263
100
AcDbEntity
  8
0
100
AcDbLine
 62
7
  6
BYLAYER
 10
20.7312891014
 20
52.4739470494
 11
23.1459662167
 21
49.8482379476
  0
LWPOLYLINE
  5
264
100
AcDbEntity
  8
00_COMPONENTS
100
AcDbPolyline
 62
7
  6
BYLAYER
 90
9
 70
0
 10
26.0095787527
 20
47.3564607573
 10
26.3918600439
 20
46.5328273065
 10
28.8053721336
 20
44.3138481971
 10
30.414289118
 20
43.3840842496
 10
34.2558779161
 20
41.9884863405
 10
38.6376141371
 20
41.3080551731
 10
43.1754612698
 20
41.4029473066
 10
47.4682910692
 20
42.2669949576
 10
51.0227154642
 20
43.7798945537
  0
LINE
  5
265
100
AcDbEntity
  8
0
100
AcDbLine
 62
7
  6
BYLAYER
 10
15.8379677516
 20
74.6045356646
 11
15.2507695925
 21
75.8790865423
  0
LINE
  5
266
100
AcDbEntity
  8
0
100
AcDbLine
 62
7
  6
BYLAYER
 10
16.0145207603
 20
74.9497226507
 11
15.707967689
 21
75.615115551
  0
LINE
  5
267
100
AcDbEntity
  8
0
100
AcDbLine
 62
7
  6
BYLAYER
 10
27.25875486
 20
59.7020446056
 11
27.25875486
 21
79.8190311588
  0
LINE
  5
268
100
AcDbEntity
  8
0
100
AcDbLine
 62
7
  6
BYLAYER
 10
27.6358245189
 20
93.8384045365
 11
27.6358245189
 21
95.3108849955
  0
LINE
  5
269
100
AcDbEntity
  8
00_COMPONENTS
100
AcDbLine
 62
7
  6
BYLAYER
 10
27.8610548742
 20
24.6748753925
 11
27.8610548742
 21
31.4465461739
  0
LINE
  5
26A
100
AcDbEntity
  8
0
100
AcDbLine
 62
7
  6
BYLAYER
 10
28.5338463921
 20
94.3568746119
 11
28.5338463921
 21
95.8293550709
  0
LINE
  5
26B
100
AcDbEntity
  8
0
100
AcDbLine
 62
7
  6
BYLAYER
 10
29.3732103213
 20
51.3824765252
 11
29.3732103213
 21
53.4080012881
  0
LINE
  5
26C
100
AcDbEntity
  8
00_COMPONENTS
100
AcDbLine
 62
7
  6
BYLAYER
 10
29.5099236985
 20
38.998247848
 11
29.5099236985
 21
39.3054416121
  0
LWPOLYLINE
  5
26D
100
AcDbEntity
  8
0
100
AcDbPolyline
 62
7
  6
BYLAYER
 90
5
 70
0
 10
36.9025485102
 20
44.9857585216
 10
42.4187287385
 20
44.8747466897
 10
47.7852524688
 20
45.6265224817
 10
52.6188117996
 20
47.1930039088
 10
54.7115639021
 20
48.2462059328
  0
LWPOLYLINE
  5
26E
100
AcDbEntity
  8
0
100
AcDbPolyline
 62
7
  6
BYLAYER
 90
3
 70
0
 10
29.9389862871
 20
47.1580008634
 10
35.1545427744
 20
46.016774467
 10
39.1061115186
 20
45.7633105215
  0
LINE
  5
26F
100
AcDbEntity
  8
0
100
AcDbLine
 62
7
  6
BYLAYER
 10
25.391039594
 20
48.552073552
 11
29.9389862871
 21
47.1580008634
  0
LINE
  5
270
100
AcDbEntity
  8
0
100
AcDbLine
 62
7
  6
BYLAYER
 10
23.1459662167
 20
49.8482379476
 11
25.391039594
 21
48.552073552
  0
LWPOLYLINE
  5
271
100
AcDbEntity
  8
0
100
AcDbPolyline
 62
7
  6
BYLAYER
 90
4
 70
0
 10
25.7250131194
 20
48.4497013384
 10
27.0247514422
 20
47.6994009651
 10
31.645251916
 20
45.9499275523
 10
36.9025485102
 20
44.9857585216
  0
LWPOLYLINE
  5
272
100
AcDbEntity
  8
00_COMPONENTS
100
AcDbPolyline
 62
7
  6
BYLAYER
 90
4
 70
0
 10
52.556790315
 20
31.2879041437
 10
54.9989783821
 20
29.6446002705
 10
57.1450988972
 20
26.8395151404
 10
57.8610548728
 20
23.8175478534
  0
LINE
  5
273
100
AcDbEntity
  8
0
100
AcDbLine
 62
7
  6
BYLAYER
 10
23.1459662167
 20
55.9248122364
 11
21.0316809857
 21
58.2238765459
  0
LINE
  5
274
100
AcDbEntity
  8
0
100
AcDbLine
 62
7
  6
BYLAYER
 10
16.0499204064
 20
76.4337012964
 11
16.3349907873
 21
75.8149379393
  0
LINE
  5
275
100
AcDbEntity
  8
0
100
AcDbLine
 62
7
  6
BYLAYER
 10
29.9389862872
 20
47.1580008634
 11
29.9389862872
 21
51.0558330087
  0
LINE
  5
276
100
AcDbEntity
  8
0
100
AcDbLine
 62
7
  6
BYLAYER
 10
31.8386273054
 20
87.860479536
 11
31.8386273054
 21
87.8864029535
  0
LINE
  5
277
100
AcDbEntity
  8
0
100
AcDbLine
 62
7
  6
BYLAYER
 10
31.9464485551
 20
79.8190424266
 11
31.9464485551
 21
59.7020558734
  0
LINE
  5
278
100
AcDbEntity
  8
0
100
AcDbLine
 62
7
  6
BYLAYER
 10
32.41336609
 20
87.5545848682
 11
32.41336609
 21
87.5234769227
  0
LINE
  5
279
100
AcDbEntity
  8
00_COMPONENTS
100
AcDbLine
 62
7
  6
BYLAYER
 10
33.1279232446
 20
37.6871407286
 11
33.1279232446
 21
33.2271197348
  0
LINE
  5
27A
100
AcDbEntity
  8
0
100
AcDbLine
 62
7
  6
BYLAYER
 10
27.25875486
 20
59.7020446056
 11
23.9181134914
 21
57.773335925
  0
LINE
  5
27B
100
AcDbEntity
  8
0
100
AcDbLine
 62
7
  6
BYLAYER
 10
50.1343452378
 20
72.8988246306
 11
49.1435479861
 21
72.3267909851
  0
LINE
  5
27C
100
AcDbEntity
  8
0
100
AcDbLine
 62
7
  6
BYLAYER
 10
55.9505926694
 20
75.5517782971
 11
53.813300611
 21
74.3178195176
  0
LINE
  5
27D
100
AcDbEntity
  8
0
100
AcDbLine
 62
7
  6
BYLAYER
 10
53.813300611
 20
73.2808614478
 11
55.9505926694
 21
74.5148202273
  0
LINE
  5
27E
100
AcDbEntity
  8
0
100
AcDbLine
 62
7
  6
BYLAYER
 10
31.9464485551
 20
59.7020558734
 11
49.1435674281
 21
69.6307578176
  0
LINE
  5
27F
100
AcDbEntity
  8
0
100
AcDbLine
 62
7
  6
BYLAYER
 10
10.0437102097
 20
62.5421161532
 11
21.0316809857
 21
56.198351783
  0
LINE
  5
280
100
AcDbEntity
  8
0
100
AcDbLine
 62
7
  6
BYLAYER
 10
29.3732103213
 20
51.3824765252
 11
40.3611810973
 21
45.038712155
  0
LINE
  5
281
100
AcDbEntity
  8
0
100
AcDbLine
 62
7
  6
BYLAYER
 10
25.391039594
 20
54.6286478408
 11
23.1459662167
 21
55.9248122364
  0
LINE
  5
282
100
AcDbEntity
  8
0
100
AcDbLine
 62
7
  6
BYLAYER
 10
40.3611810973
 20
47.0642369179
 11
29.3732103213
 21
53.4080012881
  0
LINE
  5
283
100
AcDbEntity
  8
0
100
AcDbLine
 62
7
  6
BYLAYER
 10
21.0316809857
 20
58.2238765459
 11
10.0437102097
 21
64.5676409161
  0
LINE
  5
284
100
AcDbEntity
  8
0
100
AcDbLine
 62
7
  6
BYLAYER
 10
18.5938562777
 20
83.425386367
 11
18.0066581186
 21
84.6999372447
  0
LINE
  5
285
100
AcDbEntity
  8
0
100
AcDbLine
 62
7
  6
BYLAYER
 10
18.7704092864
 20
83.7705733532
 11
18.4638562151
 21
84.4359662535
  0
LINE
  5
286
100
AcDbEntity
  8
0
100
AcDbLine
 62
7
  6
BYLAYER
 10
18.8058089324
 20
85.2545519989
 11
19.0908793133
 21
84.6357886418
  0
LINE
  5
287
100
AcDbEntity
  8
0
100
AcDbLine
 62
7
  6
BYLAYER
 10
35.1882488926
 20
86.5730561408
 11
35.1882488926
 21
87.8023873991
  0
LINE
  5
288
100
AcDbEntity
  8
0
100
AcDbLine
 62
7
  6
BYLAYER
 10
35.1882488926
 20
89.7891883893
 11
35.1882488926
 21
89.7995571734
  0
LINE
  5
289
100
AcDbEntity
  8
0
100
AcDbLine
 62
7
  6
BYLAYER
 10
35.2062094796
 20
89.7891878582
 11
35.2062094796
 21
89.8099270196
  0
LINE
  5
28A
100
AcDbEntity
  8
0
100
AcDbLine
 62
7
  6
BYLAYER
 10
35.736047021
 20
88.1186569081
 11
35.736047021
 21
89.4729241472
  0
LINE
  5
28B
100
AcDbEntity
  8
0
100
AcDbLine
 62
7
  6
BYLAYER
 10
36.7687805503
 20
87.0071240682
 11
36.7687805503
 21
88.9077966003
  0
LINE
  5
28C
100
AcDbEntity
  8
0
100
AcDbLine
 62
7
  6
BYLAYER
 10
57.1539419795
 20
71.5594777228
 11
55.9505926694
 21
70.8647278218
  0
LINE
  5
28D
100
AcDbEntity
  8
0
100
AcDbLine
 62
7
  6
BYLAYER
 10
29.3732103213
 20
53.4080012881
 11
25.391039594
 21
54.6286478408
  0
LINE
  5
28E
100
AcDbEntity
  8
0
100
AcDbLine
 62
7
  6
BYLAYER
 10
17.4253612842
 20
61.5218433571
 11
19.221419986
 21
60.4849118406
  0
LINE
  5
28F
100
AcDbEntity
  8
0
100
AcDbLine
 62
7
  6
BYLAYER
 10
19.239380573
 20
60.4745425255
 11
23.9181134914
 21
57.773335925
  0
LINE
  5
290
100
AcDbEntity
  8
0
100
AcDbLine
 62
7
  6
BYLAYER
 10
40.3611810973
 20
47.0642369179
 11
40.3611810973
 21
45.038712155
  0
LINE
  5
291
100
AcDbEntity
  8
0
100
AcDbLine
 62
7
  6
BYLAYER
 10
19.221419986
 20
66.6486041124
 11
9.1154192541
 21
72.4831545384
  0
LINE
  5
292
100
AcDbEntity
  8
0
100
AcDbLine
 62
7
  6
BYLAYER
 10
18.9712282602
 20
67.9337103794
 11
13.6908156767
 21
70.9822890378
  0
LINE
  5
293
100
AcDbEntity
  8
0
100
AcDbLine
 62
7
  6
BYLAYER
 10
21.0313851148
 20
87.7440840976
 11
18.3643559579
 21
92.5503570106
  0
LINE
  5
294
100
AcDbEntity
  8
0
100
AcDbLine
 62
7
  6
BYLAYER
 10
17.4253612842
 20
69.4039890822
 11
19.221419986
 21
68.3670575658
  0
LINE
  5
295
100
AcDbEntity
  8
0
100
AcDbLine
 62
7
  6
BYLAYER
 10
14.167251553
 20
72.9361305318
 11
14.2141691848
 21
72.9090432372
  0
LINE
  5
296
100
AcDbEntity
  8
0
100
AcDbLine
 62
7
  6
BYLAYER
 10
14.4125968277
 20
73.3663977443
 11
10.8221762348
 21
75.4393607554
  0
LINE
  5
297
100
AcDbEntity
  8
0
100
AcDbLine
 62
7
  6
BYLAYER
 10
15.2507695925
 20
75.8790865423
 11
15.707967689
 21
75.615115551
  0
LINE
  5
298
100
AcDbEntity
  8
0
100
AcDbLine
 62
7
  6
BYLAYER
 10
12.6128687794
 20
78.5409484407
 11
16.2053285479
 21
76.4668080773
  0
LINE
  5
299
100
AcDbEntity
  8
0
100
AcDbLine
 62
7
  6
BYLAYER
 10
16.5002755495
 20
76.8684499749
 11
16.4532420354
 21
76.8956041726
  0
LINE
  5
29A
100
AcDbEntity
  8
00_COMPONENTS
100
AcDbLine
 62
7
  6
BYLAYER
 10
47.5943319104
 20
37.6871755015
 11
47.5943319104
 21
33.2271545078
  0
LINE
  5
29B
100
AcDbEntity
  8
0
100
AcDbLine
 62
7
  6
BYLAYER
 10
47.7785155557
 20
97.0685079891
 11
47.7785155557
 21
97.0892467921
  0
LINE
  5
29C
100
AcDbEntity
  8
0
100
AcDbLine
 62
7
  6
BYLAYER
 10
49.1435674281
 20
69.6307578176
 11
49.1435674281
 21
89.7477443709
  0
LINE
  5
29D
100
AcDbEntity
  8
00_COMPONENTS
100
AcDbLine
 62
7
  6
BYLAYER
 10
49.9026494427
 20
40.0050078599
 11
49.9026494427
 21
38.7606581762
  0
LINE
  5
29E
100
AcDbEntity
  8
0
100
AcDbLine
 62
7
  6
BYLAYER
 10
70.6783995386
 20
64.567786664
 11
40.3611810973
 21
47.0642369179
  0
LINE
  5
29F
100
AcDbEntity
  8
0
100
AcDbLine
 62
7
  6
BYLAYER
 10
40.3611810973
 20
45.038712155
 11
51.3737292376
 21
51.3967718357
  0
LINE
  5
2A0
100
AcDbEntity
  8
0
100
AcDbLine
 62
7
  6
BYLAYER
 10
59.6658513984
 20
56.1842022203
 11
70.6783995386
 21
62.5422619011
  0
LINE
  5
2A1
100
AcDbEntity
  8
0
100
AcDbLine
 62
7
  6
BYLAYER
 10
17.4253612842
 20
79.9126968326
 11
12.6573185943
 21
82.6654234637
  0
LINE
  5
2A2
100
AcDbEntity
  8
00_COMPONENTS
100
AcDbLine
 62
7
  6
BYLAYER
 10
51.2123125468
 20
39.5167880084
 11
51.2123125468
 21
38.9983000141
  0
LINE
  5
2A3
100
AcDbEntity
  8
0
100
AcDbLine
 62
7
  6
BYLAYER
 10
51.2808400445
 20
78.2478002399
 11
51.2808400445
 21
88.1750969117
  0
LINE
  5
2A4
100
AcDbEntity
  8
0
100
AcDbLine
 62
7
  6
BYLAYER
 10
51.2808400445
 20
90.3306178937
 11
51.2808400445
 21
90.8228904246
  0
LINE
  5
2A5
100
AcDbEntity
  8
0
100
AcDbLine
 62
7
  6
BYLAYER
 10
51.3737292376
 20
51.3967718357
 11
51.3737292376
 21
47.3457223099
  0
LINE
  5
2A6
100
AcDbEntity
  8
00_COMPONENTS
100
AcDbLine
 62
7
  6
BYLAYER
 10
52.8610548741
 20
24.6748753925
 11
52.8610548741
 21
31.5259234529
  0
LINE
  5
2A7
100
AcDbEntity
  8
0
100
AcDbLine
 62
7
  6
BYLAYER
 10
53.813300611
 20
89.7477555955
 11
53.813300611
 21
88.7107975258
  0
LINE
  5
2A8
100
AcDbEntity
  8
0
100
AcDbLine
 62
7
  6
BYLAYER
 10
53.813300611
 20
74.3178195176
 11
53.813300611
 21
73.2808614478
  0
LWPOLYLINE
  5
2A9
100
AcDbEntity
  8
0
100
AcDbPolyline
 62
7
  6
BYLAYER
 90
3
 70
0
 10
54.7115639021
 20
48.2462059328
 10
56.5322248643
 20
49.4517468542
 10
58.4715518825
 20
51.4436276634
  0
LINE
  5
2AA
100
AcDbEntity
  8
0
100
AcDbLine
 62
7
  6
BYLAYER
 10
59.6658513984
 20
52.1331526945
 11
51.3737292376
 21
47.3457223099
  0
LINE
  5
2AB
100
AcDbEntity
  8
0
100
AcDbLine
 62
7
  6
BYLAYER
 10
16.9231400791
 20
81.7569812343
 11
16.9700577109
 21
81.7298939397
  0
LINE
  5
2AC
100
AcDbEntity
  8
0
100
AcDbLine
 62
7
  6
BYLAYER
 10
17.4253612842
 20
81.6388299103
 11
19.221419986
 21
80.6018983939
  0
LINE
  5
2AD
100
AcDbEntity
  8
0
100
AcDbLine
 62
7
  6
BYLAYER
 10
23.9181134914
 20
77.8903224783
 11
19.239380573
 21
80.5915290787
  0
LINE
  5
2AE
100
AcDbEntity
  8
0
100
AcDbLine
 62
7
  6
BYLAYER
 10
17.1684853537
 20
82.1872484468
 11
13.5780647609
 21
84.2602114579
  0
LINE
  5
2AF
100
AcDbEntity
  8
0
100
AcDbLine
 62
7
  6
BYLAYER
 10
18.0066581186
 20
84.6999372447
 11
18.4638562151
 21
84.4359662535
  0
LINE
  5
2B0
100
AcDbEntity
  8
00_COMPONENTS
100
AcDbLine
 62
7
  6
BYLAYER
 10
55.5526483787
 20
41.504179117
 11
55.5526483787
 21
42.0226671113
  0
LINE
  5
2B1
100
AcDbEntity
  8
0
100
AcDbLine
 62
7
  6
BYLAYER
 10
55.9505926694
 20
89.9447563053
 11
55.9505926694
 21
75.5517782971
  0
LINE
  5
2B2
100
AcDbEntity
  8
0
100
AcDbLine
 62
7
  6
BYLAYER
 10
55.9505926694
 20
74.5148202273
 11
55.9505926694
 21
70.8647278218
  0
LINE
  5
2B3
100
AcDbEntity
  8
00_COMPONENTS
100
AcDbLine
 62
7
  6
BYLAYER
 10
56.3610548782
 20
37.1298032643
 11
56.3610548782
 21
38.0011200498
  0
LINE
  5
2B4
100
AcDbEntity
  8
0
100
AcDbLine
 62
7
  6
BYLAYER
 10
57.1539419795
 20
71.5594777228
 11
57.1539419795
 21
91.6764642761
  0
LINE
  5
2B5
100
AcDbEntity
  8
00_COMPONENTS
100
AcDbLine
 62
7
  6
BYLAYER
 10
57.7603408337
 20
43.2972713361
 11
57.7603408337
 21
44.5416210198
  0
LINE
  5
2B6
100
AcDbEntity
  8
00_COMPONENTS
100
AcDbLine
 62
7
  6
BYLAYER
 10
57.8235849887
 20
43.3946954133
 11
57.8235849887
 21
39.1329812732
  0
LINE
  5
2B7
100
AcDbEntity
  8
00_COMPONENTS
100
AcDbLine
 62
7
  6
BYLAYER
 10
53.8369691673
 20
45.9411303345
 11
54.671586079
 21
47.3186880269
  0
LWPOLYLINE
  5
2B8
100
AcDbEntity
  8
0
100
AcDbPolyline
 62
7
  6
BYLAYER
 90
3
 70
0
 10
50.9578012152
 20
43.9324048662
 10
53.6123284332
 20
46.0095704182
 10
54.2501466182
 20
47.0622915409
  0
LINE
  5
2B9
100
AcDbEntity
  8
00_COMPONENTS
100
AcDbLine
 62
7
  6
BYLAYER
 10
51.1374070854
 20
43.8287117146
 11
53.8369691673
 21
45.9411303345
  0
LWPOLYLINE
  5
2BA
100
AcDbEntity
  8
0
100
AcDbPolyline
 62
7
  6
BYLAYER
 90
4
 70
0
 10
54.3927634826
 20
47.1340636897
 10
56.1731996288
 20
48.3129919673
 10
58.8228015011
 20
51.0344272059
 10
59.1642194635
 20
51.8435370906
  0
LINE
  5
2BB
100
AcDbEntity
  8
0
100
AcDbLine
 62
7
  6
BYLAYER
 10
13.6908156767
 20
70.9822890378
 11
11.7716947092
 21
70.9496151025
  0
LINE
  5
2BC
100
AcDbEntity
  8
0
100
AcDbLine
 62
7
  6
BYLAYER
 10
15.3687573054
 20
87.3617991432
 11
18.961217074
 21
85.2876587798
  0
LINE
  5
2BD
100
AcDbEntity
  8
0
100
AcDbLine
 62
7
  6
BYLAYER
 10
19.2561640756
 20
85.6893006773
 11
19.2091305615
 21
85.716454875
  0
LWPOLYLINE
  5
2BE
100
AcDbEntity
  8
00_COMPONENTS
100
AcDbPolyline
 62
7
  6
BYLAYER
 90
3
 70
0
 10
59.6728222818
 20
52.142976824
 10
60.1553869317
 20
50.8582822706
 10
60.2049996725
 20
50.0503008122
  0
LINE
  5
2BF
100
AcDbEntity
  8
0
100
AcDbLine
 62
7
  6
BYLAYER
 10
59.6658513984
 20
52.1331526945
 11
59.6658513984
 21
56.1842022203
  0
LINE
  5
2C0
100
AcDbEntity
  8
00_COMPONENTS
100
AcDbLine
 62
7
  6
BYLAYER
 10
60.2048048742
 20
48.8059511298
 11
60.2048048742
 21
50.0503008135
  0
LINE
  5
2C1
100
AcDbEntity
  8
00_COMPONENTS
100
AcDbLine
 62
7
  6
BYLAYER
 10
49.9026494427
 20
40.0050078599
 11
57.7603408337
 21
44.5416210198
  0
LINE
  5
2C2
100
AcDbEntity
  8
00_COMPONENTS
100
AcDbLine
 62
7
  6
BYLAYER
 10
48.0403241866
 20
37.9446677252
 11
47.5943319104
 21
37.6871755015
  0
LINE
  5
2C3
100
AcDbEntity
  8
00_COMPONENTS
100
AcDbLine
 62
7
  6
BYLAYER
 10
57.7603408337
 20
43.2972713361
 11
49.9026494427
 21
38.7606581762
  0
LINE
  5
2C4
100
AcDbEntity
  8
00_COMPONENTS
100
AcDbLine
 62
7
  6
BYLAYER
 10
55.5526483787
 20
41.504179117
 11
51.2123125468
 21
38.9983000141
  0
LINE
  5
2C5
100
AcDbEntity
  8
0
100
AcDbLine
 62
7
  6
BYLAYER
 10
24.5157389964
 20
85.7324369556
 11
21.0313851148
 21
87.7440840976
  0
LINE
  5
2C6
100
AcDbEntity
  8
0
100
AcDbLine
 62
7
  6
BYLAYER
 10
55.9505926694
 20
70.8647278218
 11
52.7992242986
 21
72.6841300386
  0
LINE
  5
2C7
100
AcDbEntity
  8
0
100
AcDbLine
 62
7
  6
BYLAYER
 10
57.1539419795
 20
72.3759592319
 11
70.6783995386
 21
64.567786664
  0
LINE
  5
2C8
100
AcDbEntity
  8
0
100
AcDbLine
 62
7
  6
BYLAYER
 10
23.9539348385
 20
91.7126772273
 11
21.511295004
 21
93.1229040897
  0
LINE
  5
2C9
100
AcDbEntity
  8
0
100
AcDbLine
 62
7
  6
BYLAYER
 10
33.3922183068
 20
86.9583491167
 11
31.8296472362
 21
87.860479536
  0
LINE
  5
2CA
100
AcDbEntity
  8
0
100
AcDbLine
 62
7
  6
BYLAYER
 10
31.8386273054
 20
87.8864029535
 11
32.41336609
 21
87.5545848682
  0
LINE
  5
2CB
100
AcDbEntity
  8
0
100
AcDbLine
 62
7
  6
BYLAYER
 10
23.9539348385
 20
93.1851576863
 11
21.511295004
 21
94.5953845487
  0
LINE
  5
2CC
100
AcDbEntity
  8
0
100
AcDbLine
 62
7
  6
BYLAYER
 10
51.2808400445
 20
78.2478002399
 11
55.9505926694
 21
75.5517782971
  0
LINE
  5
2CD
100
AcDbEntity
  8
0
100
AcDbLine
 62
7
  6
BYLAYER
 10
23.3073462282
 20
94.5953888659
 11
24.8519567118
 21
93.7036277617
  0
LINE
  5
2CE
100
AcDbEntity
  8
0
100
AcDbLine
 62
7
  6
BYLAYER
 10
27.6358245189
 20
93.8384045365
 11
26.0912140353
 21
94.7301656406
  0
LINE
  5
2CF
100
AcDbEntity
  8
0
100
AcDbLine
 62
7
  6
BYLAYER
 10
35.1613082364
 20
89.8047422325
 11
35.736047021
 21
89.4729241472
  0
LINE
  5
2D0
100
AcDbEntity
  8
0
100
AcDbLine
 62
7
  6
BYLAYER
 10
35.1882488926
 20
89.7995571734
 11
35.2062094796
 21
89.7891878582
  0
LINE
  5
2D1
100
AcDbEntity
  8
0
100
AcDbLine
 62
7
  6
BYLAYER
 10
35.2062094796
 20
89.8099270196
 11
36.7687805503
 21
88.9077966003
  0
LINE
  5
2D2
100
AcDbEntity
  8
0
100
AcDbLine
 62
7
  6
BYLAYER
 10
27.6358245189
 20
95.3108849955
 11
26.0912140353
 21
96.2026460997
  0
LINE
  5
2D3
100
AcDbEntity
  8
0
100
AcDbLine
 62
7
  6
BYLAYER
 10
70.6783995386
 20
64.567786664
 11
70.6783995386
 21
62.5422619011
  0
LINE
  5
2D4
100
AcDbEntity
  8
0
100
AcDbLine
 62
7
  6
BYLAYER
 10
26.0912065576
 20
97.2395819334
 11
28.5338463921
 21
95.8293550709
  0
LINE
  5
2D5
100
AcDbEntity
  8
0
100
AcDbLine
 62
7
  6
BYLAYER
 10
38.8920791416
 20
94.0325712633
 11
35.40772526
 21
96.0442184053
  0
LINE
  5
2D6
100
AcDbEntity
  8
00_COMPONENTS
100
AcDbLine
 62
7
  6
BYLAYER
 10
46.0239302797
 20
18.2411556211
 11
48.2637292155
 21
19.1796087722
  0
LINE
  5
2D7
100
AcDbEntity
  8
0
100
AcDbLine
 62
7
  6
BYLAYER
 10
27.0828751614
 20
97.5839663731
 11
35.40772526
 21
96.0442184053
  0
LWPOLYLINE
  5
2D8
100
AcDbEntity
  8
00_COMPONENTS
100
AcDbPolyline
 62
7
  6
BYLAYER
 90
12
 70
0
 10
51.9930098536
 20
17.9593149801
 10
48.0421789175
 20
16.2765276142
 10
43.4196795781
 20
15.3432140846
 10
38.5147967921
 20
15.2376097739
 10
33.782944775
 20
15.9700080494
 10
29.6351359751
 20
17.4741264205
 10
27.8974472825
 20
18.476560299
 10
25.2887828068
 20
20.870161433
 10
24.0165730043
 20
23.6009328767
 10
24.1941146577
 20
26.4291201609
 10
25.8086902436
 20
29.1031724926
 10
27.8610548742
 20
30.7105833985
  0
LINE
  5
2D9
100
AcDbEntity
  8
0
100
AcDbLine
 62
7
  6
BYLAYER
 10
45.9824568539
 20
98.1261783086
 11
47.7785155557
 21
97.0892467921
  0
LINE
  5
2DA
100
AcDbEntity
  8
0
100
AcDbLine
 62
7
  6
BYLAYER
 10
47.7964761428
 20
97.0788774769
 11
57.1539419795
 21
91.6764642761
  0
ARC
  5
2DB
100
AcDbEntity
  8
00_COMPONENTS
100
AcDbCircle
 62
7
  6
BYLAYER
 10
41.0313354671
 20
64.8731786716
 40
27.8257187627
100
AcDbArc
 50
282.3095720404
 51
284.5893136853
  0
ARC
  5
2DC
100
AcDbEntity
  8
00_COMPONENTS
100
AcDbCircle
 62
7
  6
BYLAYER
 10
39.6382481615
 20
64.6535354944
 40
27.5999273567
100
AcDbArc
 50
255.4016626809
 51
257.7000620857
  0
ARC
  5
2DD
100
AcDbEntity
  8
00_COMPONENTS
100
AcDbCircle
 62
7
  6
BYLAYER
 10
36.6697539519
 20
43.8008823212
 40
15.2452862635
100
AcDbArc
 50
240.0000338146
 51
240.7680618417
  0
ARC
  5
2DE
100
AcDbEntity
  8
00_COMPONENTS
100
AcDbCircle
 62
7
  6
BYLAYER
 10
44.0561760903
 20
43.7950260892
 40
15.2383193246
100
AcDbArc
 50
299.2789728822
 51
299.997719473
  0
ARC
  5
2DF
100
AcDbEntity
  8
00_COMPONENTS
100
AcDbCircle
 62
7
  6
BYLAYER
 10
43.9259125536
 20
56.3197519527
 40
14.423305433
100
AcDbArc
 50
299.5406170906
 51
299.9992744122
  0
ARC
  5
2E0
100
AcDbEntity
  8
00_COMPONENTS
100
AcDbCircle
 62
7
  6
BYLAYER
 10
44.8731908318
 20
19.0042607619
 40
14.2862508551
100
AcDbArc
 50
55.9674659862
 51
58.2469533504
  0
ARC
  5
2E1
100
AcDbEntity
  8
00_COMPONENTS
100
AcDbCircle
 62
7
  6
BYLAYER
 10
42.8358696639
 20
30.6291976036
 40
12.757970124
100
AcDbArc
 50
295.5876336708
 51
299.9226159869
  0
ARC
  5
2E2
100
AcDbEntity
  8
00_COMPONENTS
100
AcDbCircle
 62
7
  6
BYLAYER
 10
49.4315583038
 20
51.208881641
 40
11.4874799694
100
AcDbArc
 50
316.4714516419
 51
317.9770467668
  0
ARC
  5
2E3
100
AcDbEntity
  8
00_COMPONENTS
100
AcDbCircle
 62
7
  6
BYLAYER
 10
27.1902759311
 20
50.0523578747
 40
6.6729462171
100
AcDbArc
 50
180.0176624911
 51
190.1940440011
  0
ARC
  5
2E4
100
AcDbEntity
  8
0
100
AcDbCircle
 62
7
  6
BYLAYER
 10
17.7789754794
 20
76.1301419466
 40
1.5308499547
100
AcDbArc
 50
147.5657892574
 51
149.9983901968
  0
ARC
  5
2E5
100
AcDbEntity
  8
0
100
AcDbCircle
 62
7
  6
BYLAYER
 10
20.5348640053
 20
84.9509926492
 40
1.5308499546
100
AcDbArc
 50
147.5657892581
 51
149.9983901968
  0
ARC
  5
2E6
100
AcDbEntity
  8
0
100
AcDbCircle
 62
7
  6
BYLAYER
 10
15.4930274237
 20
72.1707515282
 40
1.5308450864
100
AcDbArc
 50
150.0018816563
 51
152.4284429602
  0
ARC
  5
2E7
100
AcDbEntity
  8
0
100
AcDbCircle
 62
7
  6
BYLAYER
 10
18.2489159493
 20
80.9916022308
 40
1.530845086
100
AcDbArc
 50
150.0018816563
 51
152.4284429593
  0
ARC
  5
2E8
100
AcDbEntity
  8
0
100
AcDbCircle
 62
7
  6
BYLAYER
 10
51.8294614445
 20
89.5464775536
 40
1.2380337874
100
AcDbArc
 50
57.0237754724
 51
60.0101751731
  0
ARC
  5
2E9
100
AcDbEntity
  8
0
100
AcDbCircle
 62
7
  6
BYLAYER
 10
51.1183064288
 20
89.56096273
 40
1.2209409725
100
AcDbArc
 50
120.1673543733
 51
123.0220386139
  0
SPLINE
  5
2EA
100
AcDbEntity
  8
00_COMPONENTS
100
AcDbSpline
 62
7
  6
BYLAYER
 70
0
 71
3
 72
13
 73
9
 74
0
 42
0.0000001
 43
0.0000001
 44
0.0000000001
 40
0.0
 40
0.0
 40
0.0
 40
0.0
 40
0.2699707872
 40
0.5234350525
 40
0.6453926385
 40
0.7649671646
 40
0.8829023187
 40
1.0
 40
1.0
 40
1.0
 40
1.0
 10
57.9653395812
 20
43.5188378728
 30
0.0
 10
58.3189439902
 20
43.9113314618
 30
0.0
 10
58.9525704338
 20
44.7219620596
 30
0.0
 10
59.5576221347
 20
45.8386580564
 30
0.0
 10
59.8942333206
 20
46.7483411697
 30
0.0
 10
60.0731294647
 20
47.4298715841
 30
0.0
 10
60.1808253169
 20
48.1165341673
 30
0.0
 10
60.204779181
 20
48.5768107805
 30
0.0
 10
60.2047794077
 20
48.805951122
 30
0.0
  0
SPLINE
  5
2EB
100
AcDbEntity
  8
00_COMPONENTS
100
AcDbSpline
 62
7
  6
BYLAYER
 70
0
 71
3
 72
9
 73
5
 74
0
 42
0.0000001
 43
0.0000001
 44
0.0000000001
 40
0.0
 40
0.0
 40
0.0
 40
0.0
 40
0.5084751053
 40
1.0
 40
1.0
 40
1.0
 40
1.0
 10
48.0403241866
 20
37.9446677252
 30
0.0
 10
48.5888486714
 20
38.0875832831
 30
0.0
 10
49.6591053706
 20
38.4026089011
 30
0.0
 10
50.7057557537
 20
38.7893989578
 30
0.0
 10
51.2123125468
 20
38.9983000141
 30
0.0
  0
SPLINE
  5
2EC
100
AcDbEntity
  8
00_COMPONENTS
100
AcDbSpline
 62
7
  6
BYLAYER
 70
0
 71
3
 72
9
 73
5
 74
0
 42
0.0000001
 43
0.0000001
 44
0.0000000001
 40
0.0
 40
0.0
 40
0.0
 40
0.0
 40
0.2578804251
 40
1.0
 40
1.0
 40
1.0
 40
1.0
 10
55.5526483787
 20
41.504179117
 30
0.0
 10
55.6812183231
 20
41.6080995475
 30
0.0
 10
56.1723021055
 20
42.0201681299
 30
0.0
 10
56.6324705634
 20
42.4696807634
 30
0.0
 10
56.9495976357
 20
42.8243105247
 30
0.0
  0
SPLINE
  5
2ED
100
AcDbEntity
  8
00_COMPONENTS
100
AcDbSpline
 62
7
  6
BYLAYER
 70
0
 71
3
 72
14
 73
10
 74
0
 42
0.0000001
 43
0.0000001
 44
0.0000000001
 40
0.0
 40
0.0
 40
0.0
 40
0.0
 40
0.2704387441
 40
0.4011167635
 40
0.5282436115
 40
0.6516097754
 40
0.7712077996
 40
0.887227779
 40
1.0
 40
1.0
 40
1.0
 40
1.0
 10
22.898584989
 20
39.1328973238
 30
0.0
 10
23.7221322107
 20
38.4473269914
 30
0.0
 10
24.9759209924
 20
37.4673285671
 30
0.0
 10
26.705811627
 20
36.2879335557
 30
0.0
 10
27.993841934
 20
35.497980015
 30
0.0
 10
29.2828890907
 20
34.7974319439
 30
0.0
 10
30.5684494545
 20
34.1870109196
 30
0.0
 10
31.8464351634
 20
33.6634730361
 30
0.0
 10
32.7026192902
 20
33.3641586906
 30
0.0
 10
33.1279232446
 20
33.2271197348
 30
0.0
  0
SPLINE
  5
2EE
100
AcDbEntity
  8
00_COMPONENTS
100
AcDbSpline
 62
7
  6
BYLAYER
 70
0
 71
3
 72
15
 73
11
 74
0
 42
0.0000001
 43
0.0000001
 44
0.0000000001
 40
0.0
 40
0.0
 40
0.0
 40
0.0
 40
0.1245678815
 40
0.2494873104
 40
0.3746707261
 40
0.4999998888
 40
0.6253290663
 40
0.7505125256
 40
0.8754320247
 40
1.0
 40
1.0
 40
1.0
 40
1.0
 10
33.1279232446
 20
33.2271197348
 30
0.0
 10
33.7224099103
 20
33.1198757755
 30
0.0
 10
34.9171535267
 20
32.9268997568
 30
0.0
 10
36.7218797646
 20
32.7118340063
 30
0.0
 10
38.5383326712
 20
32.5789050254
 30
0.0
 10
40.3611276853
 20
32.5338832008
 30
0.0
 10
42.1839226937
 20
32.5789137988
 30
0.0
 10
44.0003755846
 20
32.7118515206
 30
0.0
 10
45.8051018004
 20
32.9269259527
 30
0.0
 10
46.9998452963
 20
33.1199076999
 30
0.0
 10
47.5943319104
 20
33.2271545078
 30
0.0
  0
SPLINE
  5
2EF
100
AcDbEntity
  8
00_COMPONENTS
100
AcDbSpline
 62
7
  6
BYLAYER
 70
0
 71
3
 72
11
 73
7
 74
0
 42
0.0000001
 43
0.0000001
 44
0.0000000001
 40
0.0
 40
0.0
 40
0.0
 40
0.0
 40
0.2390498922
 40
0.4849780948
 40
0.738497266
 40
1.0
 40
1.0
 40
1.0
 40
1.0
 10
47.5943319104
 20
33.2271545078
 30
0.0
 10
48.0196363687
 20
33.3641968117
 30
0.0
 10
48.8758074185
 20
33.6635179609
 30
0.0
 10
50.1537862482
 20
34.1870778513
 30
0.0
 10
51.4392999305
 20
34.7974893046
 30
0.0
 10
52.2856378895
 20
35.2574157895
 30
0.0
 10
52.7089584496
 20
35.5018185699
 30
0.0
  0
SPLINE
  5
2F0
100
AcDbEntity
  8
00_COMPONENTS
100
AcDbSpline
 62
7
  6
BYLAYER
 70
0
 71
3
 72
9
 73
5
 74
0
 42
0.0000001
 43
0.0000001
 44
0.0000000001
 40
0.0
 40
0.0
 40
0.0
 40
0.0
 40
0.4879740234
 40
1.0
 40
1.0
 40
1.0
 40
1.0
 10
52.7089584496
 20
35.5018185699
 30
0.0
 10
53.593354236
 20
36.0124216674
 30
0.0
 10
55.3497677411
 20
37.1573046942
 30
0.0
 10
57.0000520725
 20
38.4474131819
 30
0.0
 10
57.8235849887
 20
39.1329812732
 30
0.0
  0
SPLINE
  5
2F1
100
AcDbEntity
  8
00_COMPONENTS
100
AcDbSpline
 62
7
  6
BYLAYER
 70
0
 71
3
 72
9
 73
5
 74
0
 42
0.0000001
 43
0.0000001
 44
0.0000000001
 40
0.0
 40
0.0
 40
0.0
 40
0.0
 40
0.4915250254
 40
1.0
 40
1.0
 40
1.0
 40
1.0
 10
29.5099236985
 20
38.998247848
 30
0.0
 10
30.0164833762
 20
38.7893492798
 30
0.0
 10
31.0631390497
 20
38.40256434
 30
0.0
 10
32.1334005623
 20
38.0875437672
 30
0.0
 10
32.6819272547
 20
37.9446308082
 30
0.0
  0
SPLINE
  5
2F2
100
AcDbEntity
  8
00_COMPONENTS
100
AcDbSpline
 62
7
  6
BYLAYER
 70
0
 71
3
 72
11
 73
7
 74
0
 42
0.0000001
 43
0.0000001
 44
0.0000000001
 40
0.0
 40
0.0
 40
0.0
 40
0.0
 40
0.2472852143
 40
0.5000002494
 40
0.7527151577
 40
1.0
 40
1.0
 40
1.0
 40
1.0
 10
33.7586541963
 20
37.6871422447
 30
0.0
 10
34.8295052704
 20
37.4533893409
 30
0.0
 10
37.023502543
 20
37.1052496052
 30
0.0
 10
40.3611321756
 20
36.9326831059
 30
0.0
 10
43.6987593413
 20
37.1052654771
 30
0.0
 10
45.8927527214
 20
37.453415817
 30
0.0
 10
46.9636009587
 20
37.6871739854
 30
0.0
  0
SPLINE
  5
2F3
100
AcDbEntity
  8
00_COMPONENTS
100
AcDbSpline
 62
7
  6
BYLAYER
 70
0
 71
3
 72
15
 73
11
 74
0
 42
0.0000001
 43
0.0000001
 44
0.0000000001
 40
0.0
 40
0.0
 40
0.0
 40
0.0
 40
0.1485801254
 40
0.289509359
 40
0.4227246153
 40
0.5486415202
 40
0.668001922
 40
0.7819395159
 40
0.8919876913
 40
1.0
 40
1.0
 40
1.0
 40
1.0
 10
51.6748104794
 20
30.5979511904
 30
0.0
 10
52.0356522494
 20
30.8062820399
 30
0.0
 10
52.7224322505
 20
31.2416049256
 30
0.0
 10
53.661366092
 20
31.9683199316
 30
0.0
 10
54.4734971712
 20
32.7456777785
 30
0.0
 10
55.1506816952
 20
33.5665329253
 30
0.0
 10
55.6861065704
 20
34.4235862171
 30
0.0
 10
56.0736770106
 20
35.309126514
 30
0.0
 10
56.3084095529
 20
36.2141705275
 30
0.0
 10
56.3610570768
 20
36.8269041154
 30
0.0
 10
56.3610434134
 20
37.1298032642
 30
0.0
  0
SPLINE
  5
2F4
100
AcDbEntity
  8
00_COMPONENTS
100
AcDbSpline
 62
7
  6
BYLAYER
 70
0
 71
3
 72
16
 73
12
 74
0
 42
0.0000001
 43
0.0000001
 44
0.0000000001
 40
0.0
 40
0.0
 40
0.0
 40
0.0
 40
0.1129995651
 40
0.2272301228
 40
0.3440227999
 40
0.4644961296
 40
0.5264742855
 40
0.5897366635
 40
0.72039638
 40
0.8571041099
 40
1.0
 40
1.0
 40
1.0
 40
1.0
 10
57.8610548728
 20
23.8175478534
 30
0.0
 10
57.8610548728
 20
23.4503437167
 30
0.0
 10
57.7982910489
 20
22.7104608282
 30
0.0
 10
57.5191167387
 20
21.6230863171
 30
0.0
 10
57.0633807391
 20
20.5709243317
 30
0.0
 10
56.5495471687
 20
19.7414314731
 30
0.0
 10
56.0644669671
 20
19.1066619331
 30
0.0
 10
55.518989847
 20
18.4783466497
 30
0.0
 10
54.7430437099
 20
17.7315716559
 30
0.0
 10
53.6884886412
 20
16.9125453403
 30
0.0
 10
52.9201517027
 20
16.424836088
 30
0.0
 10
52.5180075015
 20
16.1926594111
 30
0.0
  0
SPLINE
  5
2F5
100
AcDbEntity
  8
00_COMPONENTS
100
AcDbSpline
 62
7
  6
BYLAYER
 70
0
 71
3
 72
25
 73
21
 74
0
 42
0.0000001
 43
0.0000001
 44
0.0000000001
 40
0.0
 40
0.0
 40
0.0
 40
0.0
 40
0.0621401858
 40
0.1277643314
 40
0.1963050901
 40
0.2670026905
 40
0.3389639368
 40
0.4112232314
 40
0.4827979806
 40
0.5527443947
 40
0.6202146638
 40
0.6845173107
 40
0.7451818832
 40
0.8020270209
 40
0.855220115
 40
0.9053016327
 40
0.9294809414
 40
0.9532260353
 40
0.9766725003
 40
1.0
 40
1.0
 40
1.0
 40
1.0
 10
52.5180075015
 20
16.1926594111
 30
0.0
 10
51.8898712339
 20
15.8300069326
 30
0.0
 10
50.5487034518
 20
15.1683483295
 30
0.0
 10
48.390655753
 20
14.3869464173
 30
0.0
 10
46.0689427225
 20
13.7994375736
 30
0.0
 10
43.6304694061
 20
13.4162096311
 30
0.0
 10
41.1247097499
 20
13.2441789713
 30
0.0
 10
38.6032185824
 20
13.2865784486
 30
0.0
 10
36.1179455855
 20
13.5426067326
 30
0.0
 10
33.7198252265
 20
14.0075114682
 30
0.0
 10
31.4573544739
 20
14.6729686863
 30
0.0
 10
29.3753953147
 20
15.5278515124
 30
0.0
 10
27.5145161109
 20
16.559232285
 30
0.0
 10
25.9111434244
 20
17.7539499009
 30
0.0
 10
24.6000623682
 20
19.0980175886
 30
0.0
 10
23.7704529538
 20
20.3464837272
 30
0.0
 10
23.3011825579
 20
21.3920841621
 30
0.0
 10
23.0485331679
 20
22.1879912793
 30
0.0
 10
22.8953693839
 20
22.9987100092
 30
0.0
 10
22.8610548755
 20
23.5452662907
 30
0.0
 10
22.8610548755
 20
23.8175478534
 30
0.0
  0
SPLINE
  5
2F6
100
AcDbEntity
  8
00_COMPONENTS
100
AcDbSpline
 62
7
  6
BYLAYER
 70
0
 71
3
 72
16
 73
12
 74
0
 42
0.0000001
 43
0.0000001
 44
0.0000000001
 40
0.0
 40
0.0
 40
0.0
 40
0.0
 40
0.1137475803
 40
0.2286251394
 40
0.3458920914
 40
0.4665831069
 40
0.5285575809
 40
0.5917378018
 40
0.721999886
 40
0.8579940927
 40
1.0
 40
1.0
 40
1.0
 40
1.0
 10
22.8610548755
 20
23.8175478534
 30
0.0
 10
22.8610548755
 20
24.1700403771
 30
0.0
 10
22.9188200658
 20
24.8798349566
 30
0.0
 10
23.1760473329
 20
25.9247002763
 30
0.0
 10
23.5965401821
 20
26.9382773188
 30
0.0
 10
24.0717786031
 20
27.7405564931
 30
0.0
 10
24.5210984942
 20
28.3562847474
 30
0.0
 10
25.0261410338
 20
28.9663034083
 30
0.0
 10
25.7453009627
 20
29.6941308166
 30
0.0
 10
26.7249433541
 20
30.4977295921
 30
0.0
 10
27.4404115596
 20
30.9800265367
 30
0.0
 10
27.8152070387
 20
31.2106412976
 30
0.0
  0
SPLINE
  5
2F7
100
AcDbEntity
  8
00_COMPONENTS
100
AcDbSpline
 62
7
  6
BYLAYER
 70
0
 71
3
 72
21
 73
17
 74
0
 42
0.0000001
 43
0.0000001
 44
0.0000000001
 40
0.0
 40
0.0
 40
0.0
 40
0.0
 40
0.0558434256
 40
0.1141901333
 40
0.1748000826
 40
0.2373765876
 40
0.3015787883
 40
0.3670296068
 40
0.4999974623
 40
0.6329657198
 40
0.6984164834
 40
0.7626198374
 40
0.8251967928
 40
0.8858042911
 40
0.9441642742
 40
1.0
 40
1.0
 40
1.0
 40
1.0
 10
29.2267347403
 20
30.494376506
 30
0.0
 10
29.5997646917
 20
30.2790012466
 30
0.0
 10
30.3819420556
 20
29.8715430802
 30
0.0
 10
31.6232528945
 20
29.3422535641
 30
0.0
 10
32.9481050644
 20
28.8855709512
 30
0.0
 10
34.3437452357
 20
28.5058288065
 30
0.0
 10
35.796965135
 20
28.206653048
 30
0.0
 10
37.8029387586
 20
27.9175696381
 30
0.0
 10
40.3608950504
 20
27.7739950071
 30
0.0
 10
42.9188545404
 20
27.9175208209
 30
0.0
 10
44.9248423259
 20
28.2065933935
 30
0.0
 10
46.3780708548
 20
28.5057822295
 30
0.0
 10
47.7737217234
 20
28.8854564248
 30
0.0
 10
49.098665486
 20
29.3421491142
 30
0.0
 10
50.339973474
 20
29.8715017832
 30
0.0
 10
51.1222227999
 20
30.2789128655
 30
0.0
 10
51.4952046092
 20
30.4942527281
 30
0.0
  0
SPLINE
  5
2F8
100
AcDbEntity
  8
00_COMPONENTS
100
AcDbSpline
 62
7
  6
BYLAYER
 70
0
 71
3
 72
15
 73
11
 74
0
 42
0.0000001
 43
0.0000001
 44
0.0000000001
 40
0.0
 40
0.0
 40
0.0
 40
0.0
 40
0.1080127016
 40
0.2180619985
 40
0.3319992555
 40
0.4513571949
 40
0.5772776565
 40
0.7104996553
 40
0.8513939294
 40
1.0
 40
1.0
 40
1.0
 40
1.0
 10
24.361066335
 20
37.1298032645
 30
0.0
 10
24.3610799981
 20
36.8269107678
 30
0.0
 10
24.4136438345
 20
36.214182537
 30
0.0
 10
24.6484625528
 20
35.3091762693
 30
0.0
 10
25.0359674504
 20
34.42364846
 30
0.0
 10
25.5713453692
 20
33.5665872043
 30
0.0
 10
26.2485698565
 20
32.7457709571
 30
0.0
 10
27.0606092687
 20
31.9684661222
 30
0.0
 10
27.9994536544
 20
31.2416914283
 30
0.0
 10
28.6862261839
 20
30.8064399181
 30
0.0
 10
29.0471186121
 20
30.5980726303
 30
0.0
  0
SPLINE
  5
2F9
100
AcDbEntity
  8
00_COMPONENTS
100
AcDbSpline
 62
7
  6
BYLAYER
 70
0
 71
3
 72
9
 73
5
 74
0
 42
0.0000001
 43
0.0000001
 44
0.0000000001
 40
0.0
 40
0.0
 40
0.0
 40
0.0
 40
0.4954212542
 40
1.0
 40
1.0
 40
1.0
 40
1.0
 10
20.517330031
 20
50.0503008148
 30
0.0
 10
20.517330064
 20
50.4221090192
 30
0.0
 10
20.5811477735
 20
51.1739170169
 30
0.0
 10
20.7687052722
 20
51.9043700924
 30
0.0
 10
20.8908782922
 20
52.2628012607
 30
0.0
  0
SPLINE
  5
2FA
100
AcDbEntity
  8
00_COMPONENTS
100
AcDbSpline
 62
7
  6
BYLAYER
 70
0
 71
3
 72
18
 73
14
 74
0
 42
0.0000001
 43
0.0000001
 44
0.0000000001
 40
0.0
 40
0.0
 40
0.0
 40
0.0
 40
0.1081501124
 40
0.1656570813
 40
0.2252138784
 40
0.2866072511
 40
0.3495906998
 40
0.4791679228
 40
0.6115762966
 40
0.7442241896
 40
0.8744994143
 40
0.9380095594
 40
1.0
 40
1.0
 40
1.0
 40
1.0
 10
25.0948344271
 20
41.4867685212
 30
0.0
 10
25.8561251746
 20
40.9575071144
 30
0.0
 10
27.092853319
 20
40.2451531619
 30
0.0
 10
28.8550070887
 20
39.4544574111
 30
0.0
 10
30.289153194
 20
38.9183170348
 30
0.0
 10
31.7974757904
 20
38.4553769953
 30
0.0
 10
33.9126486952
 20
37.9353135006
 30
0.0
 10
36.6688590223
 20
37.4922453764
 30
0.0
 10
40.0517943029
 20
37.2945539069
 30
0.0
 10
43.4436781847
 20
37.4316052026
 30
0.0
 10
46.220070827
 20
37.8247260018
 30
0.0
 10
48.3603108805
 20
38.3059923971
 30
0.0
 10
49.3959827225
 20
38.6002424065
 30
0.0
 10
49.9026494427
 20
38.7606581762
 30
0.0
  0
SPLINE
  5
2FB
100
AcDbEntity
  8
00_COMPONENTS
100
AcDbSpline
 62
7
  6
BYLAYER
 70
0
 71
3
 72
11
 73
7
 74
0
 42
0.0000001
 43
0.0000001
 44
0.0000000001
 40
0.0
 40
0.0
 40
0.0
 40
0.0
 40
0.2469662209
 40
0.4999997858
 40
0.7530334597
 40
1.0
 40
1.0
 40
1.0
 40
1.0
 10
46.3203547756
 20
32.997273733
 30
0.0
 10
45.3570600328
 20
32.7740524426
 30
0.0
 10
43.377453314
 20
32.441915666
 30
0.0
 10
40.3611087816
 20
32.2773415051
 30
0.0
 10
37.3447623362
 20
32.4419040007
 30
0.0
 10
35.3651525951
 20
32.7740329832
 30
0.0
 10
34.4018556439
 20
32.9972504076
 30
0.0
  0
SPLINE
  5
2FC
100
AcDbEntity
  8
00_COMPONENTS
100
AcDbSpline
 62
7
  6
BYLAYER
 70
0
 71
3
 72
24
 73
20
 74
0
 42
0.0000001
 43
0.0000001
 44
0.0000000001
 40
0.0
 40
0.0
 40
0.0
 40
0.0
 40
0.0682890496
 40
0.1387354874
 40
0.2106664215
 40
0.2833855088
 40
0.3561591168
 40
0.4282574335
 40
0.498968047
 40
0.5676239179
 40
0.6336264002
 40
0.6964726539
 40
0.7557864244
 40
0.8113539518
 40
0.8631658156
 40
0.9114626728
 40
0.9567762343
 40
0.9785916474
 40
1.0
 40
1.0
 40
1.0
 40
1.0
 10
49.9026494427
 20
40.0050078599
 30
0.0
 10
49.1754404582
 20
39.7747661955
 30
0.0
 10
47.6775101538
 20
39.3698953831
 30
0.0
 10
45.3629786651
 20
38.933870652
 30
0.0
 10
42.9733554041
 20
38.6643880234
 30
0.0
 10
40.5447233237
 20
38.5654002476
 30
0.0
 10
38.1132931025
 20
38.6384691315
 30
0.0
 10
35.7155280944
 20
38.8824500293
 30
0.0
 10
33.387298794
 20
39.2937310065
 30
0.0
 10
31.163406592
 20
39.866182547
 30
0.0
 10
29.0769859542
 20
40.5913297731
 30
0.0
 10
27.1590136191
 20
41.4585430331
 30
0.0
 10
25.4378616317
 20
42.4553366712
 30
0.0
 10
23.9389947812
 20
43.5676309755
 30
0.0
 10
22.6848196992
 20
44.7803731792
 30
0.0
 10
21.6950608369
 20
46.0768701658
 30
0.0
 10
21.0972330793
 20
47.2283831129
 30
0.0
 10
20.775151195
 20
48.1648747342
 30
0.0
 10
20.6648561354
 20
48.6359835939
 30
0.0
 10
20.62266877
 20
48.8713636348
 30
0.0
  0
SPLINE
  5
2FD
100
AcDbEntity
  8
00_COMPONENTS
100
AcDbSpline
 62
7
  6
BYLAYER
 70
0
 71
3
 72
15
 73
11
 74
0
 42
0.0000001
 43
0.0000001
 44
0.0000000001
 40
0.0
 40
0.0
 40
0.0
 40
0.0
 40
0.1053412388
 40
0.2131502265
 40
0.3256208191
 40
0.444483916
 40
0.5709258713
 40
0.7056025061
 40
0.8486997172
 40
1.0
 40
1.0
 40
1.0
 40
1.0
 10
27.8610606077
 20
24.6748753924
 30
0.0
 10
27.8610599853
 20
24.4102035355
 30
0.0
 10
27.9127368784
 20
23.8733296021
 30
0.0
 10
28.1426836784
 20
23.0837267691
 30
0.0
 10
28.5210304444
 20
22.3157858862
 30
0.0
 10
29.0417770249
 20
21.5790514856
 30
0.0
 10
29.69764961
 20
20.8815633008
 30
0.0
 10
30.4803738242
 20
20.23090125
 30
0.0
 10
31.3804491284
 20
19.6342887129
 30
0.0
 10
32.0344687268
 20
19.2862108777
 30
0.0
 10
32.3772784274
 20
19.1219196812
 30
0.0
  0
SPLINE
  5
2FE
100
AcDbEntity
  8
00_COMPONENTS
100
AcDbSpline
 62
7
  6
BYLAYER
 70
0
 71
3
 72
21
 73
17
 74
0
 42
0.0000001
 43
0.0000001
 44
0.0000000001
 40
0.0
 40
0.0
 40
0.0
 40
0.0
 40
0.0560927741
 40
0.1146057208
 40
0.1753012261
 40
0.2378888727
 40
0.3020381211
 40
0.3673851056
 40
0.5000565
 40
0.6327196469
 40
0.6980561168
 40
0.7621919871
 40
0.8247620708
 40
0.8854327451
 40
0.9439327628
 40
1.0
 40
1.0
 40
1.0
 40
1.0
 10
29.2247767519
 20
30.4970833243
 30
0.0
 10
29.6019772641
 20
30.2859780182
 30
0.0
 10
30.3909998951
 20
29.8868153622
 30
0.0
 10
31.6396064887
 20
29.3683482492
 30
0.0
 10
32.9684689861
 20
28.921431762
 30
0.0
 10
34.3652634723
 20
28.5501140249
 30
0.0
 10
35.8172670452
 20
28.2578132326
 30
0.0
 10
37.8187340488
 20
27.9757149121
 30
0.0
 10
40.3688030767
 20
27.836007155
 30
0.0
 10
42.9187176344
 20
27.977114246
 30
0.0
 10
44.9197722563
 20
28.2603698709
 30
0.0
 10
46.3712820629
 20
28.5535010009
 30
0.0
 10
47.7674361031
 20
28.9255570351
 30
0.0
 10
49.0955904984
 20
29.373247221
 30
0.0
 10
50.3433593709
 20
29.8924626632
 30
0.0
 10
51.1318037714
 20
30.292111374
 30
0.0
 10
51.508664745
 20
30.5034201407
 30
0.0
  0
SPLINE
  5
2FF
100
AcDbEntity
  8
00_COMPONENTS
100
AcDbSpline
 62
7
  6
BYLAYER
 70
0
 71
3
 72
23
 73
19
 74
0
 42
0.0000001
 43
0.0000001
 44
0.0000000001
 40
0.0
 40
0.0
 40
0.0
 40
0.0
 40
0.0720580946
 40
0.1404154102
 40
0.2051961623
 40
0.2666797883
 40
0.3253189735
 40
0.3817377003
 40
0.4367174323
 40
0.4911531167
 40
0.5459848296
 40
0.6021184407
 40
0.6603578601
 40
0.7213566006
 40
0.7855871619
 40
0.853361046
 40
0.9248485652
 40
1.0
 40
1.0
 40
1.0
 40
1.0
 10
52.8686848744
 20
30.8435613539
 30
0.0
 10
53.1924244661
 20
30.624759674
 30
0.0
 10
53.8055719488
 20
30.1711931824
 30
0.0
 10
54.6333522921
 20
29.4248476233
 30
0.0
 10
55.3381055659
 20
28.6362029181
 30
0.0
 10
55.9132668964
 20
27.8116515503
 30
0.0
 10
56.3533991576
 20
26.9580169903
 30
0.0
 10
56.6537161577
 20
26.0825334774
 30
0.0
 10
56.8106770752
 20
25.1932156372
 30
0.0
 10
56.8223193783
 20
24.2987049738
 30
0.0
 10
56.688328644
 20
23.4079737253
 30
0.0
 10
56.4106220313
 20
22.5297407957
 30
0.0
 10
55.9924821484
 20
21.672092704
 30
0.0
 10
55.4383754413
 20
20.8425019694
 30
0.0
 10
54.7539117311
 20
20.0476869632
 30
0.0
 10
53.9451239095
 20
19.2940863364
 30
0.0
 10
53.0193240018
 20
18.5880377963
 30
0.0
 10
52.3459320624
 20
18.1630734961
 30
0.0
 10
51.9930098536
 20
17.9593149801
 30
0.0
  0
SPLINE
  5
300
100
AcDbEntity
  8
00_COMPONENTS
100
AcDbSpline
 62
7
  6
BYLAYER
 70
0
 71
3
 72
16
 73
12
 74
0
 42
0.0000001
 43
0.0000001
 44
0.0000000001
 40
0.0
 40
0.0
 40
0.0
 40
0.0
 40
0.1485639399
 40
0.2894912678
 40
0.4226997501
 40
0.4865559627
 40
0.5486672608
 40
0.66802124
 40
0.7819504899
 40
0.8919920605
 40
1.0
 40
1.0
 40
1.0
 40
1.0
 10
49.1999264385
 20
19.571865961
 30
0.0
 10
49.4818203909
 20
19.7346165388
 30
0.0
 10
50.0183697299
 20
20.0747320291
 30
0.0
 10
50.7518822461
 20
20.642417714
 30
0.0
 10
51.2880726668
 20
21.1556681893
 30
0.0
 10
51.6618092663
 20
21.5836343753
 30
0.0
 10
51.9896676655
 20
22.0099119682
 30
0.0
 10
52.3337783754
 20
22.5606522425
 30
0.0
 10
52.6365150626
 20
23.2524586288
 30
0.0
 10
52.819919266
 20
23.9595301362
 30
0.0
 10
52.8610485842
 20
24.4382307092
 30
0.0
 10
52.8610491406
 20
24.6748753925
 30
0.0
  0
SPLINE
  5
301
100
AcDbEntity
  8
00_COMPONENTS
100
AcDbSpline
 62
7
  6
BYLAYER
 70
0
 71
3
 72
13
 73
9
 74
0
 42
0.0000001
 43
0.0000001
 44
0.0000000001
 40
0.0
 40
0.0
 40
0.0
 40
0.0
 40
0.1164835479
 40
0.2338774988
 40
0.3530497844
 40
0.4748021228
 40
0.7286071465
 40
1.0
 40
1.0
 40
1.0
 40
1.0
 10
60.2047797173
 20
50.0503008122
 30
0.0
 10
60.2047796961
 20
49.8106636487
 30
0.0
 10
60.1785626594
 20
49.3291081924
 30
0.0
 10
60.0607218975
 20
48.6110848238
 30
0.0
 10
59.8650622993
 20
47.8989540836
 30
0.0
 10
59.4966550227
 20
46.9485442353
 30
0.0
 10
58.8345954024
 20
45.7846921134
 30
0.0
 10
58.1448533223
 20
44.9464398216
 30
0.0
 10
57.7603408337
 20
44.5416210198
 30
0.0
  0
SPLINE
  5
302
100
AcDbEntity
  8
0
100
AcDbSpline
 62
7
  6
BYLAYER
 70
0
 71
3
 72
9
 73
5
 74
0
 42
0.0000001
 43
0.0000001
 44
0.0000000001
 40
0.0
 40
0.0
 40
0.0
 40
0.0
 40
0.2532689644
 40
1.0
 40
1.0
 40
1.0
 40
1.0
 10
18.8058089324
 20
85.2545519989
 30
0.0
 10
18.8380647397
 20
85.2689952859
 30
0.0
 10
18.9666428052
 20
85.3232439334
 30
0.0
 10
19.1000233733
 20
85.3662219584
 30
0.0
 10
19.2012177566
 20
85.391071907
 30
0.0
  0
SPLINE
  5
303
100
AcDbEntity
  8
0
100
AcDbSpline
 62
7
  6
BYLAYER
 70
0
 71
3
 72
13
 73
9
 74
0
 42
0.0000001
 43
0.0000001
 44
0.0000000001
 40
0.0
 40
0.0
 40
0.0
 40
0.0
 40
0.1168131512
 40
0.2372041214
 40
0.4865672167
 40
0.6147004142
 40
0.7437198984
 40
1.0
 40
1.0
 40
1.0
 40
1.0
 10
17.2010521885
 20
81.9264448131
 30
0.0
 10
17.1682275218
 20
82.0393299881
 30
0.0
 10
17.1199005933
 20
82.2742901403
 30
0.0
 10
17.093167611
 20
82.7645576647
 30
0.0
 10
17.1725880662
 20
83.2665772803
 30
0.0
 10
17.3466622433
 20
83.7467796432
 30
0.0
 10
17.5824940444
 20
84.2076498699
 30
0.0
 10
17.8234910897
 20
84.5183534601
 30
0.0
 10
18.0066581186
 20
84.6999372447
 30
0.0
  0
SPLINE
  5
304
100
AcDbEntity
  8
0
100
AcDbSpline
 62
7
  6
BYLAYER
 70
0
 71
3
 72
9
 73
5
 74
0
 42
0.0000001
 43
0.0000001
 44
0.0000000001
 40
0.0
 40
0.0
 40
0.0
 40
0.0
 40
0.2536608796
 40
1.0
 40
1.0
 40
1.0
 40
1.0
 10
18.4638562151
 20
84.4359662535
 30
0.0
 10
18.5042074628
 20
84.4759687164
 30
0.0
 10
18.6677813368
 20
84.629040861
 30
0.0
 10
18.8493196446
 20
84.763117765
 30
0.0
 10
18.9926217433
 20
84.8492154666
 30
0.0
  0
SPLINE
  5
305
100
AcDbEntity
  8
0
100
AcDbSpline
 62
7
  6
BYLAYER
 70
0
 71
3
 72
12
 73
8
 74
0
 42
0.0000001
 43
0.0000001
 44
0.0000000001
 40
0.0
 40
0.0
 40
0.0
 40
0.0
 40
0.1081620034
 40
0.2183717769
 40
0.4513384358
 40
0.7104781591
 40
1.0
 40
1.0
 40
1.0
 40
1.0
 10
27.7684705467
 20
91.1060833024
 30
0.0
 10
27.7684645207
 20
91.0717024422
 30
0.0
 10
27.7744529851
 20
91.0021448816
 30
0.0
 10
27.8106044313
 20
90.8627215648
 30
0.0
 10
27.9033171758
 20
90.6917036044
 30
0.0
 10
28.076106591
 20
90.5102958274
 30
0.0
 10
28.2206888668
 20
90.4106846675
 30
0.0
 10
28.300388522
 20
90.3646710911
 30
0.0
  0
SPLINE
  5
306
100
AcDbEntity
  8
0
100
AcDbSpline
 62
7
  6
BYLAYER
 70
0
 71
3
 72
15
 73
11
 74
0
 42
0.0000001
 43
0.0000001
 44
0.0000000001
 40
0.0
 40
0.0
 40
0.0
 40
0.0
 40
0.1139977135
 40
0.2370741808
 40
0.366688155
 40
0.49973363
 40
0.6328237806
 40
0.7625300249
 40
0.8858279087
 40
1.0
 40
1.0
 40
1.0
 40
1.0
 10
50.5047501071
 20
90.6165410068
 30
0.0
 10
50.5710666005
 20
90.6551310502
 30
0.0
 10
50.7162309989
 20
90.7232228496
 30
0.0
 10
50.9528375787
 20
90.7956782868
 30
0.0
 10
51.2092175859
 20
90.8404221103
 30
0.0
 10
51.4757091747
 20
90.8557333735
 30
0.0
 10
51.7422934749
 20
90.8410174018
 30
0.0
 10
51.9990254533
 20
90.7968890475
 30
0.0
 10
52.2361199802
 20
90.7249136316
 30
0.0
 10
52.3817381672
 20
90.6571778281
 30
0.0
 10
52.4482879217
 20
90.6187561787
 30
0.0
  0
SPLINE
  5
307
100
AcDbEntity
  8
0
100
AcDbSpline
 62
7
  6
BYLAYER
 70
0
 71
3
 72
11
 73
7
 74
0
 42
0.0000001
 43
0.0000001
 44
0.0000000001
 40
0.0
 40
0.0
 40
0.0
 40
0.0
 40
0.2177822878
 40
0.4509146108
 40
0.7103059136
 40
1.0
 40
1.0
 40
1.0
 40
1.0
 10
50.1068306041
 20
91.0957665826
 30
0.0
 10
50.1068377382
 20
91.0435243016
 30
0.0
 10
50.1261326869
 20
90.9346335203
 30
0.0
 10
50.208687883
 20
90.7829132554
 30
0.0
 10
50.3391879833
 20
90.6457697825
 30
0.0
 10
50.4483778882
 20
90.5705646478
 30
0.0
 10
50.5085606754
 20
90.5358188855
 30
0.0
  0
SPLINE
  5
308
100
AcDbEntity
  8
0
100
AcDbSpline
 62
7
  6
BYLAYER
 70
0
 71
3
 72
16
 73
12
 74
0
 42
0.0000001
 43
0.0000001
 44
0.0000000001
 40
0.0
 40
0.0
 40
0.0
 40
0.0
 40
0.046256488
 40
0.0932590972
 40
0.1916054302
 40
0.2992543235
 40
0.4183524301
 40
0.5493235232
 40
0.6912582257
 40
0.8423428303
 40
1.0
 40
1.0
 40
1.0
 40
1.0
 10
15.3936675821
 20
81.5695855299
 30
0.0
 10
15.4390736346
 20
81.5433713916
 30
0.0
 10
15.5348095527
 20
81.4974380638
 30
0.0
 10
15.7429910436
 20
81.4332525621
 30
0.0
 10
16.0326307264
 20
81.4098567716
 30
0.0
 10
16.3989316727
 20
81.4707195227
 30
0.0
 10
16.7800719005
 20
81.6152784188
 30
0.0
 10
17.1659916431
 20
81.8386837941
 30
0.0
 10
17.5465394566
 20
82.134259741
 30
0.0
 10
17.9110308525
 20
82.4935963971
 30
0.0
 10
18.1332605179
 20
82.7648571517
 30
0.0
 10
18.2395705941
 20
82.9084926595
 30
0.0
  0
SPLINE
  5
309
100
AcDbEntity
  8
0
100
AcDbSpline
 62
7
  6
BYLAYER
 70
0
 71
3
 72
16
 73
12
 74
0
 42
0.0000001
 43
0.0000001
 44
0.0000000001
 40
0.0
 40
0.0
 40
0.0
 40
0.0
 40
0.157657989
 40
0.3087429361
 40
0.4506775583
 40
0.5816482489
 40
0.7007457888
 40
0.808394181
 40
0.9067403747
 40
0.953743151
 40
1.0
 40
1.0
 40
1.0
 40
1.0
 10
18.8702202568
 20
84.0008159807
 30
0.0
 10
18.9414560191
 20
84.1647005332
 30
0.0
 10
19.0652573278
 20
84.4927860648
 30
0.0
 10
19.1942019664
 20
84.9881103076
 30
0.0
 10
19.2598994021
 20
85.4654580301
 30
0.0
 10
19.2604088386
 20
85.9113714267
 30
0.0
 10
19.1950245642
 20
86.3137213199
 30
0.0
 10
19.0645765436
 20
86.6613710176
 30
0.0
 10
18.8994900223
 20
86.9005007587
 30
0.0
 10
18.7398092643
 20
87.0486918891
 30
0.0
 10
18.6521601544
 20
87.1086316237
 30
0.0
 10
18.6067542046
 20
87.1348457027
 30
0.0
  0
SPLINE
  5
30A
100
AcDbEntity
  8
0
100
AcDbSpline
 62
7
  6
BYLAYER
 70
0
 71
3
 72
20
 73
16
 74
0
 42
0.0000001
 43
0.0000001
 44
0.0000000001
 40
0.0
 40
0.0
 40
0.0
 40
0.0
 40
0.0623921369
 40
0.1288107638
 40
0.2703049945
 40
0.4173669803
 40
0.5616187136
 40
0.6302551767
 40
0.6953819904
 40
0.7563644167
 40
0.812833572
 40
0.8647660381
 40
0.912567381
 40
0.9571680124
 40
1.0
 40
1.0
 40
1.0
 40
1.0
 10
28.300388522
 20
90.3646710911
 30
0.0
 10
28.3656083387
 20
90.3270172642
 30
0.0
 10
28.5054730396
 20
90.2580955666
 30
0.0
 10
28.8126683437
 20
90.1467491405
 30
0.0
 10
29.2354931201
 20
90.0622013077
 30
0.0
 10
29.7598715977
 20
90.047726123
 30
0.0
 10
30.1926377763
 20
90.1084096772
 30
0.0
 10
30.5155360698
 20
90.2014580077
 30
0.0
 10
30.7340121892
 20
90.2894589261
 30
0.0
 10
30.9280894904
 20
90.3950284932
 30
0.0
 10
31.0937277961
 20
90.5160720543
 30
0.0
 10
31.2274258654
 20
90.6502942946
 30
0.0
 10
31.326022714
 20
90.7953831102
 30
0.0
 10
31.3868377603
 20
90.9483983453
 30
0.0
 10
31.4006399935
 20
91.0543839735
 30
0.0
 10
31.4006490549
 20
91.1060832954
 30
0.0
  0
SPLINE
  5
30B
100
AcDbEntity
  8
0
100
AcDbSpline
 62
7
  6
BYLAYER
 70
0
 71
3
 72
13
 73
9
 74
0
 42
0.0000001
 43
0.0000001
 44
0.0000000001
 40
0.0
 40
0.0
 40
0.0
 40
0.0
 40
0.1168131512
 40
0.2372041214
 40
0.4865672167
 40
0.6147004142
 40
0.7437198984
 40
1.0
 40
1.0
 40
1.0
 40
1.0
 10
14.4451636624
 20
73.1055941107
 30
0.0
 10
14.4123389957
 20
73.2184792856
 30
0.0
 10
14.3640120673
 20
73.4534394378
 30
0.0
 10
14.3372790849
 20
73.9437069623
 30
0.0
 10
14.4166995401
 20
74.4457265778
 30
0.0
 10
14.5907737172
 20
74.9259289408
 30
0.0
 10
14.8266055183
 20
75.3867991674
 30
0.0
 10
15.0676025637
 20
75.6975027576
 30
0.0
 10
15.2507695925
 20
75.8790865423
 30
0.0
  0
SPLINE
  5
30C
100
AcDbEntity
  8
0
100
AcDbSpline
 62
7
  6
BYLAYER
 70
0
 71
3
 72
9
 73
5
 74
0
 42
0.0000001
 43
0.0000001
 44
0.0000000001
 40
0.0
 40
0.0
 40
0.0
 40
0.0
 40
0.2536608796
 40
1.0
 40
1.0
 40
1.0
 40
1.0
 10
15.707967689
 20
75.615115551
 30
0.0
 10
15.7483189368
 20
75.6551180139
 30
0.0
 10
15.9118928107
 20
75.8081901585
 30
0.0
 10
16.0934311185
 20
75.9422670625
 30
0.0
 10
16.2367332172
 20
76.0283647642
 30
0.0
  0
SPLINE
  5
30D
100
AcDbEntity
  8
0
100
AcDbSpline
 62
7
  6
BYLAYER
 70
0
 71
3
 72
9
 73
5
 74
0
 42
0.0000001
 43
0.0000001
 44
0.0000000001
 40
0.0
 40
0.0
 40
0.0
 40
0.0
 40
0.2532689644
 40
1.0
 40
1.0
 40
1.0
 40
1.0
 10
16.0499204064
 20
76.4337012964
 30
0.0
 10
16.0821762137
 20
76.4481445834
 30
0.0
 10
16.2107542791
 20
76.502393231
 30
0.0
 10
16.3441348473
 20
76.5453712559
 30
0.0
 10
16.4453292305
 20
76.5702212045
 30
0.0
  0
SPLINE
  5
30E
100
AcDbEntity
  8
0
100
AcDbSpline
 62
7
  6
BYLAYER
 70
0
 71
3
 72
15
 73
11
 74
0
 42
0.0000001
 43
0.0000001
 44
0.0000000001
 40
0.0
 40
0.0
 40
0.0
 40
0.0
 40
0.1141549974
 40
0.2373268943
 40
0.3669765742
 40
0.5000005394
 40
0.633024429
 40
0.7626738905
 40
0.8858454396
 40
1.0
 40
1.0
 40
1.0
 40
1.0
 10
49.1435674281
 20
88.7107863011
 30
0.0
 10
49.3034085656
 20
88.618504065
 30
0.0
 10
49.6529294798
 20
88.4557482036
 30
0.0
 10
50.2221031207
 20
88.2827569455
 30
0.0
 10
50.8383215849
 20
88.176275436
 30
0.0
 10
51.4784380402
 20
88.140350962
 30
0.0
 10
52.1185539725
 20
88.1762784899
 30
0.0
 10
52.734770883
 20
88.2827629393
 30
0.0
 10
53.3039420202
 20
88.4557568947
 30
0.0
 10
53.6534607509
 20
88.6185144904
 30
0.0
 10
53.813300611
 20
88.7107975258
 30
0.0
  0
SPLINE
  5
30F
100
AcDbEntity
  8
0
100
AcDbSpline
 62
7
  6
BYLAYER
 70
0
 71
3
 72
18
 73
14
 74
0
 42
0.0000001
 43
0.0000001
 44
0.0000000001
 40
0.0
 40
0.0
 40
0.0
 40
0.0
 40
0.1286589586
 40
0.2702085684
 40
0.4173284212
 40
0.5616320941
 40
0.6952663345
 40
0.7562718603
 40
0.8127631831
 40
0.8647118098
 40
0.9125345827
 40
0.9571501866
 40
1.0
 40
1.0
 40
1.0
 40
1.0
 10
50.5085606754
 20
90.5358188855
 30
0.0
 10
50.6100948308
 20
90.4771994397
 30
0.0
 10
50.8399805264
 20
90.3823486295
 30
0.0
 10
51.2146321669
 20
90.3073993224
 30
0.0
 10
51.6109643607
 20
90.2964457937
 30
0.0
 10
51.996285555
 20
90.3505556222
 30
0.0
 10
52.2915795137
 20
90.4491870043
 30
0.0
 10
52.4931138308
 20
90.5587358692
 30
0.0
 10
52.6182176988
 20
90.6501580825
 30
0.0
 10
52.7191638828
 20
90.7515478727
 30
0.0
 10
52.7936771876
 20
90.8610957832
 30
0.0
 10
52.8395508389
 20
90.9766814572
 30
0.0
 10
52.8500233253
 20
91.0567195244
 30
0.0
 10
52.8500179931
 20
91.0957665513
 30
0.0
  0
SPLINE
  5
310
100
AcDbEntity
  8
0
100
AcDbSpline
 62
7
  6
BYLAYER
 70
0
 71
3
 72
20
 73
16
 74
0
 42
0.0000001
 43
0.0000001
 44
0.0000000001
 40
0.0
 40
0.0
 40
0.0
 40
0.0
 40
0.0623999611
 40
0.1288084649
 40
0.2703021167
 40
0.4173611603
 40
0.5616145129
 40
0.6302539381
 40
0.6953795538
 40
0.7563638308
 40
0.8128354907
 40
0.8647654621
 40
0.9125686741
 40
0.9571693266
 40
1.0
 40
1.0
 40
1.0
 40
1.0
 10
33.3922183068
 20
86.9583491167
 30
0.0
 10
33.4779727527
 20
86.9088398843
 30
0.0
 10
33.6618409376
 20
86.8182157386
 30
0.0
 10
34.0657151172
 20
86.67186431
 30
0.0
 10
34.6215663171
 20
86.5606876943
 30
0.0
 10
35.3109632354
 20
86.5416475077
 30
0.0
 10
35.8799079721
 20
86.6214632855
 30
0.0
 10
36.3044391893
 20
86.7437451914
 30
0.0
 10
36.5916561653
 20
86.8594832474
 30
0.0
 10
36.8468203053
 20
86.9982534669
 30
0.0
 10
37.0646013614
 20
87.157376817
 30
0.0
 10
37.2403309365
 20
87.333876676
 30
0.0
 10
37.3700068617
 20
87.5245879507
 30
0.0
 10
37.4499221862
 20
87.7257729345
 30
0.0
 10
37.4680801805
 20
87.8651064789
 30
0.0
 10
37.4680818632
 20
87.9330728591
 30
0.0
  0
SPLINE
  5
311
100
AcDbEntity
  8
0
100
AcDbSpline
 62
7
  6
BYLAYER
 70
0
 71
3
 72
15
 73
11
 74
0
 42
0.0000001
 43
0.0000001
 44
0.0000000001
 40
0.0
 40
0.0
 40
0.0
 40
0.0
 40
0.1141549974
 40
0.2373268943
 40
0.3669765742
 40
0.5000005394
 40
0.633024429
 40
0.7626738905
 40
0.8858454396
 40
1.0
 40
1.0
 40
1.0
 40
1.0
 10
49.1435674281
 20
73.2808502232
 30
0.0
 10
49.3034085656
 20
73.1885679871
 30
0.0
 10
49.6529294798
 20
73.0258121256
 30
0.0
 10
50.2221031207
 20
72.8528208675
 30
0.0
 10
50.8383215849
 20
72.7463393581
 30
0.0
 10
51.4784380402
 20
72.7104148841
 30
0.0
 10
52.1185539725
 20
72.7463424119
 30
0.0
 10
52.734770883
 20
72.8528268613
 30
0.0
 10
53.3039420202
 20
73.0258208167
 30
0.0
 10
53.6534607509
 20
73.1885784124
 30
0.0
 10
53.813300611
 20
73.2808614478
 30
0.0
  0
SPLINE
  5
312
100
AcDbEntity
  8
0
100
AcDbSpline
 62
7
  6
BYLAYER
 70
0
 71
3
 72
15
 73
11
 74
0
 42
0.0000001
 43
0.0000001
 44
0.0000000001
 40
0.0
 40
0.0
 40
0.0
 40
0.0
 40
0.1141545727
 40
0.2373261359
 40
0.366975604
 40
0.4999994966
 40
0.6330234588
 40
0.7626731321
 40
0.8858450149
 40
1.0
 40
1.0
 40
1.0
 40
1.0
 10
27.25875486
 20
59.7020446056
 30
0.0
 10
27.4192095061
 20
59.7946825857
 30
0.0
 10
27.7700725819
 20
59.9580661837
 30
0.0
 10
28.3414328925
 20
60.1317255088
 30
0.0
 10
28.9600199099
 20
60.2386194997
 30
0.0
 10
29.602597838
 20
60.2746851946
 30
0.0
 10
30.2451762683
 20
60.2386225337
 30
0.0
 10
30.8637647616
 20
60.1317314659
 30
0.0
 10
31.4351274782
 20
59.9580748652
 30
0.0
 10
31.7859926613
 20
59.7946930312
 30
0.0
 10
31.9464485551
 20
59.7020558734
 30
0.0
  0
SPLINE
  5
313
100
AcDbEntity
  8
0
100
AcDbSpline
 62
7
  6
BYLAYER
 70
0
 71
3
 72
16
 73
12
 74
0
 42
0.0000001
 43
0.0000001
 44
0.0000000001
 40
0.0
 40
0.0
 40
0.0
 40
0.0
 40
0.157657989
 40
0.3087429361
 40
0.4506775583
 40
0.5816482489
 40
0.7007457888
 40
0.808394181
 40
0.9067403747
 40
0.953743151
 40
1.0
 40
1.0
 40
1.0
 40
1.0
 10
16.1143317307
 20
75.1799652782
 30
0.0
 10
16.185567493
 20
75.3438498307
 30
0.0
 10
16.3093688017
 20
75.6719353623
 30
0.0
 10
16.4383134403
 20
76.1672596052
 30
0.0
 10
16.504010876
 20
76.6446073276
 30
0.0
 10
16.5045203126
 20
77.0905207243
 30
0.0
 10
16.4391360381
 20
77.4928706174
 30
0.0
 10
16.3086880176
 20
77.8405203151
 30
0.0
 10
16.1436014962
 20
78.0796500562
 30
0.0
 10
15.9839207382
 20
78.2278411867
 30
0.0
 10
15.8962716283
 20
78.2877809213
 30
0.0
 10
15.8508656786
 20
78.3139950003
 30
0.0
  0
SPLINE
  5
314
100
AcDbEntity
  8
0
100
AcDbSpline
 62
7
  6
BYLAYER
 70
0
 71
3
 72
16
 73
12
 74
0
 42
0.0000001
 43
0.0000001
 44
0.0000000001
 40
0.0
 40
0.0
 40
0.0
 40
0.0
 40
0.046256488
 40
0.0932590972
 40
0.1916054302
 40
0.2992543235
 40
0.4183524301
 40
0.5493235232
 40
0.6912582257
 40
0.8423428303
 40
1.0
 40
1.0
 40
1.0
 40
1.0
 10
12.637779056
 20
72.7487348274
 30
0.0
 10
12.6831851085
 20
72.7225206891
 30
0.0
 10
12.7789210266
 20
72.6765873613
 30
0.0
 10
12.9871025175
 20
72.6124018596
 30
0.0
 10
13.2767422003
 20
72.5890060692
 30
0.0
 10
13.6430431467
 20
72.6498688202
 30
0.0
 10
14.0241833744
 20
72.7944277164
 30
0.0
 10
14.410103117
 20
73.0178330916
 30
0.0
 10
14.7906509305
 20
73.3134090386
 30
0.0
 10
15.1551423264
 20
73.6727456946
 30
0.0
 10
15.3773719919
 20
73.9440064493
 30
0.0
 10
15.483682068
 20
74.0876419571
 30
0.0
  0
SPLINE
  5
315
100
AcDbEntity
  8
0
100
AcDbSpline
 62
7
  6
BYLAYER
 70
0
 71
3
 72
15
 73
11
 74
0
 42
0.0000001
 43
0.0000001
 44
0.0000000001
 40
0.0
 40
0.0
 40
0.0
 40
0.0
 40
0.1543750047
 40
0.3002350984
 40
0.436789102
 40
0.5640059305
 40
0.6823778779
 40
0.793075983
 40
0.8981085522
 40
1.0
 40
1.0
 40
1.0
 40
1.0
 10
14.7883985924
 20
83.5614531052
 30
0.0
 10
14.7704967253
 20
83.4493164495
 30
0.0
 10
14.7450323286
 20
83.2295704691
 30
0.0
 10
14.7392157924
 20
82.9077743831
 30
0.0
 10
14.7670897108
 20
82.6070381447
 30
0.0
 10
14.8284064212
 20
82.3318219266
 30
0.0
 10
14.9224536155
 20
82.0860458131
 30
0.0
 10
15.0484612682
 20
81.8734520076
 30
0.0
 10
15.204890414
 20
81.6978725148
 30
0.0
 10
15.3287580872
 20
81.6070595312
 30
0.0
 10
15.3936675821
 20
81.5695855299
 30
0.0
  0
SPLINE
  5
316
100
AcDbEntity
  8
0
100
AcDbSpline
 62
7
  6
BYLAYER
 70
0
 71
3
 72
15
 73
11
 74
0
 42
0.0000001
 43
0.0000001
 44
0.0000000001
 40
0.0
 40
0.0
 40
0.0
 40
0.0
 40
0.1141545727
 40
0.2373261359
 40
0.366975604
 40
0.4999994966
 40
0.6330234588
 40
0.7626731321
 40
0.8858450149
 40
1.0
 40
1.0
 40
1.0
 40
1.0
 10
53.813300611
 20
74.3178195176
 30
0.0
 10
53.6534607336
 20
74.2255364722
 30
0.0
 10
53.3039419608
 20
74.062778865
 30
0.0
 10
52.7347707701
 20
73.8897849013
 30
0.0
 10
52.1185538179
 20
73.7833004659
 30
0.0
 10
51.4784378742
 20
73.7473729538
 30
0.0
 10
50.8383214303
 20
73.7832974436
 30
0.0
 10
50.2221030078
 20
73.889778967
 30
0.0
 10
49.6529294205
 20
74.0627702168
 30
0.0
 10
49.3034085484
 20
74.2255260668
 30
0.0
 10
49.1435674281
 20
74.3178082929
 30
0.0
  0
SPLINE
  5
317
100
AcDbEntity
  8
0
100
AcDbSpline
 62
7
  6
BYLAYER
 70
0
 71
3
 72
15
 73
11
 74
0
 42
0.0000001
 43
0.0000001
 44
0.0000000001
 40
0.0
 40
0.0
 40
0.0
 40
0.0
 40
0.1018905671
 40
0.2069228244
 40
0.3176210334
 40
0.4359933199
 40
0.5632105531
 40
0.6997648856
 40
0.8456251214
 40
1.0
 40
1.0
 40
1.0
 40
1.0
 10
18.6067542046
 20
87.1348457027
 30
0.0
 10
18.5418445014
 20
87.1723198244
 30
0.0
 10
18.4012612907
 20
87.2341812944
 30
0.0
 10
18.1709869869
 20
87.2818560692
 30
0.0
 10
17.9238684916
 20
87.2846781157
 30
0.0
 10
17.6639938583
 20
87.2432307457
 30
0.0
 10
17.3949889428
 20
87.1587182457
 30
0.0
 10
17.1206048274
 20
87.0324838372
 30
0.0
 10
16.8448280047
 20
86.8665431908
 30
0.0
 10
16.6672537494
 20
86.734614143
 30
0.0
 10
16.579091137
 20
86.6630407904
 30
0.0
  0
SPLINE
  5
318
100
AcDbEntity
  8
0
100
AcDbSpline
 62
7
  6
BYLAYER
 70
0
 71
3
 72
18
 73
14
 74
0
 42
0.0000001
 43
0.0000001
 44
0.0000000001
 40
0.0
 40
0.0
 40
0.0
 40
0.0
 40
0.1286589586
 40
0.2702085684
 40
0.4173284212
 40
0.5616320941
 40
0.6952663345
 40
0.7562718603
 40
0.8127631831
 40
0.8647118098
 40
0.9125345827
 40
0.9571501866
 40
1.0
 40
1.0
 40
1.0
 40
1.0
 10
52.4482879217
 20
91.6557142484
 30
0.0
 10
52.3467537663
 20
91.7143336942
 30
0.0
 10
52.1168680707
 20
91.8091845044
 30
0.0
 10
51.7422164302
 20
91.8841338116
 30
0.0
 10
51.3458842364
 20
91.8950873402
 30
0.0
 10
50.9605630421
 20
91.8409775117
 30
0.0
 10
50.6652690835
 20
91.7423461297
 30
0.0
 10
50.4637347663
 20
91.6327972647
 30
0.0
 10
50.3386308983
 20
91.5413750514
 30
0.0
 10
50.2376847143
 20
91.4399852612
 30
0.0
 10
50.1631714095
 20
91.3304373507
 30
0.0
 10
50.1172977582
 20
91.2148516767
 30
0.0
 10
50.1068252718
 20
91.1348136095
 30
0.0
 10
50.1068306041
 20
91.0957665826
 30
0.0
  0
SPLINE
  5
319
100
AcDbEntity
  8
0
100
AcDbSpline
 62
7
  6
BYLAYER
 70
0
 71
3
 72
15
 73
11
 74
0
 42
0.0000001
 43
0.0000001
 44
0.0000000001
 40
0.0
 40
0.0
 40
0.0
 40
0.0
 40
0.1141545727
 40
0.2373261359
 40
0.366975604
 40
0.4999994966
 40
0.6330234588
 40
0.7626731321
 40
0.8858450149
 40
1.0
 40
1.0
 40
1.0
 40
1.0
 10
53.813300611
 20
89.7477555955
 30
0.0
 10
53.6534607336
 20
89.6554725502
 30
0.0
 10
53.3039419608
 20
89.4927149429
 30
0.0
 10
52.7347707701
 20
89.3197209793
 30
0.0
 10
52.1185538179
 20
89.2132365439
 30
0.0
 10
51.4784378742
 20
89.1773090318
 30
0.0
 10
50.8383214303
 20
89.2132335215
 30
0.0
 10
50.2221030078
 20
89.319715045
 30
0.0
 10
49.6529294205
 20
89.4927062948
 30
0.0
 10
49.3034085484
 20
89.6554621447
 30
0.0
 10
49.1435674281
 20
89.7477443709
 30
0.0
  0
SPLINE
  5
31A
100
AcDbEntity
  8
0
100
AcDbSpline
 62
7
  6
BYLAYER
 70
0
 71
3
 72
20
 73
16
 74
0
 42
0.0000001
 43
0.0000001
 44
0.0000000001
 40
0.0
 40
0.0
 40
0.0
 40
0.0
 40
0.0623921369
 40
0.1288107638
 40
0.2703049945
 40
0.4173669803
 40
0.5616187136
 40
0.6302551767
 40
0.6953819904
 40
0.7563644167
 40
0.812833572
 40
0.8647660381
 40
0.912567381
 40
0.9571680124
 40
1.0
 40
1.0
 40
1.0
 40
1.0
 10
30.8687310796
 20
91.8474955068
 30
0.0
 10
30.8035112629
 20
91.8851493336
 30
0.0
 10
30.663646562
 20
91.9540710312
 30
0.0
 10
30.3564512579
 20
92.0654174573
 30
0.0
 10
29.9336264815
 20
92.1499652902
 30
0.0
 10
29.4092480039
 20
92.1644404748
 30
0.0
 10
28.9764818253
 20
92.1037569207
 30
0.0
 10
28.6535835318
 20
92.0107085901
 30
0.0
 10
28.4351074124
 20
91.9227076717
 30
0.0
 10
28.2410301112
 20
91.8171381047
 30
0.0
 10
28.0753918056
 20
91.6960945435
 30
0.0
 10
27.9416937362
 20
91.5618723032
 30
0.0
 10
27.8430968876
 20
91.4167834876
 30
0.0
 10
27.7822818413
 20
91.2637682525
 30
0.0
 10
27.7684796081
 20
91.1577826244
 30
0.0
 10
27.7684705467
 20
91.1060833024
 30
0.0
  0
SPLINE
  5
31B
100
AcDbEntity
  8
0
100
AcDbSpline
 62
7
  6
BYLAYER
 70
0
 71
3
 72
15
 73
11
 74
0
 42
0.0000001
 43
0.0000001
 44
0.0000000001
 40
0.0
 40
0.0
 40
0.0
 40
0.0
 40
0.1141549974
 40
0.2373268943
 40
0.3669765742
 40
0.5000005394
 40
0.633024429
 40
0.7626738905
 40
0.8858454396
 40
1.0
 40
1.0
 40
1.0
 40
1.0
 10
31.9464485551
 20
79.8190424266
 30
0.0
 10
31.785992644
 20
79.9116795944
 30
0.0
 10
31.4351274185
 20
80.07506144
 30
0.0
 10
30.8637646483
 20
80.248718049
 30
0.0
 10
30.2451761131
 20
80.3556091028
 30
0.0
 10
29.6025976714
 20
80.3916717478
 30
0.0
 10
28.9600197548
 20
80.3556060371
 30
0.0
 10
28.3414327792
 20
80.2487120322
 30
0.0
 10
27.7700725223
 20
80.0750527154
 30
0.0
 10
27.4192094888
 20
79.911669129
 30
0.0
 10
27.25875486
 20
79.8190311588
 30
0.0
  0
SPLINE
  5
31C
100
AcDbEntity
  8
0
100
AcDbSpline
 62
7
  6
BYLAYER
 70
0
 71
3
 72
11
 73
7
 74
0
 42
0.0000001
 43
0.0000001
 44
0.0000000001
 40
0.0
 40
0.0
 40
0.0
 40
0.0
 40
0.2177822878
 40
0.4509146108
 40
0.7103059136
 40
1.0
 40
1.0
 40
1.0
 40
1.0
 10
52.8500179931
 20
91.0957665513
 30
0.0
 10
52.8500108589
 20
91.1480088323
 30
0.0
 10
52.8307159102
 20
91.2568996136
 30
0.0
 10
52.7481607141
 20
91.4086198785
 30
0.0
 10
52.6176606138
 20
91.5457633514
 30
0.0
 10
52.5084707089
 20
91.6209684861
 30
0.0
 10
52.4482879217
 20
91.6557142484
 30
0.0
  0
SPLINE
  5
31D
100
AcDbEntity
  8
0
100
AcDbSpline
 62
7
  6
BYLAYER
 70
0
 71
3
 72
15
 73
11
 74
0
 42
0.0000001
 43
0.0000001
 44
0.0000000001
 40
0.0
 40
0.0
 40
0.0
 40
0.0
 40
0.1018905671
 40
0.2069228244
 40
0.3176210334
 40
0.4359933199
 40
0.5632105531
 40
0.6997648856
 40
0.8456251214
 40
1.0
 40
1.0
 40
1.0
 40
1.0
 10
15.8508656786
 20
78.3139950003
 30
0.0
 10
15.7859559754
 20
78.3514691219
 30
0.0
 10
15.6453727647
 20
78.413330592
 30
0.0
 10
15.4150984608
 20
78.4610053667
 30
0.0
 10
15.1679799655
 20
78.4638274132
 30
0.0
 10
14.9081053322
 20
78.4223800433
 30
0.0
 10
14.6391004168
 20
78.3378675432
 30
0.0
 10
14.3647163013
 20
78.2116331348
 30
0.0
 10
14.0889394786
 20
78.0456924883
 30
0.0
 10
13.9113652234
 20
77.9137634405
 30
0.0
 10
13.8232026109
 20
77.842190088
 30
0.0
  0
SPLINE
  5
31E
100
AcDbEntity
  8
0
100
AcDbSpline
 62
7
  6
BYLAYER
 70
0
 71
3
 72
13
 73
9
 74
0
 42
0.0000001
 43
0.0000001
 44
0.0000000001
 40
0.0
 40
0.0
 40
0.0
 40
0.0
 40
0.1080919153
 40
0.2182309334
 40
0.3322553269
 40
0.4516850958
 40
0.7106253444
 40
1.0
 40
1.0
 40
1.0
 40
1.0
 10
37.4680818632
 20
87.9330728591
 30
0.0
 10
37.4680829822
 20
87.9782717297
 30
0.0
 10
37.4602587721
 20
88.0697130507
 30
0.0
 10
37.4251775685
 20
88.2047558797
 30
0.0
 10
37.3673719675
 20
88.3369082069
 30
0.0
 10
37.2579578084
 20
88.5120700006
 30
0.0
 10
37.0636100081
 20
88.7165185937
 30
0.0
 10
36.8735725073
 20
88.8472963044
 30
0.0
 10
36.7687805503
 20
88.9077966003
 30
0.0
  0
SPLINE
  5
31F
100
AcDbEntity
  8
0
100
AcDbSpline
 62
7
  6
BYLAYER
 70
0
 71
3
 72
15
 73
11
 74
0
 42
0.0000001
 43
0.0000001
 44
0.0000000001
 40
0.0
 40
0.0
 40
0.0
 40
0.0
 40
0.1543750047
 40
0.3002350984
 40
0.436789102
 40
0.5640059305
 40
0.6823778779
 40
0.793075983
 40
0.8981085522
 40
1.0
 40
1.0
 40
1.0
 40
1.0
 10
12.0325100663
 20
74.7406024027
 30
0.0
 10
12.0146081992
 20
74.628465747
 30
0.0
 10
11.9891438025
 20
74.4087197666
 30
0.0
 10
11.9833272663
 20
74.0869236806
 30
0.0
 10
12.0112011848
 20
73.7861874423
 30
0.0
 10
12.0725178952
 20
73.5109712242
 30
0.0
 10
12.1665650894
 20
73.2651951106
 30
0.0
 10
12.2925727421
 20
73.0526013051
 30
0.0
 10
12.4490018879
 20
72.8770218123
 30
0.0
 10
12.5728695612
 20
72.7862088288
 30
0.0
 10
12.637779056
 20
72.7487348274
 30
0.0
  0
SPLINE
  5
320
100
AcDbEntity
  8
0
100
AcDbSpline
 62
7
  6
BYLAYER
 70
0
 71
3
 72
12
 73
8
 74
0
 42
0.0000001
 43
0.0000001
 44
0.0000000001
 40
0.0
 40
0.0
 40
0.0
 40
0.0
 40
0.1081620034
 40
0.2183717769
 40
0.4513384358
 40
0.7104781591
 40
1.0
 40
1.0
 40
1.0
 40
1.0
 10
31.4006490549
 20
91.1060832954
 30
0.0
 10
31.4006550809
 20
91.1404641557
 30
0.0
 10
31.3946666165
 20
91.2100217162
 30
0.0
 10
31.3585151703
 20
91.3494450331
 30
0.0
 10
31.2658024259
 20
91.5204629934
 30
0.0
 10
31.0930130106
 20
91.7018707704
 30
0.0
 10
30.9484307348
 20
91.8014819303
 30
0.0
 10
30.8687310796
 20
91.8474955068
 30
0.0
  0
SPLINE
  5
321
100
AcDbEntity
  8
0
100
AcDbSpline
 62
7
  6
BYLAYER
 70
0
 71
3
 72
23
 73
19
 74
0
 42
0.0000001
 43
0.0000001
 44
0.0000000001
 40
0.0
 40
0.0
 40
0.0
 40
0.0
 40
0.0464750933
 40
0.0964050281
 40
0.1500341308
 40
0.2073498027
 40
0.2681302609
 40
0.3319884017
 40
0.3984095455
 40
0.4667834902
 40
0.5364325402
 40
0.6066370582
 40
0.6766595384
 40
0.7457676359
 40
0.8132611367
 40
0.8784878311
 40
0.9408916185
 40
1.0
 40
1.0
 40
1.0
 40
1.0
 10
26.2553131383
 20
47.1287322085
 30
0.0
 10
26.4745377652
 20
46.7759189856
 30
0.0
 10
26.9971109525
 20
46.0848957008
 30
0.0
 10
27.9635305875
 20
45.1492361446
 30
0.0
 10
29.1228307628
 20
44.2923898313
 30
0.0
 10
30.4566321404
 20
43.52706612
 30
0.0
 10
31.9444505011
 20
42.864329016
 30
0.0
 10
33.5632987448
 20
42.3141731502
 30
0.0
 10
35.2881127009
 20
41.8849856001
 30
0.0
 10
37.09208383
 20
41.5833950989
 30
0.0
 10
38.9471014545
 20
41.4140880372
 30
0.0
 10
40.824210423
 20
41.3797098375
 30
0.0
 10
42.6940790386
 20
41.4808077123
 30
0.0
 10
44.5275241345
 20
41.7157785659
 30
0.0
 10
46.2958870119
 20
42.0809976565
 30
0.0
 10
47.9718110016
 20
42.5707601827
 30
0.0
 10
49.5289116978
 20
43.1775313169
 30
0.0
 10
50.5002910961
 20
43.6682628525
 30
0.0
 10
50.9578012152
 20
43.9324048662
 30
0.0
  0
SPLINE
  5
322
100
AcDbEntity
  8
0
100
AcDbSpline
 62
7
  6
BYLAYER
 70
0
 71
3
 72
11
 73
7
 74
0
 42
0.0000001
 43
0.0000001
 44
0.0000000001
 40
0.0
 40
0.0
 40
0.0
 40
0.0
 40
0.257201538
 40
0.511032429
 40
0.7593157065
 40
1.0
 40
1.0
 40
1.0
 40
1.0
 10
41.5669701306
 20
45.6786248537
 30
0.0
 10
42.422081523
 20
45.7054576669
 30
0.0
 10
44.1198851855
 20
45.8154904051
 30
0.0
 10
46.6253166964
 20
46.1500856998
 30
0.0
 10
49.0472462459
 20
46.6491636874
 30
0.0
 10
50.613319201
 20
47.095278307
 30
0.0
 10
51.3737292376
 20
47.3457223099
 30
0.0
  0
SPLINE
  5
323
100
AcDbEntity
  8
0
100
AcDbSpline
 62
7
  6
BYLAYER
 70
0
 71
3
 72
13
 73
9
 74
0
 42
0.0000001
 43
0.0000001
 44
0.0000000001
 40
0.0
 40
0.0
 40
0.0
 40
0.0
 40
0.271201639
 40
0.5257353062
 40
0.6478466231
 40
0.7671689443
 40
0.8843239735
 40
1.0
 40
1.0
 40
1.0
 40
1.0
 10
59.6658513984
 20
52.1331526945
 30
0.0
 10
60.0761019979
 20
52.5483563404
 30
0.0
 10
60.8206113553
 20
53.406136713
 30
0.0
 10
61.5667196817
 20
54.5919747153
 30
0.0
 10
62.0124723856
 20
55.5632942199
 30
0.0
 10
62.2698203855
 20
56.2921148575
 30
0.0
 10
62.4537194763
 20
57.0285337806
 30
0.0
 10
62.5271391284
 20
57.5252167925
 30
0.0
 10
62.5511997121
 20
57.7730156109
 30
0.0
  0
SPLINE
  5
324
100
AcDbEntity
  8
0
100
AcDbSpline
 62
7
  6
BYLAYER
 70
0
 71
3
 72
23
 73
19
 74
0
 42
0.0000001
 43
0.0000001
 44
0.0000000001
 40
0.0
 40
0.0
 40
0.0
 40
0.0
 40
0.0496494857
 40
0.1026534436
 40
0.158975625
 40
0.2184227219
 40
0.2806751171
 40
0.3453135088
 40
0.4118421675
 40
0.4797091994
 40
0.5483248051
 40
0.6170786109
 40
0.6853564889
 40
0.7525567652
 40
0.8181097229
 40
0.8814885314
 40
0.9422452508
 40
1.0
 40
1.0
 40
1.0
 40
1.0
 10
22.9610918809
 20
49.7271554806
 30
0.0
 10
23.3420379355
 20
49.3260295607
 30
0.0
 10
24.1890153095
 20
48.5517823756
 30
0.0
 10
25.6325181418
 20
47.5193475452
 30
0.0
 10
27.2712401509
 20
46.590569769
 30
0.0
 10
29.0833115696
 20
45.7775363054
 30
0.0
 10
31.0449700778
 20
45.0905945345
 30
0.0
 10
33.1302941076
 20
44.5387261845
 30
0.0
 10
35.311687251
 20
44.1291792858
 30
0.0
 10
37.5602084174
 20
43.8673727576
 30
0.0
 10
39.8459823948
 20
43.7567827799
 30
0.0
 10
42.1386116429
 20
43.7988849164
 30
0.0
 10
44.4075924291
 20
43.9931244801
 30
0.0
 10
46.6227812189
 20
44.3368994932
 30
0.0
 10
48.7547072305
 20
44.8256854919
 30
0.0
 10
50.7752836931
 20
45.4530018571
 30
0.0
 10
52.6574262536
 20
46.2106050139
 30
0.0
 10
53.835474469
 20
46.8123146483
 30
0.0
 10
54.3927634826
 20
47.1340636897
 30
0.0
  0
SPLINE
  5
325
100
AcDbEntity
  8
0
100
AcDbSpline
 62
7
  6
BYLAYER
 70
0
 71
3
 72
13
 73
9
 74
0
 42
0.0000001
 43
0.0000001
 44
0.0000000001
 40
0.0
 40
0.0
 40
0.0
 40
0.0
 40
0.1165488106
 40
0.2344409575
 40
0.3542882207
 40
0.476652277
 40
0.7307232355
 40
1.0
 40
1.0
 40
1.0
 40
1.0
 10
18.1699612821
 20
57.7828265435
 30
0.0
 10
18.1921651258
 20
57.550929886
 30
0.0
 10
18.2587020332
 20
57.0862747274
 30
0.0
 10
18.4231765664
 20
56.3965510702
 30
0.0
 10
18.6520493988
 20
55.7131314948
 30
0.0
 10
19.0469524025
 20
54.8020111713
 30
0.0
 10
19.706262613
 20
53.6859209997
 30
0.0
 10
20.3669572338
 20
52.8701198937
 30
0.0
 10
20.7312891014
 20
52.4739470494
 30
0.0
  0
ELLIPSE
  5
326
100
AcDbEntity
  8
0
100
AcDbEllipse
 62
7
  6
BYLAYER
 10
19.2235543969
 20
83.0685532843
 30
0.0
 11
1.6066066926
 21
2.7825934927
 31
0.0
 40
0.868896216
 41
-4.1212175638
 42
-3.730386412
  0
ELLIPSE
  5
327
100
AcDbEntity
  8
0
100
AcDbEllipse
 62
7
  6
BYLAYER
 10
16.184097939
 20
84.8234039219
 30
0.0
 11
1.6066066926
 21
2.7825934927
 31
0.0
 40
0.868896216
 41
-1.7683280305
 42
-1.3732121943
  0
ELLIPSE
  5
328
100
AcDbEntity
  8
0
100
AcDbEllipse
 62
7
  6
BYLAYER
 10
19.2235543969
 20
83.0685532843
 30
0.0
 11
1.6066066926
 21
2.7825934927
 31
0.0
 40
0.868896216
 41
0.5888278944
 42
0.979677339
  0
ELLIPSE
  5
329
100
AcDbEntity
  8
0
100
AcDbEllipse
 62
7
  6
BYLAYER
 10
13.4282094129
 20
76.0025532194
 30
0.0
 11
1.6066066926
 21
2.7825934927
 31
0.0
 40
0.868896216
 41
-1.7683280305
 42
-1.3732121943
  0
ELLIPSE
  5
32A
100
AcDbEntity
  8
0
100
AcDbEllipse
 62
7
  6
BYLAYER
 10
16.4676658709
 20
74.2477025818
 30
0.0
 11
1.6066066926
 21
2.7825934927
 31
0.0
 40
0.868896216
 41
0.5888278944
 42
0.979677339
  0
ELLIPSE
  5
32B
100
AcDbEntity
  8
0
100
AcDbEllipse
 62
7
  6
BYLAYER
 10
16.4676658709
 20
74.2477025818
 30
0.0
 11
1.6066066926
 21
2.7825934927
 31
0.0
 40
0.868896216
 41
-4.1212175638
 42
-3.730386412
  0
ENDSEC
  0
SECTION
  2
OBJECTS
  0
DICTIONARY
  5
C
100
AcDbDictionary
280
0
281
1
  3
ACAD_GROUP
350
D
  3
ACAD_MLINESTYLE
350
17
  3
ACAD_LAYOUT
350
1A
  3
ACAD_PLOTSETTINGS
350
19
  3
ACAD_PLOTSTYLENAME
350
E
  0
DICTIONARY
  5
D
102
{ACAD_REACTORS
330
C
102
}
100
AcDbDictionary
280
0
281
1
  0
ACDBDICTIONARYWDFLT
  5
E
102
{ACAD_REACTORS
330
C
102
}
100
AcDbDictionary
281
1
  3
Normal
350
F
100
AcDbDictionaryWithDefault
340
F
  0
DICTIONARY
  5
17
102
{ACAD_REACTORS
330
C
102
}
100
AcDbDictionary
280
0
281
1
  3
Standard
350
18
  0
DICTIONARY
  5
19
102
{ACAD_REACTORS
330
C
102
}
100
AcDbDictionary
281
1
  0
DICTIONARY
  5
1A
102
{ACAD_REACTORS
330
C
102
}
100
AcDbDictionary
281
1
  3
Model
350
32C
  3
Layout1
350
32D
  0
ACDBPLACEHOLDER
  5
F
102
{ACAD_REACTORS
330
E
102
}
  0
MLINESTYLE
  5
18
102
{ACAD_REACTORS
330
17
102
}
100
AcDbMlineStyle
  2
STANDARD
 70
0
  3

 62
256
 51
90.0
 52
90.0
 71
2
 49
0.5
 62
256
  6
BYLAYER
 49
-0.5
 62
256
  6
BYLAYER
  0
LAYOUT
  5
32C
102
{ACAD_REACTORS
330
1A
102
}
100
AcDbPlotSettings
  1

  2
none_device
  4

  6

 40
0.0
 41
0.0
 42
0.0
 43
0.0
 44
210.0
 45
297.0
 46
0.0
 47
0.0
 48
0.0
 49
0.0
140
0.0
141
0.0
142
1.0
143
1.0
 70
1024
 72
1
 73
0
 74
0
  7

 75
0
147
1.0
148
0.0
149
0.0
100
AcDbLayout
  1
Model
 70
0
 71
0
 10
0.0
 20
0.0
 11
210.0
 21
297.0
 12
0.0
 22
0.0
 32
0.0
 14
0.0
 24
0.0
 34
0.0
 15
0.0
 25
0.0
 35
0.0
146
0.0
 13
0.0
 23
0.0
 33
0.0
 16
1.0
 26
0.0
 36
0.0
 17
0.0
 27
1.0
 37
0.0
 76
0
330
21A
345
0
346
0
  0
LAYOUT
  5
32D
102
{ACAD_REACTORS
330
1A
102
}
100
AcDbPlotSettings
  1

  2
none_device
  4

  6

 40
0.0
 41
0.0
 42
0.0
 43
0.0
 44
210.0
 45
297.0
 46
0.0
 47
0.0
 48
0.0
 49
0.0
140
0.0
141
0.0
142
1.0
143
1.0
 70
0
 72
1
 73
0
 74
0
  7

 75
0
147
1.0
148
0.0
149
0.0
100
AcDbLayout
  1
Layout1
 70
0
 71
1
 10
0.0
 20
0.0
 11
210.0
 21
297.0
 12
0.0
 22
0.0
 32
0.0
 14
0.0
 24
0.0
 34
0.0
 15
0.0
 25
0.0
 35
0.0
146
0.0
 13
0.0
 23
0.0
 33
0.0
 16
1.0
 26
0.0
 36
0.0
 17
0.0
 27
1.0
 37
0.0
 76
0
330
21B
345
0
346
0
  0
ENDSEC
  0
EOF
