  0
SECTION
  2
HEADER
  9
$ACADVER
  1
AC1009
  9
$DWGCODEPAGE
  3
ansi_1250
  9
$INSBASE
 10
0.0
 20
0.0
 30
0.0
  9
$EXTMIN
 10
-2.06
 20
0.0
 30
0.0
  9
$EXTMAX
 10
2.06
 20
4.372995
 30
0.0
  9
$LIMMIN
 10
0.0
 20
0.0
  9
$LIMMAX
 10
0.0
 20
0.0
  9
$ORTHOMODE
 70
     0
  9
$REGENMODE
 70
     1
  9
$FILLMODE
 70
     1
  9
$QTEXTMODE
 70
     0
  9
$MIRRTEXT
 70
     1
  9
$DRAGMODE
 70
     2
  9
$LTSCALE
 40
1.0
  9
$OSMODE
 70
     0
  9
$ATTMODE
 70
     1
  9
$TEXTSIZE
 40
0.2
  9
$TRACEWID
 40
0.05
  9
$TEXTSTYLE
  7
STANDARD
  9
$CLAYER
  8
0
  9
$CELTYPE
  6
CONTINUOUS
  9
$CECOLOR
 62
   256
  9
$DIMSCALE
 40
1.0
  9
$DIMASZ
 40
0.18
  9
$DIMEXO
 40
0.0625
  9
$DIMDLI
 40
0.38
  9
$DIMRND
 40
0.0
  9
$DIMDLE
 40
0.0
  9
$DIMEXE
 40
0.18
  9
$DIMTP
 40
0.0
  9
$DIMTM
 40
0.0
  9
$DIMTXT
 40
0.18
  9
$DIMCEN
 40
0.09
  9
$DIMTSZ
 40
0.0
  9
$DIMTOL
 70
     0
  9
$DIMLIM
 70
     0
  9
$DIMTIH
 70
     1
  9
$DIMTOH
 70
     1
  9
$DIMSE1
 70
     0
  9
$DIMSE2
 70
     0
  9
$DIMTAD
 70
     0
  9
$DIMZIN
 70
     0
  9
$DIMBLK
  1

  9
$DIMASO
 70
     1
  9
$DIMSHO
 70
     1
  9
$DIMPOST
  1

  9
$DIMAPOST
  1

  9
$DIMALT
 70
     0
  9
$DIMALTD
 70
     2
  9
$DIMALTF
 40
25.4
  9
$DIMLFAC
 40
1.0
  9
$DIMTOFL
 70
     0
  9
$DIMTVP
 40
0.0
  9
$DIMTIX
 70
     0
  9
$DIMSOXD
 70
     0
  9
$DIMSAH
 70
     0
  9
$DIMBLK1
  1

  9
$DIMBLK2
  1

  9
$DIMSTYLE
  2
STANDARD
  9
$DIMCLRD
 70
     0
  9
$DIMCLRE
 70
     0
  9
$DIMCLRT
 70
     0
  9
$DIMTFAC
 40
1.0
  9
$DIMGAP
 40
0.09
  9
$LUNITS
 70
     2
  9
$LUPREC
 70
     4
  9
$AXISMODE
 70
     0
  9
$AXISUNIT
 10
0.0
 20
0.0
  9
$SKETCHINC
 40
0.1
  9
$FILLETRAD
 40
0.0
  9
$AUNITS
 70
     0
  9
$AUPREC
 70
     0
  9
$MENU
  1
acad
  9
$ELEVATION
 40
0.0
  9
$PELEVATION
 40
0.0
  9
$THICKNESS
 40
0.0
  9
$LIMCHECK
 70
     0
  9
$BLIPMODE
 70
     1
  9
$CHAMFERA
 40
0.0
  9
$CHAMFERB
 40
0.0
  9
$SKPOLY
 70
     0
  9
$TDCREATE
 40
0.000000000
  9
$TDUPDATE
 40
0.000000000
  9
$TDINDWG
 40
0.0000000000
  9
$TDUSRTIMER
 40
0.0000000000
  9
$USRTIMER
 70
     1
  9
$ANGBASE
 50
0.0
  9
$ANGDIR
 70
     0
  9
$PDMODE
 70
     0
  9
$PDSIZE
 40
0.0
  9
$PLINEWID
 40
0.0
  9
$COORDS
 70
     0
  9
$SPLFRAME
 70
     0
  9
$SPLINETYPE
 70
     6
  9
$SPLINESEGS
 70
     8
  9
$ATTDIA
 70
     0
  9
$ATTREQ
 70
     1
  9
$HANDLING
 70
     1
  9
$HANDSEED
  5
3D8
  9
$SURFTAB1
 70
     6
  9
$SURFTAB2
 70
     6
  9
$SURFTYPE
 70
     6
  9
$SURFU
 70
     6
  9
$SURFV
 70
     6
  9
$UCSNAME
  2

  9
$UCSORG
 10
0.0
 20
0.0
 30
0.0
  9
$UCSXDIR
 10
1.0
 20
0.0
 30
0.0
  9
$UCSYDIR
 10
0.0
 20
1.0
 30
0.0
  9
$PUCSNAME
  2

  9
$PUCSORG
 10
0.0
 20
0.0
 30
0.0
  9
$PUCSXDIR
 10
1.0
 20
0.0
 30
0.0
  9
$PUCSYDIR
 10
0.0
 20
1.0
 30
0.0
  9
$USERI1
 70
     0
  9
$USERI2
 70
     0
  9
$USERI3
 70
     0
  9
$USERI4
 70
     0
  9
$USERI5
 70
     0
  9
$USERR1
 40
0.0
  9
$USERR2
 40
0.0
  9
$USERR3
 40
0.0
  9
$USERR4
 40
0.0
  9
$USERR5
 40
0.0
  9
$WORLDVIEW
 70
     1
  9
$SHADEDGE
 70
     3
  9
$SHADEDIF
 70
    70
  9
$TILEMODE
 70
     1
  9
$MAXACTVP
 70
    16
  9
$PINSBASE
 10
0.0
 20
0.0
 30
0.0
  9
$PLIMCHECK
 70
     0
  9
$PEXTMIN
 10
1.000000E+20
 20
1.000000E+20
 30
1.000000E+20
  9
$PEXTMAX
 10
-1.000000E+20
 20
-1.000000E+20
 30
-1.000000E+20
  9
$PLIMMIN
 10
0.0
 20
0.0
  9
$PLIMMAX
 10
12.0
 20
9.0
  9
$UNITMODE
 70
     0
  9
$VISRETAIN
 70
     0
  9
$PLINEGEN
 70
     1
  9
$PSLTSCALE
 70
     0
  9
$TREEDEPTH
 70
  3020
  0
ENDSEC
  0
SECTION
  2
TABLES
  0
TABLE
  2
VPORT
 70
     1
  0
VPORT
  2
*ACTIVE
 70
     0
 10
0.0
 20
0.0
 11
1.0
 21
1.0
 12
6.591288
 22
4.579184
 13
0.0
 23
0.0
 14
1.0
 24
1.0
 15
0.0
 25
0.0
 16
0.0
 26
0.0
 36
1.0
 17
0.0
 27
0.0
 37
0.0
 40
9.158369
 41
0.688564
 42
50.0
 43
0.0
 44
0.0
 50
0.0
 51
0.0
 71
     0
 72
   100
 73
     1
 74
     1
 75
     0
 76
     0
 77
     0
 78
     0
  0
ENDTAB
  0
TABLE
  2
LTYPE
 70
     5
  0
LTYPE
  2
CONTINUOUS
 70
    64
  3
Solid line
 72
    65
 73
     0
 40
0.0
  0
LTYPE
  2
CENTER
 70
    64
  3
Center ____ _ ____ _ ____ _ ____ _ ____ _ ____
 72
    65
 73
     4
 40
50.8
 49
31.75
 49
-6.35
 49
6.35
 49
-6.35
  0
LTYPE
  2
HIDDEN
 70
    64
  3
Hidden __ __ __ __ __ __ __ __ __ __ __ __ __ __
 72
    65
 73
     2
 40
9.525
 49
6.35
 49
-3.175
  0
LTYPE
  2
CENTER2
 70
    64
  3
Center (.5x) ___ _ ___ _ ___ _ ___ _ ___ _ ___
 72
    65
 73
     4
 40
28.575
 49
19.05
 49
-3.175
 49
3.175
 49
-3.175
  0
LTYPE
  2
HIDDEN2
 70
    64
  3
Hidden (.5x) _ _ _ _ _ _ _ _ _ _ _ _ _ _ _ _ _
 72
    65
 73
     2
 40
4.7625
 49
3.175
 49
-1.5875
  0
ENDTAB
  0
TABLE
  2
LAYER
 70
     1
  0
LAYER
  2
0
 70
     0
 62
     7
  6
CONTINUOUS
  0
ENDTAB
  0
TABLE
  2
STYLE
 70
     1
  0
STYLE
  2
STANDARD
 70
     0
 40
0.0
 41
1.0
 50
0.0
 71
     0
 42
0.0
  3
txt
  4

  0
ENDTAB
  0
TABLE
  2
VIEW
 70
     0
  0
ENDTAB
  0
TABLE
  2
UCS
 70
     0
  0
ENDTAB
  0
TABLE
  2
APPID
 70
     1
  0
APPID
  2
ACAD
 70
     0
  0
ENDTAB
  0
TABLE
  2
DIMSTYLE
 70
     1
  0
DIMSTYLE
  2
STANDARD
 70
     0
  3

  4

  5

  6

  7

 40
1.0
 41
0.18
 42
0.0625
 43
0.38
 44
0.18
 45
0.0
 46
0.0
 47
0.0
 48
0.0
 71
     0
 72
     0
 73
     1
 74
     1
 75
     0
 76
     0
 77
     0
 78
     0
140
0.18
141
0.09
142
0.0
143
25.4
144
1.0
145
0.0
146
1.0
147
0.09
170
     0
171
     2
172
     0
173
     0
174
     0
175
     0
176
     0
177
     0
178
     0
  0
ENDTAB
  0
ENDSEC
  0
SECTION
  2
BLOCKS
  0
ENDSEC
  0
SECTION
  2
ENTITIES
  0
LINE
  8
0
  6
CONTINUOUS
 62
     7
  5
23B
 10
-0.215
 20
4.212503
 30
0.0
 11
-0.215
 21
3.74
 31
0.0
  0
LINE
  8
0
  6
CONTINUOUS
 62
     7
  5
23C
 10
-0.215
 20
4.289342
 30
0.0
 11
-0.215
 21
4.212503
 31
0.0
  0
LINE
  8
0
  6
CONTINUOUS
 62
     7
  5
23D
 10
-0.215
 20
4.372995
 30
0.0
 11
-0.215
 21
3.74
 31
0.0
  0
LINE
  8
0
  6
CONTINUOUS
 62
     7
  5
23E
 10
0.215
 20
4.372995
 30
0.0
 11
0.215
 21
4.212503
 31
0.0
  0
LINE
  8
0
  6
CONTINUOUS
 62
     7
  5
23F
 10
0.215
 20
4.212503
 30
0.0
 11
0.215
 21
4.289342
 31
0.0
  0
LINE
  8
0
  6
CONTINUOUS
 62
     7
  5
240
 10
0.215
 20
4.212503
 30
0.0
 11
0.215
 21
3.74
 31
0.0
  0
LINE
  8
0
  6
CONTINUOUS
 62
     7
  5
241
 10
-0.215
 20
4.372995
 30
0.0
 11
0.215
 21
4.372995
 31
0.0
  0
LINE
  8
0
  6
CONTINUOUS
 62
     7
  5
242
 10
0.215
 20
4.289342
 30
0.0
 11
-0.215
 21
4.289342
 31
0.0
  0
LINE
  8
0
  6
CONTINUOUS
 62
     7
  5
243
 10
-0.215
 20
4.212503
 30
0.0
 11
0.215
 21
4.212503
 31
0.0
  0
LINE
  8
0
  6
CONTINUOUS
 62
     7
  5
244
 10
-1.563
 20
0.769
 30
0.0
 11
-1.623
 21
0.769
 31
0.0
  0
LINE
  8
0
  6
CONTINUOUS
 62
     7
  5
245
 10
-1.623
 20
0.695
 30
0.0
 11
-1.623
 21
0.769
 31
0.0
  0
LINE
  8
0
  6
CONTINUOUS
 62
     7
  5
246
 10
-1.623
 20
0.695
 30
0.0
 11
-1.563
 21
0.695
 31
0.0
  0
LINE
  8
0
  6
CONTINUOUS
 62
     7
  5
247
 10
-1.563
 20
0.695
 30
0.0
 11
-1.563
 21
0.769
 31
0.0
  0
LINE
  8
0
  6
CONTINUOUS
 62
     7
  5
248
 10
-1.137
 20
0.695
 30
0.0
 11
-1.137
 21
0.769
 31
0.0
  0
LINE
  8
0
  6
CONTINUOUS
 62
     7
  5
249
 10
-1.137
 20
0.769
 30
0.0
 11
-1.197
 21
0.769
 31
0.0
  0
LINE
  8
0
  6
CONTINUOUS
 62
     7
  5
24A
 10
-1.197
 20
0.695
 30
0.0
 11
-1.197
 21
0.769
 31
0.0
  0
LINE
  8
0
  6
CONTINUOUS
 62
     7
  5
24B
 10
-1.137
 20
0.695
 30
0.0
 11
-1.197
 21
0.695
 31
0.0
  0
LINE
  8
0
  6
CONTINUOUS
 62
     7
  5
24C
 10
-1.197
 20
0.769
 30
0.0
 11
-1.563
 21
0.769
 31
0.0
  0
LINE
  8
0
  6
CONTINUOUS
 62
     7
  5
24D
 10
-1.197
 20
0.695
 30
0.0
 11
-1.563
 21
0.695
 31
0.0
  0
LINE
  8
0
  6
CONTINUOUS
 62
     7
  5
24E
 10
-0.183
 20
0.769
 30
0.0
 11
-0.243
 21
0.769
 31
0.0
  0
LINE
  8
0
  6
CONTINUOUS
 62
     7
  5
24F
 10
-0.243
 20
0.695
 30
0.0
 11
-0.243
 21
0.769
 31
0.0
  0
LINE
  8
0
  6
CONTINUOUS
 62
     7
  5
250
 10
-0.243
 20
0.695
 30
0.0
 11
-0.183
 21
0.695
 31
0.0
  0
LINE
  8
0
  6
CONTINUOUS
 62
     7
  5
251
 10
-0.183
 20
0.695
 30
0.0
 11
-0.183
 21
0.769
 31
0.0
  0
LINE
  8
0
  6
CONTINUOUS
 62
     7
  5
252
 10
0.243
 20
0.695
 30
0.0
 11
0.243
 21
0.769
 31
0.0
  0
LINE
  8
0
  6
CONTINUOUS
 62
     7
  5
253
 10
0.243
 20
0.769
 30
0.0
 11
0.183
 21
0.769
 31
0.0
  0
LINE
  8
0
  6
CONTINUOUS
 62
     7
  5
254
 10
0.183
 20
0.695
 30
0.0
 11
0.183
 21
0.769
 31
0.0
  0
LINE
  8
0
  6
CONTINUOUS
 62
     7
  5
255
 10
0.243
 20
0.695
 30
0.0
 11
0.183
 21
0.695
 31
0.0
  0
LINE
  8
0
  6
CONTINUOUS
 62
     7
  5
256
 10
0.183
 20
0.769
 30
0.0
 11
-0.183
 21
0.769
 31
0.0
  0
LINE
  8
0
  6
CONTINUOUS
 62
     7
  5
257
 10
0.183
 20
0.695
 30
0.0
 11
-0.183
 21
0.695
 31
0.0
  0
LINE
  8
0
  6
CONTINUOUS
 62
     7
  5
258
 10
1.197
 20
0.769
 30
0.0
 11
1.137
 21
0.769
 31
0.0
  0
LINE
  8
0
  6
CONTINUOUS
 62
     7
  5
259
 10
1.137
 20
0.695
 30
0.0
 11
1.137
 21
0.769
 31
0.0
  0
LINE
  8
0
  6
CONTINUOUS
 62
     7
  5
25A
 10
1.137
 20
0.695
 30
0.0
 11
1.197
 21
0.695
 31
0.0
  0
LINE
  8
0
  6
CONTINUOUS
 62
     7
  5
25B
 10
1.197
 20
0.695
 30
0.0
 11
1.197
 21
0.769
 31
0.0
  0
LINE
  8
0
  6
CONTINUOUS
 62
     7
  5
25C
 10
1.623
 20
0.695
 30
0.0
 11
1.623
 21
0.769
 31
0.0
  0
LINE
  8
0
  6
CONTINUOUS
 62
     7
  5
25D
 10
1.623
 20
0.769
 30
0.0
 11
1.563
 21
0.769
 31
0.0
  0
LINE
  8
0
  6
CONTINUOUS
 62
     7
  5
25E
 10
1.563
 20
0.695
 30
0.0
 11
1.563
 21
0.769
 31
0.0
  0
LINE
  8
0
  6
CONTINUOUS
 62
     7
  5
25F
 10
1.623
 20
0.695
 30
0.0
 11
1.563
 21
0.695
 31
0.0
  0
LINE
  8
0
  6
CONTINUOUS
 62
     7
  5
260
 10
1.563
 20
0.769
 30
0.0
 11
1.197
 21
0.769
 31
0.0
  0
LINE
  8
0
  6
CONTINUOUS
 62
     7
  5
261
 10
1.563
 20
0.695
 30
0.0
 11
1.197
 21
0.695
 31
0.0
  0
LINE
  8
0
  6
CONTINUOUS
 62
     7
  5
262
 10
1.829364
 20
0.0
 30
0.0
 11
2.06
 21
0.0
 31
0.0
  0
LINE
  8
0
  6
CONTINUOUS
 62
     7
  5
263
 10
1.829364
 20
0.0
 30
0.0
 11
0.930636
 21
0.0
 31
0.0
  0
LINE
  8
0
  6
CONTINUOUS
 62
     7
  5
264
 10
0.735
 20
0.0
 30
0.0
 11
0.930636
 21
0.0
 31
0.0
  0
LINE
  8
0
  6
CONTINUOUS
 62
     7
  5
265
 10
0.735
 20
0.0
 30
0.0
 11
0.645
 21
0.0
 31
0.0
  0
LINE
  8
0
  6
CONTINUOUS
 62
     7
  5
266
 10
0.449364
 20
0.0
 30
0.0
 11
0.645
 21
0.0
 31
0.0
  0
LINE
  8
0
  6
CONTINUOUS
 62
     7
  5
267
 10
0.449364
 20
0.0
 30
0.0
 11
-0.449364
 21
0.0
 31
0.0
  0
LINE
  8
0
  6
CONTINUOUS
 62
     7
  5
268
 10
-0.645
 20
0.0
 30
0.0
 11
-0.449364
 21
0.0
 31
0.0
  0
LINE
  8
0
  6
CONTINUOUS
 62
     7
  5
269
 10
-0.645
 20
0.0
 30
0.0
 11
-0.735
 21
0.0
 31
0.0
  0
LINE
  8
0
  6
CONTINUOUS
 62
     7
  5
26A
 10
-0.930636
 20
0.0
 30
0.0
 11
-0.735
 21
0.0
 31
0.0
  0
LINE
  8
0
  6
CONTINUOUS
 62
     7
  5
26B
 10
-0.930636
 20
0.0
 30
0.0
 11
-1.829364
 21
0.0
 31
0.0
  0
LINE
  8
0
  6
CONTINUOUS
 62
     7
  5
26C
 10
-2.06
 20
0.0
 30
0.0
 11
-1.829364
 21
0.0
 31
0.0
  0
LINE
  8
0
  6
CONTINUOUS
 62
     7
  5
26D
 10
2.06
 20
1.923
 30
0.0
 11
0.735
 21
1.923
 31
0.0
  0
LINE
  8
0
  6
CONTINUOUS
 62
     7
  5
26E
 10
-0.735
 20
1.923
 30
0.0
 11
-2.06
 21
1.923
 31
0.0
  0
LINE
  8
0
  6
CONTINUOUS
 62
     7
  5
26F
 10
0.645
 20
2.87
 30
0.0
 11
0.735
 21
2.87
 31
0.0
  0
LINE
  8
0
  6
CONTINUOUS
 62
     7
  5
270
 10
0.645
 20
1.923
 30
0.0
 11
0.645
 21
2.87
 31
0.0
  0
LINE
  8
0
  6
CONTINUOUS
 62
     7
  5
271
 10
0.645
 20
0.0
 30
0.0
 11
0.645
 21
1.923
 31
0.0
  0
LINE
  8
0
  6
CONTINUOUS
 62
     7
  5
272
 10
2.059
 20
2.87
 30
0.0
 11
0.735
 21
2.87
 31
0.0
  0
LINE
  8
0
  6
CONTINUOUS
 62
     7
  5
273
 10
-0.735
 20
2.87
 30
0.0
 11
-2.059
 21
2.87
 31
0.0
  0
LINE
  8
0
  6
CONTINUOUS
 62
     7
  5
274
 10
-0.735
 20
2.87
 30
0.0
 11
-0.645
 21
2.87
 31
0.0
  0
LINE
  8
0
  6
CONTINUOUS
 62
     7
  5
275
 10
0.645
 20
2.87
 30
0.0
 11
-0.645
 21
2.87
 31
0.0
  0
LINE
  8
0
  6
CONTINUOUS
 62
     7
  5
276
 10
-0.645
 20
1.923
 30
0.0
 11
-0.645
 21
0.0
 31
0.0
  0
LINE
  8
0
  6
CONTINUOUS
 62
     7
  5
277
 10
-0.645
 20
2.87
 30
0.0
 11
-0.645
 21
1.923
 31
0.0
  0
LINE
  8
0
  6
CONTINUOUS
 62
     7
  5
278
 10
0.735
 20
1.923
 30
0.0
 11
0.735
 21
0.0
 31
0.0
  0
LINE
  8
0
  6
CONTINUOUS
 62
     7
  5
279
 10
0.735
 20
2.87
 30
0.0
 11
0.735
 21
1.923
 31
0.0
  0
LINE
  8
0
  6
CONTINUOUS
 62
     7
  5
27A
 10
0.645
 20
1.923
 30
0.0
 11
-0.645
 21
1.923
 31
0.0
  0
LINE
  8
0
  6
CONTINUOUS
 62
     7
  5
27B
 10
-0.449364
 20
0.0
 30
0.0
 11
-0.449364
 21
0.099
 31
0.0
  0
LINE
  8
0
  6
CONTINUOUS
 62
     7
  5
27C
 10
-0.449364
 20
0.099
 30
0.0
 11
-0.279538
 21
0.099
 31
0.0
  0
LINE
  8
0
  6
CONTINUOUS
 62
     7
  5
27D
 10
-0.279538
 20
0.099
 30
0.0
 11
-0.279538
 21
0.483677
 31
0.0
  0
LINE
  8
0
  6
CONTINUOUS
 62
     7
  5
27E
 10
-0.279538
 20
0.483677
 30
0.0
 11
-0.319823
 21
0.483677
 31
0.0
  0
LINE
  8
0
  6
CONTINUOUS
 62
     7
  5
27F
 10
-0.319823
 20
0.483677
 30
0.0
 11
-0.319823
 21
1.435323
 31
0.0
  0
ARC
  8
0
  6
CONTINUOUS
 62
     7
  5
280
 10
-0.304823
 20
1.435323
 30
0.0
 40
0.015
 50
90.0
 51
180.0
  0
LINE
  8
0
  6
CONTINUOUS
 62
     7
  5
281
 10
-0.304823
 20
1.450323
 30
0.0
 11
-0.2985
 21
1.450323
 31
0.0
  0
LINE
  8
0
  6
CONTINUOUS
 62
     7
  5
282
 10
-0.2985
 20
1.450323
 30
0.0
 11
-0.2985
 21
1.519468
 31
0.0
  0
LINE
  8
0
  6
CONTINUOUS
 62
     7
  5
283
 10
-0.2985
 20
1.519468
 30
0.0
 11
-0.305032
 21
1.519468
 31
0.0
  0
ARC
  8
0
  6
CONTINUOUS
 62
     7
  5
284
 10
-0.305032
 20
1.534468
 30
0.0
 40
0.015
 50
180.0
 51
270.0
  0
LINE
  8
0
  6
CONTINUOUS
 62
     7
  5
285
 10
-0.320032
 20
1.534468
 30
0.0
 11
-0.320032
 21
1.884323
 31
0.0
  0
ARC
  8
0
  6
CONTINUOUS
 62
     7
  5
286
 10
-0.290032
 20
1.884323
 30
0.0
 40
0.03
 50
90.0
 51
180.0
  0
LINE
  8
0
  6
CONTINUOUS
 62
     7
  5
287
 10
-0.290032
 20
1.914323
 30
0.0
 11
0.290032
 21
1.914323
 31
0.0
  0
ARC
  8
0
  6
CONTINUOUS
 62
     7
  5
288
 10
0.290032
 20
1.884323
 30
0.0
 40
0.03
 50
0.0
 51
90.0
  0
LINE
  8
0
  6
CONTINUOUS
 62
     7
  5
289
 10
0.320032
 20
1.884323
 30
0.0
 11
0.320032
 21
1.534468
 31
0.0
  0
ARC
  8
0
  6
CONTINUOUS
 62
     7
  5
28A
 10
0.305032
 20
1.534468
 30
0.0
 40
0.015
 50
270.0
 51
360.0
  0
LINE
  8
0
  6
CONTINUOUS
 62
     7
  5
28B
 10
0.305032
 20
1.519468
 30
0.0
 11
0.2985
 21
1.519468
 31
0.0
  0
LINE
  8
0
  6
CONTINUOUS
 62
     7
  5
28C
 10
0.2985
 20
1.519468
 30
0.0
 11
0.2985
 21
1.450323
 31
0.0
  0
LINE
  8
0
  6
CONTINUOUS
 62
     7
  5
28D
 10
0.2985
 20
1.450323
 30
0.0
 11
0.304823
 21
1.450323
 31
0.0
  0
ARC
  8
0
  6
CONTINUOUS
 62
     7
  5
28E
 10
0.304823
 20
1.435323
 30
0.0
 40
0.015
 50
0.0
 51
90.0
  0
LINE
  8
0
  6
CONTINUOUS
 62
     7
  5
28F
 10
0.319823
 20
1.435323
 30
0.0
 11
0.319823
 21
0.483677
 31
0.0
  0
LINE
  8
0
  6
CONTINUOUS
 62
     7
  5
290
 10
0.319823
 20
0.483677
 30
0.0
 11
0.279538
 21
0.483677
 31
0.0
  0
LINE
  8
0
  6
CONTINUOUS
 62
     7
  5
291
 10
0.279538
 20
0.483677
 30
0.0
 11
0.279538
 21
0.099
 31
0.0
  0
LINE
  8
0
  6
CONTINUOUS
 62
     7
  5
292
 10
0.279538
 20
0.099
 30
0.0
 11
0.449364
 21
0.099
 31
0.0
  0
LINE
  8
0
  6
CONTINUOUS
 62
     7
  5
293
 10
0.449364
 20
0.099
 30
0.0
 11
0.449364
 21
0.0
 31
0.0
  0
LINE
  8
0
  6
CONTINUOUS
 62
     7
  5
294
 10
-0.735
 20
1.923
 30
0.0
 11
-0.735
 21
2.87
 31
0.0
  0
LINE
  8
0
  6
CONTINUOUS
 62
     7
  5
295
 10
-0.735
 20
0.0
 30
0.0
 11
-0.735
 21
1.923
 31
0.0
  0
LINE
  8
0
  6
CONTINUOUS
 62
     7
  5
296
 10
0.930636
 20
0.0
 30
0.0
 11
0.930636
 21
0.099
 31
0.0
  0
LINE
  8
0
  6
CONTINUOUS
 62
     7
  5
297
 10
0.930636
 20
0.099
 30
0.0
 11
1.100462
 21
0.099
 31
0.0
  0
LINE
  8
0
  6
CONTINUOUS
 62
     7
  5
298
 10
1.100462
 20
0.099
 30
0.0
 11
1.100462
 21
0.483677
 31
0.0
  0
LINE
  8
0
  6
CONTINUOUS
 62
     7
  5
299
 10
1.100462
 20
0.483677
 30
0.0
 11
1.060177
 21
0.483677
 31
0.0
  0
LINE
  8
0
  6
CONTINUOUS
 62
     7
  5
29A
 10
1.060177
 20
0.483677
 30
0.0
 11
1.060177
 21
1.435323
 31
0.0
  0
ARC
  8
0
  6
CONTINUOUS
 62
     7
  5
29B
 10
1.075177
 20
1.435323
 30
0.0
 40
0.015
 50
90.0
 51
180.0
  0
LINE
  8
0
  6
CONTINUOUS
 62
     7
  5
29C
 10
1.075177
 20
1.450323
 30
0.0
 11
1.0815
 21
1.450323
 31
0.0
  0
LINE
  8
0
  6
CONTINUOUS
 62
     7
  5
29D
 10
1.0815
 20
1.450323
 30
0.0
 11
1.0815
 21
1.519468
 31
0.0
  0
LINE
  8
0
  6
CONTINUOUS
 62
     7
  5
29E
 10
1.0815
 20
1.519468
 30
0.0
 11
1.074968
 21
1.519468
 31
0.0
  0
ARC
  8
0
  6
CONTINUOUS
 62
     7
  5
29F
 10
1.074968
 20
1.534468
 30
0.0
 40
0.015
 50
180.0
 51
270.0
  0
LINE
  8
0
  6
CONTINUOUS
 62
     7
  5
2A0
 10
1.059968
 20
1.534468
 30
0.0
 11
1.059968
 21
1.884323
 31
0.0
  0
ARC
  8
0
  6
CONTINUOUS
 62
     7
  5
2A1
 10
1.089968
 20
1.884323
 30
0.0
 40
0.03
 50
90.0
 51
180.0
  0
LINE
  8
0
  6
CONTINUOUS
 62
     7
  5
2A2
 10
1.089968
 20
1.914323
 30
0.0
 11
1.670032
 21
1.914323
 31
0.0
  0
ARC
  8
0
  6
CONTINUOUS
 62
     7
  5
2A3
 10
1.670032
 20
1.884323
 30
0.0
 40
0.03
 50
0.0
 51
90.0
  0
LINE
  8
0
  6
CONTINUOUS
 62
     7
  5
2A4
 10
1.700032
 20
1.884323
 30
0.0
 11
1.700032
 21
1.534468
 31
0.0
  0
ARC
  8
0
  6
CONTINUOUS
 62
     7
  5
2A5
 10
1.685032
 20
1.534468
 30
0.0
 40
0.015
 50
270.0
 51
360.0
  0
LINE
  8
0
  6
CONTINUOUS
 62
     7
  5
2A6
 10
1.685032
 20
1.519468
 30
0.0
 11
1.6785
 21
1.519468
 31
0.0
  0
LINE
  8
0
  6
CONTINUOUS
 62
     7
  5
2A7
 10
1.6785
 20
1.519468
 30
0.0
 11
1.6785
 21
1.450323
 31
0.0
  0
LINE
  8
0
  6
CONTINUOUS
 62
     7
  5
2A8
 10
1.6785
 20
1.450323
 30
0.0
 11
1.684823
 21
1.450323
 31
0.0
  0
ARC
  8
0
  6
CONTINUOUS
 62
     7
  5
2A9
 10
1.684823
 20
1.435323
 30
0.0
 40
0.015
 50
0.0
 51
90.0
  0
LINE
  8
0
  6
CONTINUOUS
 62
     7
  5
2AA
 10
1.699823
 20
1.435323
 30
0.0
 11
1.699823
 21
0.483677
 31
0.0
  0
LINE
  8
0
  6
CONTINUOUS
 62
     7
  5
2AB
 10
1.699823
 20
0.483677
 30
0.0
 11
1.659538
 21
0.483677
 31
0.0
  0
LINE
  8
0
  6
CONTINUOUS
 62
     7
  5
2AC
 10
1.659538
 20
0.483677
 30
0.0
 11
1.659538
 21
0.099
 31
0.0
  0
LINE
  8
0
  6
CONTINUOUS
 62
     7
  5
2AD
 10
1.659538
 20
0.099
 30
0.0
 11
1.829364
 21
0.099
 31
0.0
  0
LINE
  8
0
  6
CONTINUOUS
 62
     7
  5
2AE
 10
1.829364
 20
0.099
 30
0.0
 11
1.829364
 21
0.0
 31
0.0
  0
LINE
  8
0
  6
CONTINUOUS
 62
     7
  5
2AF
 10
2.06
 20
0.0
 30
0.0
 11
2.06
 21
1.923
 31
0.0
  0
LINE
  8
0
  6
CONTINUOUS
 62
     7
  5
2B0
 10
-2.06
 20
1.923
 30
0.0
 11
-2.06
 21
0.0
 31
0.0
  0
LINE
  8
0
  6
CONTINUOUS
 62
     7
  5
2B1
 10
-1.829364
 20
0.0
 30
0.0
 11
-1.829364
 21
0.099
 31
0.0
  0
LINE
  8
0
  6
CONTINUOUS
 62
     7
  5
2B2
 10
-1.829364
 20
0.099
 30
0.0
 11
-1.659538
 21
0.099
 31
0.0
  0
LINE
  8
0
  6
CONTINUOUS
 62
     7
  5
2B3
 10
-1.659538
 20
0.099
 30
0.0
 11
-1.659538
 21
0.483677
 31
0.0
  0
LINE
  8
0
  6
CONTINUOUS
 62
     7
  5
2B4
 10
-1.659538
 20
0.483677
 30
0.0
 11
-1.699823
 21
0.483677
 31
0.0
  0
LINE
  8
0
  6
CONTINUOUS
 62
     7
  5
2B5
 10
-1.699823
 20
0.483677
 30
0.0
 11
-1.699823
 21
1.435323
 31
0.0
  0
ARC
  8
0
  6
CONTINUOUS
 62
     7
  5
2B6
 10
-1.684823
 20
1.435323
 30
0.0
 40
0.015
 50
90.0
 51
180.0
  0
LINE
  8
0
  6
CONTINUOUS
 62
     7
  5
2B7
 10
-1.684823
 20
1.450323
 30
0.0
 11
-1.6785
 21
1.450323
 31
0.0
  0
LINE
  8
0
  6
CONTINUOUS
 62
     7
  5
2B8
 10
-1.6785
 20
1.450323
 30
0.0
 11
-1.6785
 21
1.519468
 31
0.0
  0
LINE
  8
0
  6
CONTINUOUS
 62
     7
  5
2B9
 10
-1.6785
 20
1.519468
 30
0.0
 11
-1.685032
 21
1.519468
 31
0.0
  0
ARC
  8
0
  6
CONTINUOUS
 62
     7
  5
2BA
 10
-1.685032
 20
1.534468
 30
0.0
 40
0.015
 50
180.0
 51
270.0
  0
LINE
  8
0
  6
CONTINUOUS
 62
     7
  5
2BB
 10
-1.700032
 20
1.534468
 30
0.0
 11
-1.700032
 21
1.884323
 31
0.0
  0
ARC
  8
0
  6
CONTINUOUS
 62
     7
  5
2BC
 10
-1.670032
 20
1.884323
 30
0.0
 40
0.03
 50
90.0
 51
180.0
  0
LINE
  8
0
  6
CONTINUOUS
 62
     7
  5
2BD
 10
-1.670032
 20
1.914323
 30
0.0
 11
-1.089968
 21
1.914323
 31
0.0
  0
ARC
  8
0
  6
CONTINUOUS
 62
     7
  5
2BE
 10
-1.089968
 20
1.884323
 30
0.0
 40
0.03
 50
0.0
 51
90.0
  0
LINE
  8
0
  6
CONTINUOUS
 62
     7
  5
2BF
 10
-1.059968
 20
1.884323
 30
0.0
 11
-1.059968
 21
1.534468
 31
0.0
  0
ARC
  8
0
  6
CONTINUOUS
 62
     7
  5
2C0
 10
-1.074968
 20
1.534468
 30
0.0
 40
0.015
 50
270.0
 51
360.0
  0
LINE
  8
0
  6
CONTINUOUS
 62
     7
  5
2C1
 10
-1.074968
 20
1.519468
 30
0.0
 11
-1.0815
 21
1.519468
 31
0.0
  0
LINE
  8
0
  6
CONTINUOUS
 62
     7
  5
2C2
 10
-1.0815
 20
1.519468
 30
0.0
 11
-1.0815
 21
1.450323
 31
0.0
  0
LINE
  8
0
  6
CONTINUOUS
 62
     7
  5
2C3
 10
-1.0815
 20
1.450323
 30
0.0
 11
-1.075177
 21
1.450323
 31
0.0
  0
ARC
  8
0
  6
CONTINUOUS
 62
     7
  5
2C4
 10
-1.075177
 20
1.435323
 30
0.0
 40
0.015
 50
0.0
 51
90.0
  0
LINE
  8
0
  6
CONTINUOUS
 62
     7
  5
2C5
 10
-1.060177
 20
1.435323
 30
0.0
 11
-1.060177
 21
0.483677
 31
0.0
  0
LINE
  8
0
  6
CONTINUOUS
 62
     7
  5
2C6
 10
-1.060177
 20
0.483677
 30
0.0
 11
-1.100462
 21
0.483677
 31
0.0
  0
LINE
  8
0
  6
CONTINUOUS
 62
     7
  5
2C7
 10
-1.100462
 20
0.483677
 30
0.0
 11
-1.100462
 21
0.099
 31
0.0
  0
LINE
  8
0
  6
CONTINUOUS
 62
     7
  5
2C8
 10
-1.100462
 20
0.099
 30
0.0
 11
-0.930636
 21
0.099
 31
0.0
  0
LINE
  8
0
  6
CONTINUOUS
 62
     7
  5
2C9
 10
-0.930636
 20
0.099
 30
0.0
 11
-0.930636
 21
0.0
 31
0.0
  0
LINE
  8
0
  6
CONTINUOUS
 62
     7
  5
2CA
 10
2.059
 20
1.923
 30
0.0
 11
2.059
 21
2.87
 31
0.0
  0
LINE
  8
0
  6
CONTINUOUS
 62
     7
  5
2CB
 10
-2.059
 20
2.87
 30
0.0
 11
-2.059
 21
1.923
 31
0.0
  0
LINE
  8
0
  6
CONTINUOUS
 62
     7
  5
2CC
 10
-0.49
 20
3.24
 30
0.0
 11
-0.49
 21
2.87
 31
0.0
  0
LINE
  8
0
  6
CONTINUOUS
 62
     7
  5
2CD
 10
-0.89
 20
3.24
 30
0.0
 11
-0.49
 21
3.24
 31
0.0
  0
LINE
  8
0
  6
CONTINUOUS
 62
     7
  5
2CE
 10
-0.89
 20
2.87
 30
0.0
 11
-0.89
 21
3.24
 31
0.0
  0
LINE
  8
0
  6
CONTINUOUS
 62
     7
  5
2CF
 10
-0.89
 20
3.24
 30
0.0
 11
-2.059
 21
3.24
 31
0.0
  0
LINE
  8
0
  6
CONTINUOUS
 62
     7
  5
2D0
 10
-2.059
 20
3.24
 30
0.0
 11
-2.059
 21
2.87
 31
0.0
  0
LINE
  8
0
  6
CONTINUOUS
 62
     7
  5
2D1
 10
2.059
 20
2.87
 30
0.0
 11
2.059
 21
3.24
 31
0.0
  0
LINE
  8
0
  6
CONTINUOUS
 62
     7
  5
2D2
 10
2.059
 20
3.24
 30
0.0
 11
-0.49
 21
3.24
 31
0.0
  0
LINE
  8
0
  6
CONTINUOUS
 62
     7
  5
2D3
 10
2.059
 20
3.24
 30
0.0
 11
2.059
 21
3.44
 31
0.0
  0
LINE
  8
0
  6
CONTINUOUS
 62
     7
  5
2D4
 10
2.059
 20
3.44
 30
0.0
 11
-2.059
 21
3.44
 31
0.0
  0
LINE
  8
0
  6
CONTINUOUS
 62
     7
  5
2D5
 10
-2.059
 20
3.44
 30
0.0
 11
-2.059
 21
3.24
 31
0.0
  0
LINE
  8
0
  6
CONTINUOUS
 62
     7
  5
2D6
 10
2.059
 20
2.87
 30
0.0
 11
2.06
 21
2.87
 31
0.0
  0
LINE
  8
0
  6
CONTINUOUS
 62
     7
  5
2D7
 10
2.06
 20
3.44
 30
0.0
 11
-2.06
 21
3.44
 31
0.0
  0
LINE
  8
0
  6
CONTINUOUS
 62
     7
  5
2D8
 10
-2.06
 20
3.44
 30
0.0
 11
-2.06
 21
2.87
 31
0.0
  0
LINE
  8
0
  6
CONTINUOUS
 62
     7
  5
2D9
 10
0.53
 20
3.44
 30
0.0
 11
0.53
 21
3.74
 31
0.0
  0
LINE
  8
0
  6
CONTINUOUS
 62
     7
  5
2DA
 10
0.53
 20
3.74
 30
0.0
 11
-0.53
 21
3.74
 31
0.0
  0
LINE
  8
0
  6
CONTINUOUS
 62
     7
  5
2DB
 10
-0.53
 20
3.74
 30
0.0
 11
-0.53
 21
3.44
 31
0.0
  0
LINE
  8
0
  6
CONTINUOUS
 62
     7
  5
2DC
 10
2.06
 20
2.87
 30
0.0
 11
2.06
 21
3.44
 31
0.0
  0
ARC
  8
0
  6
CONTINUOUS
 62
     7
  5
2DD
 10
-1.0975
 20
0.669
 30
0.0
 40
0.03
 50
310.280918
 51
0.0
  0
LINE
  8
0
  6
CONTINUOUS
 62
     7
  5
2DE
 10
-1.0675
 20
0.669
 30
0.0
 11
-1.0675
 21
1.413
 31
0.0
  0
ARC
  8
0
  6
CONTINUOUS
 62
     7
  5
2DF
 10
-1.0975
 20
1.413
 30
0.0
 40
0.03
 50
0.0
 51
90.0
  0
LINE
  8
0
  6
CONTINUOUS
 62
     7
  5
2E0
 10
-1.0975
 20
1.443
 30
0.0
 11
-1.6625
 21
1.443
 31
0.0
  0
ARC
  8
0
  6
CONTINUOUS
 62
     7
  5
2E1
 10
-1.6625
 20
1.413
 30
0.0
 40
0.03
 50
90.0
 51
180.0
  0
LINE
  8
0
  6
CONTINUOUS
 62
     7
  5
2E2
 10
-1.6925
 20
1.413
 30
0.0
 11
-1.6925
 21
0.669
 31
0.0
  0
ARC
  8
0
  6
CONTINUOUS
 62
     7
  5
2E3
 10
-1.6625
 20
0.669
 30
0.0
 40
0.03
 50
180.0
 51
229.719082
  0
ARC
  8
0
  6
CONTINUOUS
 62
     7
  5
2E4
 10
-1.5915
 20
0.549
 30
0.0
 40
0.03
 50
263.183527
 51
270.0
  0
LINE
  8
0
  6
CONTINUOUS
 62
     7
  5
2E5
 10
-1.5915
 20
0.519
 30
0.0
 11
-1.55
 21
0.519
 31
0.0
  0
ARC
  8
0
  6
CONTINUOUS
 62
     7
  5
2E6
 10
-1.55
 20
0.531
 30
0.0
 40
0.012
 50
270.0
 51
314.900872
  0
LINE
  8
0
  6
CONTINUOUS
 62
     7
  5
2E7
 10
-1.541529
 20
0.5225
 30
0.0
 11
-1.533
 21
0.531
 31
0.0
  0
LINE
  8
0
  6
CONTINUOUS
 62
     7
  5
2E8
 10
-1.533
 20
0.531
 30
0.0
 11
-1.227
 21
0.531
 31
0.0
  0
LINE
  8
0
  6
CONTINUOUS
 62
     7
  5
2E9
 10
-1.227
 20
0.531
 30
0.0
 11
-1.218471
 21
0.5225
 31
0.0
  0
ARC
  8
0
  6
CONTINUOUS
 62
     7
  5
2EA
 10
-1.21
 20
0.531
 30
0.0
 40
0.012
 50
225.099128
 51
270.0
  0
LINE
  8
0
  6
CONTINUOUS
 62
     7
  5
2EB
 10
-1.21
 20
0.519
 30
0.0
 11
-1.1685
 21
0.519
 31
0.0
  0
ARC
  8
0
  6
CONTINUOUS
 62
     7
  5
2EC
 10
-1.1685
 20
0.549
 30
0.0
 40
0.03
 50
270.0
 51
276.816473
  0
LINE
  8
0
  6
CONTINUOUS
 62
     7
  5
2ED
 10
-1.15
 20
0.69
 30
0.0
 11
-1.61
 21
0.69
 31
0.0
  0
ARC
  8
0
  6
CONTINUOUS
 62
     7
  5
2EE
 10
-1.61
 20
0.71
 30
0.0
 40
0.02
 50
180.0
 51
270.0
  0
LINE
  8
0
  6
CONTINUOUS
 62
     7
  5
2EF
 10
-1.63
 20
0.71
 30
0.0
 11
-1.63
 21
0.767641
 31
0.0
  0
ARC
  8
0
  6
CONTINUOUS
 62
     7
  5
2F0
 10
-1.61
 20
0.767641
 30
0.0
 40
0.02
 50
150.0
 51
180.0
  0
LINE
  8
0
  6
CONTINUOUS
 62
     7
  5
2F1
 10
-1.627321
 20
0.777641
 30
0.0
 11
-1.601679
 21
0.822053
 31
0.0
  0
ARC
  8
0
  6
CONTINUOUS
 62
     7
  5
2F2
 10
-1.619
 20
0.832053
 30
0.0
 40
0.02
 50
330.0
 51
0.0
  0
LINE
  8
0
  6
CONTINUOUS
 62
     7
  5
2F3
 10
-1.599
 20
0.832053
 30
0.0
 11
-1.599
 21
0.963
 31
0.0
  0
ARC
  8
0
  6
CONTINUOUS
 62
     7
  5
2F4
 10
-1.38
 20
0.963
 30
0.0
 40
0.219
 50
0.0
 51
180.0
  0
LINE
  8
0
  6
CONTINUOUS
 62
     7
  5
2F5
 10
-1.161
 20
0.963
 30
0.0
 11
-1.161
 21
0.832053
 31
0.0
  0
ARC
  8
0
  6
CONTINUOUS
 62
     7
  5
2F6
 10
-1.141
 20
0.832053
 30
0.0
 40
0.02
 50
180.0
 51
210.0
  0
LINE
  8
0
  6
CONTINUOUS
 62
     7
  5
2F7
 10
-1.158321
 20
0.822053
 30
0.0
 11
-1.132679
 21
0.777641
 31
0.0
  0
ARC
  8
0
  6
CONTINUOUS
 62
     7
  5
2F8
 10
-1.15
 20
0.767641
 30
0.0
 40
0.02
 50
0.0
 51
30.0
  0
LINE
  8
0
  6
CONTINUOUS
 62
     7
  5
2F9
 10
-1.13
 20
0.767641
 30
0.0
 11
-1.13
 21
0.71
 31
0.0
  0
ARC
  8
0
  6
CONTINUOUS
 62
     7
  5
2FA
 10
-1.15
 20
0.71
 30
0.0
 40
0.02
 50
270.0
 51
0.0
  0
LINE
  8
0
  6
CONTINUOUS
 62
     7
  5
2FB
 10
-1.599
 20
0.932
 30
0.0
 11
-1.161
 21
0.932
 31
0.0
  0
LINE
  8
0
  6
CONTINUOUS
 62
     7
  5
2FC
 10
-1.549
 20
0.882
 30
0.0
 11
-1.211
 21
0.882
 31
0.0
  0
LINE
  8
0
  6
CONTINUOUS
 62
     7
  5
2FD
 10
-1.211
 20
1.445
 30
0.0
 11
-1.549
 21
1.445
 31
0.0
  0
LINE
  8
0
  6
CONTINUOUS
 62
     7
  5
2FE
 10
-1.164939
 20
0.646113
 30
0.0
 11
-1.164939
 21
0.506114
 31
0.0
  0
LINE
  8
0
  6
CONTINUOUS
 62
     7
  5
2FF
 10
-1.595061
 20
0.646113
 30
0.0
 11
-1.695
 21
0.646113
 31
0.0
  0
LINE
  8
0
  6
CONTINUOUS
 62
     7
  5
300
 10
-1.64
 20
0.065
 30
0.0
 11
-1.12
 21
0.065
 31
0.0
  0
LINE
  8
0
  6
CONTINUOUS
 62
     7
  5
301
 10
-1.12
 20
0.065
 30
0.0
 11
-1.12
 21
0.13
 31
0.0
  0
LINE
  8
0
  6
CONTINUOUS
 62
     7
  5
302
 10
-1.64
 20
0.13
 30
0.0
 11
-1.64
 21
0.065
 31
0.0
  0
LINE
  8
0
  6
CONTINUOUS
 62
     7
  5
303
 10
-1.12
 20
0.13
 30
0.0
 11
-1.12
 21
0.31
 31
0.0
  0
LINE
  8
0
  6
CONTINUOUS
 62
     7
  5
304
 10
-1.64
 20
0.31
 30
0.0
 11
-1.12
 21
0.31
 31
0.0
  0
LINE
  8
0
  6
CONTINUOUS
 62
     7
  5
305
 10
-1.64
 20
0.31
 30
0.0
 11
-1.64
 21
0.13
 31
0.0
  0
LINE
  8
0
  6
CONTINUOUS
 62
     7
  5
306
 10
-1.695
 20
0.646113
 30
0.0
 11
-1.695
 21
0.499998
 31
0.0
  0
ARC
  8
0
  6
CONTINUOUS
 62
     7
  5
307
 10
-1.68
 20
0.499998
 30
0.0
 40
0.015
 50
180.0
 51
270.0
  0
LINE
  8
0
  6
CONTINUOUS
 62
     7
  5
308
 10
-1.68
 20
0.484998
 30
0.0
 11
-1.663
 21
0.484998
 31
0.0
  0
ARC
  8
0
  6
CONTINUOUS
 62
     7
  5
309
 10
-1.08
 20
0.499998
 30
0.0
 40
0.015
 50
270.0
 51
0.0
  0
LINE
  8
0
  6
CONTINUOUS
 62
     7
  5
30A
 10
-1.065
 20
0.499998
 30
0.0
 11
-1.065
 21
0.646113
 31
0.0
  0
LINE
  8
0
  6
CONTINUOUS
 62
     7
  5
30B
 10
-1.065
 20
0.646113
 30
0.0
 11
-1.164939
 21
0.646113
 31
0.0
  0
ARC
  8
0
  6
CONTINUOUS
 62
     7
  5
30C
 10
-1.58
 20
0.392
 30
0.0
 40
0.015
 50
180.0
 51
270.0
  0
LINE
  8
0
  6
CONTINUOUS
 62
     7
  5
30D
 10
-1.595
 20
0.392
 30
0.0
 11
-1.595
 21
0.447
 31
0.0
  0
ARC
  8
0
  6
CONTINUOUS
 62
     7
  5
30E
 10
-1.58
 20
0.447
 30
0.0
 40
0.015
 50
90.0
 51
180.0
  0
LINE
  8
0
  6
CONTINUOUS
 62
     7
  5
30F
 10
-1.58
 20
0.462
 30
0.0
 11
-1.553
 21
0.462
 31
0.0
  0
ARC
  8
0
  6
CONTINUOUS
 62
     7
  5
310
 10
-1.553
 20
0.477
 30
0.0
 40
0.015
 50
270.0
 51
0.0
  0
LINE
  8
0
  6
CONTINUOUS
 62
     7
  5
311
 10
-1.538
 20
0.477
 30
0.0
 11
-1.538
 21
0.496114
 31
0.0
  0
ARC
  8
0
  6
CONTINUOUS
 62
     7
  5
312
 10
-1.663
 20
0.469998
 30
0.0
 40
0.015
 50
0.0
 51
90.0
  0
LINE
  8
0
  6
CONTINUOUS
 62
     7
  5
313
 10
-1.648
 20
0.469998
 30
0.0
 11
-1.648
 21
0.107644
 31
0.0
  0
ARC
  8
0
  6
CONTINUOUS
 62
     7
  5
314
 10
-1.663
 20
0.107644
 30
0.0
 40
0.015
 50
270.0
 51
0.0
  0
LINE
  8
0
  6
CONTINUOUS
 62
     7
  5
315
 10
-1.164939
 20
0.506114
 30
0.0
 11
-1.212
 21
0.506114
 31
0.0
  0
ARC
  8
0
  6
CONTINUOUS
 62
     7
  5
316
 10
-1.212
 20
0.496114
 30
0.0
 40
0.01
 50
90.0
 51
180.0
  0
LINE
  8
0
  6
CONTINUOUS
 62
     7
  5
317
 10
-1.222
 20
0.496114
 30
0.0
 11
-1.222
 21
0.477
 31
0.0
  0
ARC
  8
0
  6
CONTINUOUS
 62
     7
  5
318
 10
-1.207
 20
0.477
 30
0.0
 40
0.015
 50
180.0
 51
270.0
  0
LINE
  8
0
  6
CONTINUOUS
 62
     7
  5
319
 10
-1.207
 20
0.462
 30
0.0
 11
-1.18
 21
0.462
 31
0.0
  0
ARC
  8
0
  6
CONTINUOUS
 62
     7
  5
31A
 10
-1.18
 20
0.447
 30
0.0
 40
0.015
 50
0.0
 51
90.0
  0
LINE
  8
0
  6
CONTINUOUS
 62
     7
  5
31B
 10
-1.165
 20
0.447
 30
0.0
 11
-1.165
 21
0.392
 31
0.0
  0
ARC
  8
0
  6
CONTINUOUS
 62
     7
  5
31C
 10
-1.18
 20
0.392
 30
0.0
 40
0.015
 50
270.0
 51
0.0
  0
LINE
  8
0
  6
CONTINUOUS
 62
     7
  5
31D
 10
-1.18
 20
0.377
 30
0.0
 11
-1.58
 21
0.377
 31
0.0
  0
ARC
  8
0
  6
CONTINUOUS
 62
     7
  5
31E
 10
-1.548
 20
0.496114
 30
0.0
 40
0.01
 50
0.0
 51
90.0
  0
LINE
  8
0
  6
CONTINUOUS
 62
     7
  5
31F
 10
-1.548
 20
0.506114
 30
0.0
 11
-1.595061
 21
0.506114
 31
0.0
  0
LINE
  8
0
  6
CONTINUOUS
 62
     7
  5
320
 10
-1.595061
 20
0.506114
 30
0.0
 11
-1.595061
 21
0.646113
 31
0.0
  0
LINE
  8
0
  6
CONTINUOUS
 62
     7
  5
321
 10
-1.663
 20
0.092644
 30
0.0
 11
-1.817
 21
0.092644
 31
0.0
  0
LINE
  8
0
  6
CONTINUOUS
 62
     7
  5
322
 10
-0.943
 20
0.092644
 30
0.0
 11
-1.097
 21
0.092644
 31
0.0
  0
LINE
  8
0
  6
CONTINUOUS
 62
     7
  5
323
 10
-1.817
 20
0.092644
 30
0.0
 11
-1.817
 21
0.021
 31
0.0
  0
LINE
  8
0
  6
CONTINUOUS
 62
     7
  5
324
 10
-1.817
 20
0.021
 30
0.0
 11
-0.943
 21
0.021
 31
0.0
  0
LINE
  8
0
  6
CONTINUOUS
 62
     7
  5
325
 10
-0.943
 20
0.021
 30
0.0
 11
-0.943
 21
0.092644
 31
0.0
  0
ARC
  8
0
  6
CONTINUOUS
 62
     7
  5
326
 10
-1.097
 20
0.107644
 30
0.0
 40
0.015
 50
180.0
 51
270.0
  0
LINE
  8
0
  6
CONTINUOUS
 62
     7
  5
327
 10
-1.112
 20
0.107644
 30
0.0
 11
-1.112
 21
0.469998
 31
0.0
  0
ARC
  8
0
  6
CONTINUOUS
 62
     7
  5
328
 10
-1.097
 20
0.469998
 30
0.0
 40
0.015
 50
90.0
 51
180.0
  0
LINE
  8
0
  6
CONTINUOUS
 62
     7
  5
329
 10
-1.097
 20
0.484998
 30
0.0
 11
-1.08
 21
0.484998
 31
0.0
  0
ARC
  8
0
  6
CONTINUOUS
 62
     7
  5
32A
 10
-1.38
 20
1.007
 30
0.0
 40
0.187
 50
221.947486
 51
318.052514
  0
LINE
  8
0
  6
CONTINUOUS
 62
     7
  5
32B
 10
-1.599
 20
0.932
 30
0.0
 11
-1.549
 21
0.882
 31
0.0
  0
LINE
  8
0
  6
CONTINUOUS
 62
     7
  5
32C
 10
-1.211
 20
0.882
 30
0.0
 11
-1.161
 21
0.932
 31
0.0
  0
LINE
  8
0
  6
CONTINUOUS
 62
     7
  5
32D
 10
-1.208902
 20
1.442902
 30
0.0
 11
-1.211
 21
1.445
 31
0.0
  0
LINE
  8
0
  6
CONTINUOUS
 62
     7
  5
32E
 10
-1.549
 20
1.445
 30
0.0
 11
-1.551
 21
1.443
 31
0.0
  0
ARC
  8
0
  6
CONTINUOUS
 62
     7
  5
32F
 10
0.2825
 20
0.669
 30
0.0
 40
0.03
 50
310.280918
 51
0.0
  0
LINE
  8
0
  6
CONTINUOUS
 62
     7
  5
330
 10
0.3125
 20
0.669
 30
0.0
 11
0.3125
 21
1.413
 31
0.0
  0
ARC
  8
0
  6
CONTINUOUS
 62
     7
  5
331
 10
0.2825
 20
1.413
 30
0.0
 40
0.03
 50
0.0
 51
90.0
  0
LINE
  8
0
  6
CONTINUOUS
 62
     7
  5
332
 10
0.2825
 20
1.443
 30
0.0
 11
-0.2825
 21
1.443
 31
0.0
  0
ARC
  8
0
  6
CONTINUOUS
 62
     7
  5
333
 10
-0.2825
 20
1.413
 30
0.0
 40
0.03
 50
90.0
 51
180.0
  0
LINE
  8
0
  6
CONTINUOUS
 62
     7
  5
334
 10
-0.3125
 20
1.413
 30
0.0
 11
-0.3125
 21
0.669
 31
0.0
  0
ARC
  8
0
  6
CONTINUOUS
 62
     7
  5
335
 10
-0.2825
 20
0.669
 30
0.0
 40
0.03
 50
180.0
 51
229.719082
  0
ARC
  8
0
  6
CONTINUOUS
 62
     7
  5
336
 10
-0.2115
 20
0.549
 30
0.0
 40
0.03
 50
263.183527
 51
270.0
  0
LINE
  8
0
  6
CONTINUOUS
 62
     7
  5
337
 10
-0.2115
 20
0.519
 30
0.0
 11
-0.17
 21
0.519
 31
0.0
  0
ARC
  8
0
  6
CONTINUOUS
 62
     7
  5
338
 10
-0.17
 20
0.531
 30
0.0
 40
0.012
 50
270.0
 51
314.900872
  0
LINE
  8
0
  6
CONTINUOUS
 62
     7
  5
339
 10
-0.161529
 20
0.5225
 30
0.0
 11
-0.153
 21
0.531
 31
0.0
  0
LINE
  8
0
  6
CONTINUOUS
 62
     7
  5
33A
 10
-0.153
 20
0.531
 30
0.0
 11
0.153
 21
0.531
 31
0.0
  0
LINE
  8
0
  6
CONTINUOUS
 62
     7
  5
33B
 10
0.153
 20
0.531
 30
0.0
 11
0.161529
 21
0.5225
 31
0.0
  0
ARC
  8
0
  6
CONTINUOUS
 62
     7
  5
33C
 10
0.17
 20
0.531
 30
0.0
 40
0.012
 50
225.099128
 51
270.0
  0
LINE
  8
0
  6
CONTINUOUS
 62
     7
  5
33D
 10
0.17
 20
0.519
 30
0.0
 11
0.2115
 21
0.519
 31
0.0
  0
ARC
  8
0
  6
CONTINUOUS
 62
     7
  5
33E
 10
0.2115
 20
0.549
 30
0.0
 40
0.03
 50
270.0
 51
276.816473
  0
LINE
  8
0
  6
CONTINUOUS
 62
     7
  5
33F
 10
0.23
 20
0.69
 30
0.0
 11
-0.23
 21
0.69
 31
0.0
  0
ARC
  8
0
  6
CONTINUOUS
 62
     7
  5
340
 10
-0.23
 20
0.71
 30
0.0
 40
0.02
 50
180.0
 51
270.0
  0
LINE
  8
0
  6
CONTINUOUS
 62
     7
  5
341
 10
-0.25
 20
0.71
 30
0.0
 11
-0.25
 21
0.767641
 31
0.0
  0
ARC
  8
0
  6
CONTINUOUS
 62
     7
  5
342
 10
-0.23
 20
0.767641
 30
0.0
 40
0.02
 50
150.0
 51
180.0
  0
LINE
  8
0
  6
CONTINUOUS
 62
     7
  5
343
 10
-0.247321
 20
0.777641
 30
0.0
 11
-0.221679
 21
0.822053
 31
0.0
  0
ARC
  8
0
  6
CONTINUOUS
 62
     7
  5
344
 10
-0.239
 20
0.832053
 30
0.0
 40
0.02
 50
330.0
 51
0.0
  0
LINE
  8
0
  6
CONTINUOUS
 62
     7
  5
345
 10
-0.219
 20
0.832053
 30
0.0
 11
-0.219
 21
0.963
 31
0.0
  0
ARC
  8
0
  6
CONTINUOUS
 62
     7
  5
346
 10
0.0
 20
0.963
 30
0.0
 40
0.219
 50
0.0
 51
180.0
  0
LINE
  8
0
  6
CONTINUOUS
 62
     7
  5
347
 10
0.219
 20
0.963
 30
0.0
 11
0.219
 21
0.832053
 31
0.0
  0
ARC
  8
0
  6
CONTINUOUS
 62
     7
  5
348
 10
0.239
 20
0.832053
 30
0.0
 40
0.02
 50
180.0
 51
210.0
  0
LINE
  8
0
  6
CONTINUOUS
 62
     7
  5
349
 10
0.221679
 20
0.822053
 30
0.0
 11
0.247321
 21
0.777641
 31
0.0
  0
ARC
  8
0
  6
CONTINUOUS
 62
     7
  5
34A
 10
0.23
 20
0.767641
 30
0.0
 40
0.02
 50
0.0
 51
30.0
  0
LINE
  8
0
  6
CONTINUOUS
 62
     7
  5
34B
 10
0.25
 20
0.767641
 30
0.0
 11
0.25
 21
0.71
 31
0.0
  0
ARC
  8
0
  6
CONTINUOUS
 62
     7
  5
34C
 10
0.23
 20
0.71
 30
0.0
 40
0.02
 50
270.0
 51
0.0
  0
LINE
  8
0
  6
CONTINUOUS
 62
     7
  5
34D
 10
-0.219
 20
0.932
 30
0.0
 11
0.219
 21
0.932
 31
0.0
  0
LINE
  8
0
  6
CONTINUOUS
 62
     7
  5
34E
 10
-0.169
 20
0.882
 30
0.0
 11
0.169
 21
0.882
 31
0.0
  0
LINE
  8
0
  6
CONTINUOUS
 62
     7
  5
34F
 10
0.169
 20
1.445
 30
0.0
 11
-0.169
 21
1.445
 31
0.0
  0
LINE
  8
0
  6
CONTINUOUS
 62
     7
  5
350
 10
0.215061
 20
0.646113
 30
0.0
 11
0.215061
 21
0.506114
 31
0.0
  0
LINE
  8
0
  6
CONTINUOUS
 62
     7
  5
351
 10
-0.215061
 20
0.646113
 30
0.0
 11
-0.315
 21
0.646113
 31
0.0
  0
LINE
  8
0
  6
CONTINUOUS
 62
     7
  5
352
 10
-0.26
 20
0.065
 30
0.0
 11
0.26
 21
0.065
 31
0.0
  0
LINE
  8
0
  6
CONTINUOUS
 62
     7
  5
353
 10
0.26
 20
0.065
 30
0.0
 11
0.26
 21
0.13
 31
0.0
  0
LINE
  8
0
  6
CONTINUOUS
 62
     7
  5
354
 10
-0.26
 20
0.13
 30
0.0
 11
-0.26
 21
0.065
 31
0.0
  0
LINE
  8
0
  6
CONTINUOUS
 62
     7
  5
355
 10
0.26
 20
0.13
 30
0.0
 11
0.26
 21
0.31
 31
0.0
  0
LINE
  8
0
  6
CONTINUOUS
 62
     7
  5
356
 10
-0.26
 20
0.31
 30
0.0
 11
0.26
 21
0.31
 31
0.0
  0
LINE
  8
0
  6
CONTINUOUS
 62
     7
  5
357
 10
-0.26
 20
0.31
 30
0.0
 11
-0.26
 21
0.13
 31
0.0
  0
LINE
  8
0
  6
CONTINUOUS
 62
     7
  5
358
 10
-0.315
 20
0.646113
 30
0.0
 11
-0.315
 21
0.499998
 31
0.0
  0
ARC
  8
0
  6
CONTINUOUS
 62
     7
  5
359
 10
-0.3
 20
0.499998
 30
0.0
 40
0.015
 50
180.0
 51
270.0
  0
LINE
  8
0
  6
CONTINUOUS
 62
     7
  5
35A
 10
-0.3
 20
0.484998
 30
0.0
 11
-0.283
 21
0.484998
 31
0.0
  0
ARC
  8
0
  6
CONTINUOUS
 62
     7
  5
35B
 10
0.3
 20
0.499998
 30
0.0
 40
0.015
 50
270.0
 51
0.0
  0
LINE
  8
0
  6
CONTINUOUS
 62
     7
  5
35C
 10
0.315
 20
0.499998
 30
0.0
 11
0.315
 21
0.646113
 31
0.0
  0
LINE
  8
0
  6
CONTINUOUS
 62
     7
  5
35D
 10
0.315
 20
0.646113
 30
0.0
 11
0.215061
 21
0.646113
 31
0.0
  0
ARC
  8
0
  6
CONTINUOUS
 62
     7
  5
35E
 10
-0.2
 20
0.392
 30
0.0
 40
0.015
 50
180.0
 51
270.0
  0
LINE
  8
0
  6
CONTINUOUS
 62
     7
  5
35F
 10
-0.215
 20
0.392
 30
0.0
 11
-0.215
 21
0.447
 31
0.0
  0
ARC
  8
0
  6
CONTINUOUS
 62
     7
  5
360
 10
-0.2
 20
0.447
 30
0.0
 40
0.015
 50
90.0
 51
180.0
  0
LINE
  8
0
  6
CONTINUOUS
 62
     7
  5
361
 10
-0.2
 20
0.462
 30
0.0
 11
-0.173
 21
0.462
 31
0.0
  0
ARC
  8
0
  6
CONTINUOUS
 62
     7
  5
362
 10
-0.173
 20
0.477
 30
0.0
 40
0.015
 50
270.0
 51
0.0
  0
LINE
  8
0
  6
CONTINUOUS
 62
     7
  5
363
 10
-0.158
 20
0.477
 30
0.0
 11
-0.158
 21
0.496114
 31
0.0
  0
ARC
  8
0
  6
CONTINUOUS
 62
     7
  5
364
 10
-0.283
 20
0.469998
 30
0.0
 40
0.015
 50
0.0
 51
90.0
  0
LINE
  8
0
  6
CONTINUOUS
 62
     7
  5
365
 10
-0.268
 20
0.469998
 30
0.0
 11
-0.268
 21
0.107644
 31
0.0
  0
ARC
  8
0
  6
CONTINUOUS
 62
     7
  5
366
 10
-0.283
 20
0.107644
 30
0.0
 40
0.015
 50
270.0
 51
0.0
  0
LINE
  8
0
  6
CONTINUOUS
 62
     7
  5
367
 10
0.215061
 20
0.506114
 30
0.0
 11
0.168
 21
0.506114
 31
0.0
  0
ARC
  8
0
  6
CONTINUOUS
 62
     7
  5
368
 10
0.168
 20
0.496114
 30
0.0
 40
0.01
 50
90.0
 51
180.0
  0
LINE
  8
0
  6
CONTINUOUS
 62
     7
  5
369
 10
0.158
 20
0.496114
 30
0.0
 11
0.158
 21
0.477
 31
0.0
  0
ARC
  8
0
  6
CONTINUOUS
 62
     7
  5
36A
 10
0.173
 20
0.477
 30
0.0
 40
0.015
 50
180.0
 51
270.0
  0
LINE
  8
0
  6
CONTINUOUS
 62
     7
  5
36B
 10
0.173
 20
0.462
 30
0.0
 11
0.2
 21
0.462
 31
0.0
  0
ARC
  8
0
  6
CONTINUOUS
 62
     7
  5
36C
 10
0.2
 20
0.447
 30
0.0
 40
0.015
 50
0.0
 51
90.0
  0
LINE
  8
0
  6
CONTINUOUS
 62
     7
  5
36D
 10
0.215
 20
0.447
 30
0.0
 11
0.215
 21
0.392
 31
0.0
  0
ARC
  8
0
  6
CONTINUOUS
 62
     7
  5
36E
 10
0.2
 20
0.392
 30
0.0
 40
0.015
 50
270.0
 51
0.0
  0
LINE
  8
0
  6
CONTINUOUS
 62
     7
  5
36F
 10
0.2
 20
0.377
 30
0.0
 11
-0.2
 21
0.377
 31
0.0
  0
ARC
  8
0
  6
CONTINUOUS
 62
     7
  5
370
 10
-0.168
 20
0.496114
 30
0.0
 40
0.01
 50
0.0
 51
90.0
  0
LINE
  8
0
  6
CONTINUOUS
 62
     7
  5
371
 10
-0.168
 20
0.506114
 30
0.0
 11
-0.215061
 21
0.506114
 31
0.0
  0
LINE
  8
0
  6
CONTINUOUS
 62
     7
  5
372
 10
-0.215061
 20
0.506114
 30
0.0
 11
-0.215061
 21
0.646113
 31
0.0
  0
LINE
  8
0
  6
CONTINUOUS
 62
     7
  5
373
 10
-0.283
 20
0.092644
 30
0.0
 11
-0.437
 21
0.092644
 31
0.0
  0
LINE
  8
0
  6
CONTINUOUS
 62
     7
  5
374
 10
0.437
 20
0.092644
 30
0.0
 11
0.283
 21
0.092644
 31
0.0
  0
LINE
  8
0
  6
CONTINUOUS
 62
     7
  5
375
 10
-0.437
 20
0.092644
 30
0.0
 11
-0.437
 21
0.021
 31
0.0
  0
LINE
  8
0
  6
CONTINUOUS
 62
     7
  5
376
 10
-0.437
 20
0.021
 30
0.0
 11
0.437
 21
0.021
 31
0.0
  0
LINE
  8
0
  6
CONTINUOUS
 62
     7
  5
377
 10
0.437
 20
0.021
 30
0.0
 11
0.437
 21
0.092644
 31
0.0
  0
ARC
  8
0
  6
CONTINUOUS
 62
     7
  5
378
 10
0.283
 20
0.107644
 30
0.0
 40
0.015
 50
180.0
 51
270.0
  0
LINE
  8
0
  6
CONTINUOUS
 62
     7
  5
379
 10
0.268
 20
0.107644
 30
0.0
 11
0.268
 21
0.469998
 31
0.0
  0
ARC
  8
0
  6
CONTINUOUS
 62
     7
  5
37A
 10
0.283
 20
0.469998
 30
0.0
 40
0.015
 50
90.0
 51
180.0
  0
LINE
  8
0
  6
CONTINUOUS
 62
     7
  5
37B
 10
0.283
 20
0.484998
 30
0.0
 11
0.3
 21
0.484998
 31
0.0
  0
ARC
  8
0
  6
CONTINUOUS
 62
     7
  5
37C
 10
0.0
 20
1.007
 30
0.0
 40
0.187
 50
221.947486
 51
318.052514
  0
LINE
  8
0
  6
CONTINUOUS
 62
     7
  5
37D
 10
-0.219
 20
0.932
 30
0.0
 11
-0.169
 21
0.882
 31
0.0
  0
LINE
  8
0
  6
CONTINUOUS
 62
     7
  5
37E
 10
0.169
 20
0.882
 30
0.0
 11
0.219
 21
0.932
 31
0.0
  0
LINE
  8
0
  6
CONTINUOUS
 62
     7
  5
37F
 10
0.171098
 20
1.442902
 30
0.0
 11
0.169
 21
1.445
 31
0.0
  0
LINE
  8
0
  6
CONTINUOUS
 62
     7
  5
380
 10
-0.169
 20
1.445
 30
0.0
 11
-0.171
 21
1.443
 31
0.0
  0
ARC
  8
0
  6
CONTINUOUS
 62
     7
  5
381
 10
1.6625
 20
0.669
 30
0.0
 40
0.03
 50
310.280918
 51
0.0
  0
LINE
  8
0
  6
CONTINUOUS
 62
     7
  5
382
 10
1.6925
 20
0.669
 30
0.0
 11
1.6925
 21
1.413
 31
0.0
  0
ARC
  8
0
  6
CONTINUOUS
 62
     7
  5
383
 10
1.6625
 20
1.413
 30
0.0
 40
0.03
 50
0.0
 51
90.0
  0
LINE
  8
0
  6
CONTINUOUS
 62
     7
  5
384
 10
1.6625
 20
1.443
 30
0.0
 11
1.0975
 21
1.443
 31
0.0
  0
ARC
  8
0
  6
CONTINUOUS
 62
     7
  5
385
 10
1.0975
 20
1.413
 30
0.0
 40
0.03
 50
90.0
 51
180.0
  0
LINE
  8
0
  6
CONTINUOUS
 62
     7
  5
386
 10
1.0675
 20
1.413
 30
0.0
 11
1.0675
 21
0.669
 31
0.0
  0
ARC
  8
0
  6
CONTINUOUS
 62
     7
  5
387
 10
1.0975
 20
0.669
 30
0.0
 40
0.03
 50
180.0
 51
229.719082
  0
ARC
  8
0
  6
CONTINUOUS
 62
     7
  5
388
 10
1.1685
 20
0.549
 30
0.0
 40
0.03
 50
263.183527
 51
270.0
  0
LINE
  8
0
  6
CONTINUOUS
 62
     7
  5
389
 10
1.1685
 20
0.519
 30
0.0
 11
1.21
 21
0.519
 31
0.0
  0
ARC
  8
0
  6
CONTINUOUS
 62
     7
  5
38A
 10
1.21
 20
0.531
 30
0.0
 40
0.012
 50
270.0
 51
314.900872
  0
LINE
  8
0
  6
CONTINUOUS
 62
     7
  5
38B
 10
1.218471
 20
0.5225
 30
0.0
 11
1.227
 21
0.531
 31
0.0
  0
LINE
  8
0
  6
CONTINUOUS
 62
     7
  5
38C
 10
1.227
 20
0.531
 30
0.0
 11
1.533
 21
0.531
 31
0.0
  0
LINE
  8
0
  6
CONTINUOUS
 62
     7
  5
38D
 10
1.533
 20
0.531
 30
0.0
 11
1.541529
 21
0.5225
 31
0.0
  0
ARC
  8
0
  6
CONTINUOUS
 62
     7
  5
38E
 10
1.55
 20
0.531
 30
0.0
 40
0.012
 50
225.099128
 51
270.0
  0
LINE
  8
0
  6
CONTINUOUS
 62
     7
  5
38F
 10
1.55
 20
0.519
 30
0.0
 11
1.5915
 21
0.519
 31
0.0
  0
ARC
  8
0
  6
CONTINUOUS
 62
     7
  5
390
 10
1.5915
 20
0.549
 30
0.0
 40
0.03
 50
270.0
 51
276.816473
  0
LINE
  8
0
  6
CONTINUOUS
 62
     7
  5
391
 10
1.61
 20
0.69
 30
0.0
 11
1.15
 21
0.69
 31
0.0
  0
ARC
  8
0
  6
CONTINUOUS
 62
     7
  5
392
 10
1.15
 20
0.71
 30
0.0
 40
0.02
 50
180.0
 51
270.0
  0
LINE
  8
0
  6
CONTINUOUS
 62
     7
  5
393
 10
1.13
 20
0.71
 30
0.0
 11
1.13
 21
0.767641
 31
0.0
  0
ARC
  8
0
  6
CONTINUOUS
 62
     7
  5
394
 10
1.15
 20
0.767641
 30
0.0
 40
0.02
 50
150.0
 51
180.0
  0
LINE
  8
0
  6
CONTINUOUS
 62
     7
  5
395
 10
1.132679
 20
0.777641
 30
0.0
 11
1.158321
 21
0.822053
 31
0.0
  0
ARC
  8
0
  6
CONTINUOUS
 62
     7
  5
396
 10
1.141
 20
0.832053
 30
0.0
 40
0.02
 50
330.0
 51
0.0
  0
LINE
  8
0
  6
CONTINUOUS
 62
     7
  5
397
 10
1.161
 20
0.832053
 30
0.0
 11
1.161
 21
0.963
 31
0.0
  0
ARC
  8
0
  6
CONTINUOUS
 62
     7
  5
398
 10
1.38
 20
0.963
 30
0.0
 40
0.219
 50
0.0
 51
180.0
  0
LINE
  8
0
  6
CONTINUOUS
 62
     7
  5
399
 10
1.599
 20
0.963
 30
0.0
 11
1.599
 21
0.832053
 31
0.0
  0
ARC
  8
0
  6
CONTINUOUS
 62
     7
  5
39A
 10
1.619
 20
0.832053
 30
0.0
 40
0.02
 50
180.0
 51
210.0
  0
LINE
  8
0
  6
CONTINUOUS
 62
     7
  5
39B
 10
1.601679
 20
0.822053
 30
0.0
 11
1.627321
 21
0.777641
 31
0.0
  0
ARC
  8
0
  6
CONTINUOUS
 62
     7
  5
39C
 10
1.61
 20
0.767641
 30
0.0
 40
0.02
 50
0.0
 51
30.0
  0
LINE
  8
0
  6
CONTINUOUS
 62
     7
  5
39D
 10
1.63
 20
0.767641
 30
0.0
 11
1.63
 21
0.71
 31
0.0
  0
ARC
  8
0
  6
CONTINUOUS
 62
     7
  5
39E
 10
1.61
 20
0.71
 30
0.0
 40
0.02
 50
270.0
 51
0.0
  0
LINE
  8
0
  6
CONTINUOUS
 62
     7
  5
39F
 10
1.161
 20
0.932
 30
0.0
 11
1.599
 21
0.932
 31
0.0
  0
LINE
  8
0
  6
CONTINUOUS
 62
     7
  5
3A0
 10
1.211
 20
0.882
 30
0.0
 11
1.549
 21
0.882
 31
0.0
  0
LINE
  8
0
  6
CONTINUOUS
 62
     7
  5
3A1
 10
1.549
 20
1.445
 30
0.0
 11
1.211
 21
1.445
 31
0.0
  0
LINE
  8
0
  6
CONTINUOUS
 62
     7
  5
3A2
 10
1.595061
 20
0.646113
 30
0.0
 11
1.595061
 21
0.506114
 31
0.0
  0
LINE
  8
0
  6
CONTINUOUS
 62
     7
  5
3A3
 10
1.164939
 20
0.646113
 30
0.0
 11
1.065
 21
0.646113
 31
0.0
  0
LINE
  8
0
  6
CONTINUOUS
 62
     7
  5
3A4
 10
1.12
 20
0.065
 30
0.0
 11
1.64
 21
0.065
 31
0.0
  0
LINE
  8
0
  6
CONTINUOUS
 62
     7
  5
3A5
 10
1.64
 20
0.065
 30
0.0
 11
1.64
 21
0.13
 31
0.0
  0
LINE
  8
0
  6
CONTINUOUS
 62
     7
  5
3A6
 10
1.12
 20
0.13
 30
0.0
 11
1.12
 21
0.065
 31
0.0
  0
LINE
  8
0
  6
CONTINUOUS
 62
     7
  5
3A7
 10
1.64
 20
0.13
 30
0.0
 11
1.64
 21
0.31
 31
0.0
  0
LINE
  8
0
  6
CONTINUOUS
 62
     7
  5
3A8
 10
1.12
 20
0.31
 30
0.0
 11
1.64
 21
0.31
 31
0.0
  0
LINE
  8
0
  6
CONTINUOUS
 62
     7
  5
3A9
 10
1.12
 20
0.31
 30
0.0
 11
1.12
 21
0.13
 31
0.0
  0
LINE
  8
0
  6
CONTINUOUS
 62
     7
  5
3AA
 10
1.065
 20
0.646113
 30
0.0
 11
1.065
 21
0.499998
 31
0.0
  0
ARC
  8
0
  6
CONTINUOUS
 62
     7
  5
3AB
 10
1.08
 20
0.499998
 30
0.0
 40
0.015
 50
180.0
 51
270.0
  0
LINE
  8
0
  6
CONTINUOUS
 62
     7
  5
3AC
 10
1.08
 20
0.484998
 30
0.0
 11
1.097
 21
0.484998
 31
0.0
  0
ARC
  8
0
  6
CONTINUOUS
 62
     7
  5
3AD
 10
1.68
 20
0.499998
 30
0.0
 40
0.015
 50
270.0
 51
0.0
  0
LINE
  8
0
  6
CONTINUOUS
 62
     7
  5
3AE
 10
1.695
 20
0.499998
 30
0.0
 11
1.695
 21
0.646113
 31
0.0
  0
LINE
  8
0
  6
CONTINUOUS
 62
     7
  5
3AF
 10
1.695
 20
0.646113
 30
0.0
 11
1.595061
 21
0.646113
 31
0.0
  0
ARC
  8
0
  6
CONTINUOUS
 62
     7
  5
3B0
 10
1.18
 20
0.392
 30
0.0
 40
0.015
 50
180.0
 51
270.0
  0
LINE
  8
0
  6
CONTINUOUS
 62
     7
  5
3B1
 10
1.165
 20
0.392
 30
0.0
 11
1.165
 21
0.447
 31
0.0
  0
ARC
  8
0
  6
CONTINUOUS
 62
     7
  5
3B2
 10
1.18
 20
0.447
 30
0.0
 40
0.015
 50
90.0
 51
180.0
  0
LINE
  8
0
  6
CONTINUOUS
 62
     7
  5
3B3
 10
1.18
 20
0.462
 30
0.0
 11
1.207
 21
0.462
 31
0.0
  0
ARC
  8
0
  6
CONTINUOUS
 62
     7
  5
3B4
 10
1.207
 20
0.477
 30
0.0
 40
0.015
 50
270.0
 51
0.0
  0
LINE
  8
0
  6
CONTINUOUS
 62
     7
  5
3B5
 10
1.222
 20
0.477
 30
0.0
 11
1.222
 21
0.496114
 31
0.0
  0
ARC
  8
0
  6
CONTINUOUS
 62
     7
  5
3B6
 10
1.097
 20
0.469998
 30
0.0
 40
0.015
 50
0.0
 51
90.0
  0
LINE
  8
0
  6
CONTINUOUS
 62
     7
  5
3B7
 10
1.112
 20
0.469998
 30
0.0
 11
1.112
 21
0.107644
 31
0.0
  0
ARC
  8
0
  6
CONTINUOUS
 62
     7
  5
3B8
 10
1.097
 20
0.107644
 30
0.0
 40
0.015
 50
270.0
 51
0.0
  0
LINE
  8
0
  6
CONTINUOUS
 62
     7
  5
3B9
 10
1.595061
 20
0.506114
 30
0.0
 11
1.548
 21
0.506114
 31
0.0
  0
ARC
  8
0
  6
CONTINUOUS
 62
     7
  5
3BA
 10
1.548
 20
0.496114
 30
0.0
 40
0.01
 50
90.0
 51
180.0
  0
LINE
  8
0
  6
CONTINUOUS
 62
     7
  5
3BB
 10
1.538
 20
0.496114
 30
0.0
 11
1.538
 21
0.477
 31
0.0
  0
ARC
  8
0
  6
CONTINUOUS
 62
     7
  5
3BC
 10
1.553
 20
0.477
 30
0.0
 40
0.015
 50
180.0
 51
270.0
  0
LINE
  8
0
  6
CONTINUOUS
 62
     7
  5
3BD
 10
1.553
 20
0.462
 30
0.0
 11
1.58
 21
0.462
 31
0.0
  0
ARC
  8
0
  6
CONTINUOUS
 62
     7
  5
3BE
 10
1.58
 20
0.447
 30
0.0
 40
0.015
 50
0.0
 51
90.0
  0
LINE
  8
0
  6
CONTINUOUS
 62
     7
  5
3BF
 10
1.595
 20
0.447
 30
0.0
 11
1.595
 21
0.392
 31
0.0
  0
ARC
  8
0
  6
CONTINUOUS
 62
     7
  5
3C0
 10
1.58
 20
0.392
 30
0.0
 40
0.015
 50
270.0
 51
0.0
  0
LINE
  8
0
  6
CONTINUOUS
 62
     7
  5
3C1
 10
1.58
 20
0.377
 30
0.0
 11
1.18
 21
0.377
 31
0.0
  0
ARC
  8
0
  6
CONTINUOUS
 62
     7
  5
3C2
 10
1.212
 20
0.496114
 30
0.0
 40
0.01
 50
0.0
 51
90.0
  0
LINE
  8
0
  6
CONTINUOUS
 62
     7
  5
3C3
 10
1.212
 20
0.506114
 30
0.0
 11
1.164939
 21
0.506114
 31
0.0
  0
LINE
  8
0
  6
CONTINUOUS
 62
     7
  5
3C4
 10
1.164939
 20
0.506114
 30
0.0
 11
1.164939
 21
0.646113
 31
0.0
  0
LINE
  8
0
  6
CONTINUOUS
 62
     7
  5
3C5
 10
1.097
 20
0.092644
 30
0.0
 11
0.943
 21
0.092644
 31
0.0
  0
LINE
  8
0
  6
CONTINUOUS
 62
     7
  5
3C6
 10
1.817
 20
0.092644
 30
0.0
 11
1.663
 21
0.092644
 31
0.0
  0
LINE
  8
0
  6
CONTINUOUS
 62
     7
  5
3C7
 10
0.943
 20
0.092644
 30
0.0
 11
0.943
 21
0.021
 31
0.0
  0
LINE
  8
0
  6
CONTINUOUS
 62
     7
  5
3C8
 10
0.943
 20
0.021
 30
0.0
 11
1.817
 21
0.021
 31
0.0
  0
LINE
  8
0
  6
CONTINUOUS
 62
     7
  5
3C9
 10
1.817
 20
0.021
 30
0.0
 11
1.817
 21
0.092644
 31
0.0
  0
ARC
  8
0
  6
CONTINUOUS
 62
     7
  5
3CA
 10
1.663
 20
0.107644
 30
0.0
 40
0.015
 50
180.0
 51
270.0
  0
LINE
  8
0
  6
CONTINUOUS
 62
     7
  5
3CB
 10
1.648
 20
0.107644
 30
0.0
 11
1.648
 21
0.469998
 31
0.0
  0
ARC
  8
0
  6
CONTINUOUS
 62
     7
  5
3CC
 10
1.663
 20
0.469998
 30
0.0
 40
0.015
 50
90.0
 51
180.0
  0
LINE
  8
0
  6
CONTINUOUS
 62
     7
  5
3CD
 10
1.663
 20
0.484998
 30
0.0
 11
1.68
 21
0.484998
 31
0.0
  0
ARC
  8
0
  6
CONTINUOUS
 62
     7
  5
3CE
 10
1.38
 20
1.007
 30
0.0
 40
0.187
 50
221.947486
 51
318.052514
  0
LINE
  8
0
  6
CONTINUOUS
 62
     7
  5
3CF
 10
1.161
 20
0.932
 30
0.0
 11
1.211
 21
0.882
 31
0.0
  0
LINE
  8
0
  6
CONTINUOUS
 62
     7
  5
3D0
 10
1.549
 20
0.882
 30
0.0
 11
1.599
 21
0.932
 31
0.0
  0
LINE
  8
0
  6
CONTINUOUS
 62
     7
  5
3D1
 10
1.551098
 20
1.442902
 30
0.0
 11
1.549
 21
1.445
 31
0.0
  0
LINE
  8
0
  6
CONTINUOUS
 62
     7
  5
3D2
 10
1.211
 20
1.445
 30
0.0
 11
1.209
 21
1.443
 31
0.0
  0
LINE
  8
0
  6
CONTINUOUS
 62
     3
  5
3D3
 10
-0.69
 20
0.0
 30
0.0
 11
-0.69
 21
3.24
 31
0.0
  0
LINE
  8
0
  6
CONTINUOUS
 62
     3
  5
3D4
 10
0.69
 20
0.0
 30
0.0
 11
0.69
 21
3.2
 31
0.0
  0
LINE
  8
0
  6
CONTINUOUS
 62
     3
  5
3D5
 10
0.0
 20
1.91
 30
0.0
 11
0.0
 21
4.37
 31
0.0
  0
ENDSEC
  0
EOF
