999
DXF file: C:\Users\sesa63760\Dev\_Creo\CAD\MCADPD0004146_3D-CAD\drw0001_7.dxf
999
Pro/ENGINEER 2019471 by Parametric Technology Corporation
  0
SECTION
  2
HEADER
  9
$ACADVER
  1
AC1024
  9
$DWGCODEPAGE
  3
ANSI_1252
  9
$EXTMAX
 10
165.5922463143
 20
234.1947483589
 30
0.0
  9
$EXTMIN
 10
0.0
 20
0.0
 30
0.0
  9
$LIMMIN
 10
0.0
 20
0.0
  9
$LIMMAX
 10
165.5922463143
 20
234.1947483589
  9
$VIEWCTR
 10
82.7961231572
 20
117.0973741794
  9
$VIEWSIZE
 40
234.1947483589
  9
$CLAYER
  8
0
  9
$LTSCALE
 40
15.2660280412
  9
$CELTYPE
  6
BYLAYER
  9
$DIMSCALE
 40
1.0
  9
$DIMASZ
 40
1.9713362656
  9
$DIMEXO
 40
1.0
  9
$DIMDLI
 40
10.5474375557
  9
$DIMEXE
 40
1.0
  9
$DIMCEN
 40
2.4980773158
  9
$DIMLFAC
 40
1.0
  9
$DIMBLK
  1
_FILLED
  9
$DIMALT
 70
0
  9
$DIMALTF
 40
0.0393700787
  9
$DIMTXT
 40
2.7598707719
  9
$DIMTOL
 70
1
  9
$DIMLIM
 70
0
  9
$DIMTFAC
 40
1.0
  9
$DIMTP
 40
0.01
  9
$DIMTM
 40
0.01
  9
$DIMGAP
 40
0.625
  9
$DIMDSEP
 70
46
  9
$AUNITS
 70
0
  9
$PDMODE
 70
3
  9
$PDSIZE
 40
0.3125
  9
$HANDSEED
  5
2C1
  9
$TILEMODE
 70
1
  9
$MEASUREMENT
 70
1
  9
$INSUNITS
 70
4
  0
ENDSEC
  0
SECTION
  2
CLASSES
  0
CLASS
  1
ACDBDICTIONARYWDFLT
  2
AcDbDictionaryWithDefault
  3
AutoCAD 2000
 90
0
 91
1
280
0
281
0
  0
CLASS
  1
ACDBPLACEHOLDER
  2
AcDbPlaceHolder
  3
AutoCAD 2000
 90
0
 91
1
280
0
281
0
  0
CLASS
  1
LAYOUT
  2
AcDbLayout
  3
AutoCAD 2000
 90
0
 91
0
280
0
281
0
  0
ENDSEC
  0
SECTION
  2
TABLES
  0
TABLE
  2
VPORT
  5
8
100
AcDbSymbolTable
 70
2
  0
VPORT
  5
1F4
100
AcDbSymbolTableRecord
100
AcDbViewportTableRecord
  2
*ACTIVE
 70
0
 10
0.0
 20
0.0
 11
1.0
 21
1.0
 12
82.7961231572
 22
117.0973741794
 13
0.0
 23
0.0
 14
1.0
 24
1.0
 15
0.0
 25
0.0
 16
0.0
 26
0.0
 36
1.0
 17
0.0
 27
0.0
 37
0.0
 40
234.1947483589
 41
0.7070707071
 42
50.0
 43
0.0
 44
0.0
 50
0.0
 51
0.0
 71
0
 72
100
 73
1
 74
1
 75
0
 76
0
 77
0
 78
0
  0
ENDTAB
  0
TABLE
  2
LTYPE
  5
5
100
AcDbSymbolTable
 70
6
  0
LTYPE
  5
14
100
AcDbSymbolTableRecord
100
AcDbLinetypeTableRecord
  2
BYBLOCK
 70
0
  3

 72
65
 73
0
 40
0.0
  0
LTYPE
  5
15
100
AcDbSymbolTableRecord
100
AcDbLinetypeTableRecord
  2
BYLAYER
 70
0
  3

 72
65
 73
0
 40
0.0
  0
LTYPE
  5
16
100
AcDbSymbolTableRecord
100
AcDbLinetypeTableRecord
  2
CONTINUOUS
 70
64
  3
Solid line
 72
65
 73
0
 40
0.0
  0
LTYPE
  5
1F5
100
AcDbSymbolTableRecord
100
AcDbLinetypeTableRecord
  2
CENTER
 70
64
  3
____ _ ____ _ ____ _ ____ _ ____ _ ____ _ ____
 72
65
 73
4
 40
0.6
 49
0.375
 74
0
 49
-0.075
 74
0
 49
0.075
 74
0
 49
-0.075
 74
0
  0
LTYPE
  5
1F6
100
AcDbSymbolTableRecord
100
AcDbLinetypeTableRecord
  2
HIDDEN
 70
64
  3
- - - - - - - - - - - - - - - - - - - -
 72
65
 73
2
 40
0.2
 49
0.1
 74
0
 49
-0.1
 74
0
  0
LTYPE
  5
1F7
100
AcDbSymbolTableRecord
100
AcDbLinetypeTableRecord
  2
PHANTOM
 70
64
  3
_____ _ _ _____ _ _ _____ _ _ _____
 72
65
 73
6
 40
0.8
 49
0.45
 74
0
 49
-0.05
 74
0
 49
0.1
 74
0
 49
-0.05
 74
0
 49
0.1
 74
0
 49
-0.05
 74
0
  0
LTYPE
  5
1F8
100
AcDbSymbolTableRecord
100
AcDbLinetypeTableRecord
  2
DOT
 70
64
  3
. . . . . . . . . . . . . . . . . . . .
 72
65
 73
2
 40
0.2
 49
0.1
 74
0
 49
-0.1
 74
0
  0
LTYPE
  5
1F9
100
AcDbSymbolTableRecord
100
AcDbLinetypeTableRecord
  2
DASHED
 70
64
  3
- - - - - - - - - - - - - - - - - - - -
 72
65
 73
2
 40
0.2
 49
0.1
 74
0
 49
-0.1
 74
0
  0
ENDTAB
  0
TABLE
  2
LAYER
  5
2
100
AcDbSymbolTable
 70
36
  0
LAYER
  5
10
100
AcDbSymbolTableRecord
100
AcDbLayerTableRecord
  2
0
 70
0
 62
7
  6
CONTINUOUS
370
-3
390
F
  0
LAYER
  5
1FA
100
AcDbSymbolTableRecord
100
AcDbLayerTableRecord
  2
DEFAULT_1
 70
0
 62
7
  6
CENTER
370
-3
390
F
  0
LAYER
  5
1FB
100
AcDbSymbolTableRecord
100
AcDbLayerTableRecord
  2
DEFAULT_2
 70
0
 62
7
  6
HIDDEN
370
-3
390
F
  0
LAYER
  5
1FC
100
AcDbSymbolTableRecord
100
AcDbLayerTableRecord
  2
DEFAULT_3
 70
0
 62
7
  6
PHANTOM
370
-3
390
F
  0
LAYER
  5
1FD
100
AcDbSymbolTableRecord
100
AcDbLayerTableRecord
  2
00_COMPONENTS
 70
0
 62
7
  6
CONTINUOUS
370
-3
390
F
  0
LAYER
  5
1FE
100
AcDbSymbolTableRecord
100
AcDbLayerTableRecord
  2
01_1_DEFAULT_DATUMS
 70
0
 62
7
  6
CONTINUOUS
370
-3
390
F
  0
LAYER
  5
1FF
100
AcDbSymbolTableRecord
100
AcDbLayerTableRecord
  2
01_PLANES
 70
0
 62
7
  6
CONTINUOUS
370
-3
390
F
  0
LAYER
  5
200
100
AcDbSymbolTableRecord
100
AcDbLayerTableRecord
  2
02_COORD_SYS
 70
0
 62
7
  6
CONTINUOUS
370
-3
390
F
  0
LAYER
  5
201
100
AcDbSymbolTableRecord
100
AcDbLayerTableRecord
  2
03_AXES
 70
0
 62
7
  6
CONTINUOUS
370
-3
390
F
  0
LAYER
  5
202
100
AcDbSymbolTableRecord
100
AcDbLayerTableRecord
  2
04_POINTS
 70
0
 62
7
  6
CONTINUOUS
370
-3
390
F
  0
LAYER
  5
203
100
AcDbSymbolTableRecord
100
AcDbLayerTableRecord
  2
05_CURVES
 70
0
 62
7
  6
CONTINUOUS
370
-3
390
F
  0
LAYER
  5
204
100
AcDbSymbolTableRecord
100
AcDbLayerTableRecord
  2
06_SURFS
 70
0
 62
7
  6
CONTINUOUS
370
-3
390
F
  0
LAYER
  5
205
100
AcDbSymbolTableRecord
100
AcDbLayerTableRecord
  2
07_COSMETICS
 70
0
 62
7
  6
CONTINUOUS
370
-3
390
F
  0
LAYER
  5
206
100
AcDbSymbolTableRecord
100
AcDbLayerTableRecord
  2
10_NOTES
 70
0
 62
7
  6
CONTINUOUS
370
-3
390
F
  0
LAYER
  5
207
100
AcDbSymbolTableRecord
100
AcDbLayerTableRecord
  2
11_NOTES_PUB
 70
0
 62
7
  6
CONTINUOUS
370
-3
390
F
  0
LAYER
  5
208
100
AcDbSymbolTableRecord
100
AcDbLayerTableRecord
  2
13_REF_GTOL
 70
0
 62
7
  6
CONTINUOUS
370
-3
390
F
  0
LAYER
  5
209
100
AcDbSymbolTableRecord
100
AcDbLayerTableRecord
  2
16_MISC
 70
0
 62
7
  6
CONTINUOUS
370
-3
390
F
  0
LAYER
  5
20A
100
AcDbSymbolTableRecord
100
AcDbLayerTableRecord
  2
17_NO_PRINT
 70
0
 62
7
  6
CONTINUOUS
370
-3
390
F
  0
LAYER
  5
20B
100
AcDbSymbolTableRecord
100
AcDbLayerTableRecord
  2
18_DATUM_CAMS_JOINTS
 70
0
 62
7
  6
CONTINUOUS
370
-3
390
F
  0
LAYER
  5
20C
100
AcDbSymbolTableRecord
100
AcDbLayerTableRecord
  2
19_DATUM_FUNCTIONAL
 70
0
 62
7
  6
CONTINUOUS
370
-3
390
F
  0
LAYER
  5
20D
100
AcDbSymbolTableRecord
100
AcDbLayerTableRecord
  2
20_DATUM_KINEMATIC_SCHEME
 70
0
 62
7
  6
CONTINUOUS
370
-3
390
F
  0
ENDTAB
  0
TABLE
  2
STYLE
  5
3
100
AcDbSymbolTable
 70
1
  0
STYLE
  5
11
100
AcDbSymbolTableRecord
100
AcDbTextStyleTableRecord
  2
STANDARD
 70
0
 40
0.0
 41
1.0
 50
0.0
 71
0
 42
0.2
  3
ARIAL.TTF
  4

  0
STYLE
  5
20E
100
AcDbSymbolTableRecord
100
AcDbTextStyleTableRecord
  2
TEXTSTYLE_1
 70
0
 40
0.0
 41
0.8
 50
0.0
 71
0
 42
0.2
  3
gdt
  4

  0
ENDTAB
  0
TABLE
  2
VIEW
  5
6
100
AcDbSymbolTable
 70
0
  0
ENDTAB
  0
TABLE
  2
UCS
  5
7
100
AcDbSymbolTable
 70
0
  0
ENDTAB
  0
TABLE
  2
APPID
  5
9
100
AcDbSymbolTable
 70
1
  0
APPID
  5
20F
100
AcDbSymbolTableRecord
100
AcDbRegAppTableRecord
  2
ACAD
 70
0
  0
ENDTAB
  0
TABLE
  2
BLOCK_RECORD
  5
1
100
AcDbSymbolTable
 70
0
  0
BLOCK_RECORD
  5
210
100
AcDbSymbolTableRecord
100
AcDbBlockTableRecord
  2
*Model_Space
  0
BLOCK_RECORD
  5
211
100
AcDbSymbolTableRecord
100
AcDbBlockTableRecord
  2
*Paper_Space
  0
BLOCK_RECORD
  5
212
100
AcDbSymbolTableRecord
100
AcDbBlockTableRecord
  2
_FILLED
  0
ENDTAB
  0
TABLE
  2
DIMSTYLE
  5
A
100
AcDbSymbolTable
 70
1
100
AcDbDimStyleTable
 71
0
  0
DIMSTYLE
105
213
100
AcDbSymbolTableRecord
100
AcDbDimStyleTableRecord
  2
STANDARD
 70
0
  3

  4

 40
1.0
 41
1.9713362656
 42
1.0
 43
0.38
 44
1.0
 45
0.0
 46
0.0
 47
0.01
 48
0.01
140
2.7598707719
141
0.09
142
0.0
143
25.4
144
1.0
145
0.0
146
1.0
147
0.625
 71
1
 72
0
 73
0
 74
0
 75
0
 76
0
 77
1
 78
8
 79
2
170
0
171
1
172
0
173
0
174
0
175
0
176
0
177
0
178
0
270
2
179
2
271
2
272
2
273
2
274
2
275
0
280
0
281
0
282
0
283
1
284
8
285
0
286
0
287
3
288
0
340
11
278
46
341
212
342
212
343
212
344
212
  0
ENDTAB
  0
ENDSEC
  0
SECTION
  2
BLOCKS
  0
BLOCK
  5
20
100
AcDbEntity
  8
0
100
AcDbBlockBegin
  2
*Model_Space
 70
0
 10
0.0
 20
0.0
 30
0.0
  3
*Model_Space
  1

  0
ENDBLK
  5
21
100
AcDbEntity
  8
0
100
AcDbBlockEnd
  0
BLOCK
  5
1C
100
AcDbEntity
  8
0
100
AcDbBlockBegin
  2
*Paper_Space
 70
0
 10
0.0
 20
0.0
 30
0.0
  3
*Paper_Space
  1

  0
ENDBLK
  5
1D
100
AcDbEntity
  8
0
100
AcDbBlockEnd
  0
BLOCK
  5
214
100
AcDbEntity
  8
0
100
AcDbBlockBegin
  2
_FILLED
 70
64
 10
0.0
 20
0.0
  3
_FILLED
  1

  0
SOLID
  5
215
100
AcDbEntity
  8
0
  6
BYBLOCK
 62
0
100
AcDbTrace
 10
0.0
 20
0.0
 11
-1.0
 21
0.25
 12
-1.0
 22
-0.25
 13
-1.0
 23
-0.25
  0
ENDBLK
  5
216
100
AcDbEntity
  8
0
  6
BYBLOCK
 62
0
100
AcDbBlockEnd
  0
ENDSEC
  0
SECTION
  2
ENTITIES
  0
LINE
  5
217
100
AcDbEntity
  8
0
100
AcDbLine
 62
7
  6
BYLAYER
 10
17.5827752359
 20
103.670678337
 11
17.5827752359
 21
131.670678337
  0
LINE
  5
218
100
AcDbEntity
  8
0
100
AcDbLine
 62
7
  6
BYLAYER
 10
21.2827752359
 20
107.770678337
 11
21.2827752359
 21
127.570678337
  0
LINE
  5
219
100
AcDbEntity
  8
0
100
AcDbLine
 62
7
  6
BYLAYER
 10
23.9827752359
 20
103.670678337
 11
23.9827752359
 21
131.670678337
  0
LINE
  5
21A
100
AcDbEntity
  8
0
100
AcDbLine
 62
7
  6
BYLAYER
 10
24.6327752359
 20
86.420678337
 11
24.6327752359
 21
102.7339286372
  0
LINE
  5
21B
100
AcDbEntity
  8
0
100
AcDbLine
 62
7
  6
BYLAYER
 10
24.6327752359
 20
132.6074280367
 11
24.6327752359
 21
148.920678337
  0
LINE
  5
21C
100
AcDbEntity
  8
0
100
AcDbLine
 62
7
  6
BYLAYER
 10
24.9827752359
 20
132.670678337
 11
24.9827752359
 21
102.670678337
  0
LINE
  5
21D
100
AcDbEntity
  8
0
100
AcDbLine
 62
7
  6
BYLAYER
 10
26.4827752359
 20
85.7206783438
 11
26.4827752359
 21
102.670678337
  0
LINE
  5
21E
100
AcDbEntity
  8
0
100
AcDbLine
 62
7
  6
BYLAYER
 10
26.4827752359
 20
132.670678337
 11
26.4827752359
 21
149.6206783302
  0
LINE
  5
21F
100
AcDbEntity
  8
0
100
AcDbLine
 62
7
  6
BYLAYER
 10
27.4827752359
 20
149.620678337
 11
27.4827752359
 21
131.670678337
  0
LINE
  5
220
100
AcDbEntity
  8
0
100
AcDbLine
 62
7
  6
BYLAYER
 10
27.4827752359
 20
103.670678337
 11
27.4827752359
 21
85.720678337
  0
LINE
  5
221
100
AcDbEntity
  8
0
100
AcDbLine
 62
7
  6
BYLAYER
 10
30.4827752359
 20
153.620678337
 11
30.4827752359
 21
152.620678337
  0
LINE
  5
222
100
AcDbEntity
  8
0
100
AcDbLine
 62
7
  6
BYLAYER
 10
30.4827752359
 20
82.720678337
 11
30.4827752359
 21
81.720678337
  0
LINE
  5
223
100
AcDbEntity
  8
0
100
AcDbLine
 62
7
  6
BYLAYER
 10
40.9827752359
 20
104.020678337
 11
40.9827752359
 21
131.320678337
  0
LINE
  5
224
100
AcDbEntity
  8
0
100
AcDbLine
 62
7
  6
BYLAYER
 10
34.6327752359
 20
76.420678337
 11
128.9327752359
 21
76.420678337
  0
LINE
  5
225
100
AcDbEntity
  8
0
100
AcDbLine
 62
7
  6
BYLAYER
 10
43.1678104711
 20
104.020678337
 11
43.1678104711
 21
131.320678337
  0
LINE
  5
226
100
AcDbEntity
  8
0
100
AcDbLine
 62
7
  6
BYLAYER
 10
43.7970555756
 20
104.020678337
 11
43.7970555756
 21
131.320678337
  0
LINE
  5
227
100
AcDbEntity
  8
0
100
AcDbLine
 62
7
  6
BYLAYER
 10
33.4827753989
 20
78.720678337
 11
130.0827750825
 21
78.720678337
  0
LINE
  5
228
100
AcDbEntity
  8
0
100
AcDbLine
 62
7
  6
BYLAYER
 10
33.3095451261
 20
79.720678337
 11
130.2549191564
 21
79.720678337
  0
LINE
  5
229
100
AcDbEntity
  8
0
100
AcDbLine
 62
7
  6
BYLAYER
 10
133.082775231
 20
81.720678337
 11
30.4827752409
 21
81.720678337
  0
LINE
  5
22A
100
AcDbEntity
  8
0
100
AcDbLine
 62
7
  6
BYLAYER
 10
30.4827752359
 20
82.720678337
 11
133.0827752359
 21
82.720678337
  0
LINE
  5
22B
100
AcDbEntity
  8
0
100
AcDbLine
 62
7
  6
BYLAYER
 10
26.4827752359
 20
85.720678337
 11
27.4827752359
 21
85.720678337
  0
LINE
  5
22C
100
AcDbEntity
  8
0
100
AcDbLine
 62
7
  6
BYLAYER
 10
136.0827752359
 20
85.720678337
 11
137.0827752359
 21
85.720678337
  0
LINE
  5
22D
100
AcDbEntity
  8
0
100
AcDbLine
 62
7
  6
BYLAYER
 10
26.4827752359
 20
88.0077358702
 11
24.6561844339
 21
85.7368391974
  0
LINE
  5
22E
100
AcDbEntity
  8
0
100
AcDbLine
 62
7
  6
BYLAYER
 10
27.4827752359
 20
103.670678337
 11
26.4827752359
 21
102.670678337
  0
LINE
  5
22F
100
AcDbEntity
  8
0
100
AcDbLine
 62
7
  6
BYLAYER
 10
27.4827752359
 20
131.670678337
 11
26.4827752359
 21
132.670678337
  0
LINE
  5
230
100
AcDbEntity
  8
0
100
AcDbLine
 62
7
  6
BYLAYER
 10
24.6561844339
 20
149.6045174766
 11
26.4827752359
 21
147.3336208038
  0
LINE
  5
231
100
AcDbEntity
  8
0
100
AcDbLine
 62
7
  6
BYLAYER
 10
84.8827752359
 20
97.020678337
 11
78.6827752359
 21
97.020678337
  0
LINE
  5
232
100
AcDbEntity
  8
0
100
AcDbLine
 62
7
  6
BYLAYER
 10
26.4827752359
 20
102.670678337
 11
24.9827752359
 21
102.670678337
  0
LINE
  5
233
100
AcDbEntity
  8
0
100
AcDbLine
 62
7
  6
BYLAYER
 10
18.5827752359
 20
102.670678337
 11
24.6327752359
 21
102.670678337
  0
LINE
  5
234
100
AcDbEntity
  8
0
100
AcDbLine
 62
7
  6
BYLAYER
 10
33.6155717834
 20
76.4725480033
 11
35.4238505301
 21
78.720678337
  0
LINE
  5
235
100
AcDbEntity
  8
0
100
AcDbLine
 62
7
  6
BYLAYER
 10
42.2881825253
 20
103.020678337
 11
54.74114067
 21
103.020678337
  0
LINE
  5
236
100
AcDbEntity
  8
0
100
AcDbLine
 62
7
  6
BYLAYER
 10
107.4042984202
 20
103.020678337
 11
131.8201666208
 21
103.020678337
  0
LINE
  5
237
100
AcDbEntity
  8
0
100
AcDbLine
 62
7
  6
BYLAYER
 10
136.0827752359
 20
103.020678337
 11
147.5827752476
 21
103.020678337
  0
LINE
  5
238
100
AcDbEntity
  8
0
100
AcDbLine
 62
7
  6
BYLAYER
 10
137.082775236
 20
103.520678337
 11
147.70147157
 21
103.520678337
  0
LINE
  5
239
100
AcDbEntity
  8
0
100
AcDbLine
 62
7
  6
BYLAYER
 10
23.9827752359
 20
103.670678337
 11
27.4827752359
 21
103.670678337
  0
LINE
  5
23A
100
AcDbEntity
  8
0
100
AcDbLine
 62
7
  6
BYLAYER
 10
40.9827752359
 20
104.020678337
 11
54.6435368835
 21
104.020678337
  0
LINE
  5
23B
100
AcDbEntity
  8
0
100
AcDbLine
 62
7
  6
BYLAYER
 10
108.9220177817
 20
104.020678337
 11
137.082775236
 21
104.020678337
  0
LINE
  5
23C
100
AcDbEntity
  8
0
100
AcDbLine
 62
7
  6
BYLAYER
 10
21.2827752359
 20
107.770678337
 11
23.9827752359
 21
107.770678337
  0
LINE
  5
23D
100
AcDbEntity
  8
0
100
AcDbLine
 62
7
  6
BYLAYER
 10
35.4238505301
 20
156.620678337
 11
33.6155717834
 21
158.8688086707
  0
LINE
  5
23E
100
AcDbEntity
  8
0
100
AcDbLine
 62
7
  6
BYLAYER
 10
78.6827752359
 20
138.8352091288
 11
78.6827752359
 21
87.2061475452
  0
LINE
  5
23F
100
AcDbEntity
  8
0
100
AcDbLine
 62
7
  6
BYLAYER
 10
143.5827752359
 20
115.170678337
 11
142.5827752359
 21
115.170678337
  0
LINE
  5
240
100
AcDbEntity
  8
0
100
AcDbLine
 62
7
  6
BYLAYER
 10
145.5827752359
 20
117.170678337
 11
143.5827752359
 21
117.170678337
  0
LINE
  5
241
100
AcDbEntity
  8
0
100
AcDbLine
 62
7
  6
BYLAYER
 10
142.5827752359
 20
117.170678337
 11
140.5827752359
 21
117.170678337
  0
LINE
  5
242
100
AcDbEntity
  8
0
100
AcDbLine
 62
7
  6
BYLAYER
 10
140.5827752359
 20
118.170678337
 11
142.5827752359
 21
118.170678337
  0
LINE
  5
243
100
AcDbEntity
  8
0
100
AcDbLine
 62
7
  6
BYLAYER
 10
143.5827752359
 20
118.170678337
 11
145.5827752359
 21
118.170678337
  0
LINE
  5
244
100
AcDbEntity
  8
0
100
AcDbLine
 62
7
  6
BYLAYER
 10
84.8827752359
 20
87.2061475452
 11
84.8827752359
 21
138.8352091288
  0
LINE
  5
245
100
AcDbEntity
  8
0
100
AcDbLine
 62
7
  6
BYLAYER
 10
142.5827752359
 20
120.170678337
 11
143.5827752359
 21
120.170678337
  0
LINE
  5
246
100
AcDbEntity
  8
0
100
AcDbLine
 62
7
  6
BYLAYER
 10
129.9499786885
 20
158.8688086707
 11
128.1416999418
 21
156.620678337
  0
LINE
  5
247
100
AcDbEntity
  8
0
100
AcDbLine
 62
7
  6
BYLAYER
 10
23.9827752359
 20
127.570678337
 11
21.2827752359
 21
127.570678337
  0
LINE
  5
248
100
AcDbEntity
  8
0
100
AcDbLine
 62
7
  6
BYLAYER
 10
128.1416999418
 20
78.720678337
 11
129.9499786885
 21
76.4725480033
  0
LINE
  5
249
100
AcDbEntity
  8
0
100
AcDbLine
 62
7
  6
BYLAYER
 10
137.082775236
 20
131.320678337
 11
103.7103134152
 21
131.320678337
  0
LINE
  5
24A
100
AcDbEntity
  8
0
100
AcDbLine
 62
7
  6
BYLAYER
 10
59.8551892984
 20
131.320678337
 11
40.9827752359
 21
131.320678337
  0
LINE
  5
24B
100
AcDbEntity
  8
0
100
AcDbLine
 62
7
  6
BYLAYER
 10
27.4827752359
 20
131.670678337
 11
23.9827752359
 21
131.670678337
  0
LINE
  5
24C
100
AcDbEntity
  8
0
100
AcDbLine
 62
7
  6
BYLAYER
 10
147.7014881893
 20
131.820678337
 11
137.082775236
 21
131.820678337
  0
LINE
  5
24D
100
AcDbEntity
  8
0
100
AcDbLine
 62
7
  6
BYLAYER
 10
131.8201666208
 20
132.320678337
 11
101.3744200831
 21
132.320678337
  0
LINE
  5
24E
100
AcDbEntity
  8
0
100
AcDbLine
 62
7
  6
BYLAYER
 10
59.9342054887
 20
132.320678337
 11
42.2881825253
 21
132.320678337
  0
LINE
  5
24F
100
AcDbEntity
  8
0
100
AcDbLine
 62
7
  6
BYLAYER
 10
136.0827752359
 20
132.320678337
 11
147.5827753312
 21
132.320678337
  0
LINE
  5
250
100
AcDbEntity
  8
0
100
AcDbLine
 62
7
  6
BYLAYER
 10
24.6327752359
 20
132.670678337
 11
18.5827752359
 21
132.670678337
  0
LINE
  5
251
100
AcDbEntity
  8
0
100
AcDbLine
 62
7
  6
BYLAYER
 10
24.9827752359
 20
132.670678337
 11
26.4827752359
 21
132.670678337
  0
LINE
  5
252
100
AcDbEntity
  8
0
100
AcDbLine
 62
7
  6
BYLAYER
 10
137.0827752359
 20
147.3336208038
 11
138.909366038
 21
149.6045174766
  0
LINE
  5
253
100
AcDbEntity
  8
0
100
AcDbLine
 62
7
  6
BYLAYER
 10
138.909366038
 20
85.7368391974
 11
137.0827752359
 21
88.0077358702
  0
LINE
  5
254
100
AcDbEntity
  8
0
100
AcDbLine
 62
7
  6
BYLAYER
 10
137.0827752359
 20
149.620678337
 11
136.0827752359
 21
149.620678337
  0
LINE
  5
255
100
AcDbEntity
  8
0
100
AcDbLine
 62
7
  6
BYLAYER
 10
27.4827752359
 20
149.620678337
 11
26.4827752359
 21
149.620678337
  0
LINE
  5
256
100
AcDbEntity
  8
0
100
AcDbLine
 62
7
  6
BYLAYER
 10
133.0827752359
 20
152.620678337
 11
30.4827752359
 21
152.620678337
  0
LINE
  5
257
100
AcDbEntity
  8
0
100
AcDbLine
 62
7
  6
BYLAYER
 10
30.4827752409
 20
153.620678337
 11
133.082775231
 21
153.620678337
  0
LINE
  5
258
100
AcDbEntity
  8
0
100
AcDbLine
 62
7
  6
BYLAYER
 10
130.256005737
 20
155.620678337
 11
33.3106312506
 21
155.620678337
  0
LINE
  5
259
100
AcDbEntity
  8
0
100
AcDbLine
 62
7
  6
BYLAYER
 10
130.0827750725
 20
156.620678337
 11
33.4827753894
 21
156.620678337
  0
LINE
  5
25A
100
AcDbEntity
  8
0
100
AcDbLine
 62
7
  6
BYLAYER
 10
128.9327752359
 20
158.920678337
 11
34.6327752359
 21
158.920678337
  0
LINE
  5
25B
100
AcDbEntity
  8
0
100
AcDbLine
 62
7
  6
BYLAYER
 10
133.0827752359
 20
81.720678337
 11
133.0827752359
 21
82.720678337
  0
LINE
  5
25C
100
AcDbEntity
  8
0
100
AcDbLine
 62
7
  6
BYLAYER
 10
133.0827752359
 20
152.620678337
 11
133.0827752359
 21
153.620678337
  0
LINE
  5
25D
100
AcDbEntity
  8
0
100
AcDbLine
 62
7
  6
BYLAYER
 10
136.0827752359
 20
85.720678337
 11
136.0827752359
 21
103.020678337
  0
LINE
  5
25E
100
AcDbEntity
  8
0
100
AcDbLine
 62
7
  6
BYLAYER
 10
136.0827752359
 20
132.320678337
 11
136.0827752359
 21
149.620678337
  0
LINE
  5
25F
100
AcDbEntity
  8
0
100
AcDbLine
 62
7
  6
BYLAYER
 10
137.0827752359
 20
85.7206783438
 11
137.0827752359
 21
104.020678337
  0
LINE
  5
260
100
AcDbEntity
  8
0
100
AcDbLine
 62
7
  6
BYLAYER
 10
137.0827752359
 20
131.320678337
 11
137.0827752359
 21
149.6206783302
  0
LINE
  5
261
100
AcDbEntity
  8
0
100
AcDbLine
 62
7
  6
BYLAYER
 10
138.9327752359
 20
86.420678337
 11
138.9327752359
 21
103.020678337
  0
LINE
  5
262
100
AcDbEntity
  8
0
100
AcDbLine
 62
7
  6
BYLAYER
 10
138.9327752359
 20
132.320678337
 11
138.9327752359
 21
148.920678337
  0
LINE
  5
263
100
AcDbEntity
  8
0
100
AcDbLine
 62
7
  6
BYLAYER
 10
140.5827752359
 20
117.170678337
 11
140.5827752359
 21
118.170678337
  0
LINE
  5
264
100
AcDbEntity
  8
0
100
AcDbLine
 62
7
  6
BYLAYER
 10
142.5827752359
 20
115.170678337
 11
142.5827752359
 21
117.170678337
  0
LINE
  5
265
100
AcDbEntity
  8
0
100
AcDbLine
 62
7
  6
BYLAYER
 10
142.5827752359
 20
118.170678337
 11
142.5827752359
 21
120.170678337
  0
LINE
  5
266
100
AcDbEntity
  8
0
100
AcDbLine
 62
7
  6
BYLAYER
 10
143.5827752359
 20
120.170678337
 11
143.5827752359
 21
118.170678337
  0
LINE
  5
267
100
AcDbEntity
  8
0
100
AcDbLine
 62
7
  6
BYLAYER
 10
143.5827752359
 20
117.170678337
 11
143.5827752359
 21
115.170678337
  0
LINE
  5
268
100
AcDbEntity
  8
0
100
AcDbLine
 62
7
  6
BYLAYER
 10
145.5827752359
 20
118.170678337
 11
145.5827752359
 21
117.170678337
  0
LINE
  5
269
100
AcDbEntity
  8
0
100
AcDbLine
 62
7
  6
BYLAYER
 10
147.8206318554
 20
131.8063193221
 11
147.8206318554
 21
103.5350311119
  0
LINE
  5
26A
100
AcDbEntity
  8
0
100
AcDbLine
 62
7
  6
BYLAYER
 10
148.5827752359
 20
131.320678337
 11
148.5827752359
 21
104.020678337
  0
ARC
  5
26B
100
AcDbEntity
  8
0
100
AcDbCircle
 62
7
  6
BYLAYER
 10
34.6327752359
 20
86.420678337
 40
10.0
100
AcDbArc
 50
180.0
 51
270.0
  0
ARC
  5
26C
100
AcDbEntity
  8
0
100
AcDbCircle
 62
7
  6
BYLAYER
 10
33.4827752359
 20
85.720678337
 40
7.0
100
AcDbArc
 50
179.9999713534
 51
270.0
  0
ARC
  5
26D
100
AcDbEntity
  8
0
100
AcDbCircle
 62
7
  6
BYLAYER
 10
33.3170456244
 20
85.7892943725
 40
6.0685751029
100
AcDbArc
 50
242.1915392117
 51
269.9291872998
  0
ARC
  5
26E
100
AcDbEntity
  8
0
100
AcDbCircle
 62
7
  6
BYLAYER
 10
30.4827752359
 20
85.720678337
 40
4.0
100
AcDbArc
 50
180.0
 51
270.0000000356
  0
ARC
  5
26F
100
AcDbEntity
  8
0
100
AcDbCircle
 62
7
  6
BYLAYER
 10
30.4827752359
 20
85.720678337
 40
3.0
100
AcDbArc
 50
180.0
 51
270.0
  0
ARC
  5
270
100
AcDbEntity
  8
0
100
AcDbCircle
 62
7
  6
BYLAYER
 10
18.5827752359
 20
103.670678337
 40
1.0
100
AcDbArc
 50
180.0
 51
270.0
  0
ARC
  5
271
100
AcDbEntity
  8
0
100
AcDbCircle
 62
7
  6
BYLAYER
 10
24.9827752359
 20
103.670678337
 40
1.0
100
AcDbArc
 50
180.0
 51
270.0
  0
ARC
  5
272
100
AcDbEntity
  8
0
100
AcDbCircle
 62
7
  6
BYLAYER
 10
54.74114067
 20
104.020678337
 40
1.0
100
AcDbArc
 50
270.0
 51
18.4084801704
  0
ARC
  5
273
100
AcDbEntity
  8
0
100
AcDbCircle
 62
7
  6
BYLAYER
 10
81.635730296
 20
113.0042316051
 40
28.4583216671
100
AcDbArc
 50
139.9376872615
 51
168.3390398487
  0
ARC
  5
274
100
AcDbEntity
  8
0
100
AcDbCircle
 62
7
  6
BYLAYER
 10
81.9296290824
 20
113.0046887152
 40
28.4582797413
100
AcDbArc
 50
11.6986108035
 51
40.0614226467
  0
ARC
  5
275
100
AcDbEntity
  8
0
100
AcDbCircle
 62
7
  6
BYLAYER
 10
81.9828837753
 20
113.0207529463
 40
28.4028586763
100
AcDbArc
 50
341.5260811621
 51
11.6886608454
  0
ARC
  5
276
100
AcDbEntity
  8
0
100
AcDbCircle
 62
7
  6
BYLAYER
 10
81.5818507382
 20
113.0206906124
 40
28.4020576693
100
AcDbArc
 50
168.3495886987
 51
198.4743238386
  0
ARC
  5
277
100
AcDbEntity
  8
0
100
AcDbCircle
 62
7
  6
BYLAYER
 10
81.7827752359
 20
113.020678337
 40
27.5
100
AcDbArc
 50
140.0510166012
 51
198.4084801706
  0
ARC
  5
278
100
AcDbEntity
  8
0
100
AcDbCircle
 62
7
  6
BYLAYER
 10
81.7827752359
 20
113.020678337
 40
27.5
100
AcDbArc
 50
338.6763136087
 51
44.5730597587
  0
CIRCLE
  5
279
100
AcDbEntity
  8
0
100
AcDbCircle
 62
7
  6
BYLAYER
 10
81.7827752359
 20
113.020678337
 40
26.0
  0
ARC
  5
27A
100
AcDbEntity
  8
0
100
AcDbCircle
 62
7
  6
BYLAYER
 10
81.7827752359
 20
113.020678337
 40
25.0
100
AcDbArc
 50
277.1230107202
 51
82.8769892798
  0
ARC
  5
27B
100
AcDbEntity
  8
0
100
AcDbCircle
 62
7
  6
BYLAYER
 10
81.7827752359
 20
113.020678337
 40
25.0
100
AcDbArc
 50
97.1230107202
 51
262.8769892798
  0
ARC
  5
27C
100
AcDbEntity
  8
0
100
AcDbCircle
 62
7
  6
BYLAYER
 10
81.7827752359
 20
113.020678337
 40
20.0
100
AcDbArc
 50
278.916796253
 51
81.083203747
  0
ARC
  5
27D
100
AcDbEntity
  8
0
100
AcDbCircle
 62
7
  6
BYLAYER
 10
81.7827752359
 20
113.020678337
 40
20.0
100
AcDbArc
 50
98.916796253
 51
261.083203747
  0
ARC
  5
27E
100
AcDbEntity
  8
0
100
AcDbCircle
 62
7
  6
BYLAYER
 10
81.7827752359
 20
113.020678337
 40
19.0
100
AcDbArc
 50
99.3902395148
 51
260.6097604852
  0
ARC
  5
27F
100
AcDbEntity
  8
0
100
AcDbCircle
 62
7
  6
BYLAYER
 10
81.7827752359
 20
113.020678337
 40
19.0
100
AcDbArc
 50
279.3902395148
 51
80.6097604852
  0
ARC
  5
280
100
AcDbEntity
  8
0
100
AcDbCircle
 62
7
  6
BYLAYER
 10
81.7827752359
 20
113.020678337
 40
13.0
100
AcDbArc
 50
103.7957568953
 51
256.2042431047
  0
ARC
  5
281
100
AcDbEntity
  8
0
100
AcDbCircle
 62
7
  6
BYLAYER
 10
81.7827752359
 20
113.020678337
 40
13.0
100
AcDbArc
 50
283.7957568953
 51
76.2042431047
  0
ARC
  5
282
100
AcDbEntity
  8
0
100
AcDbCircle
 62
7
  6
BYLAYER
 10
81.7827752359
 20
113.020678337
 40
12.0
100
AcDbArc
 50
284.9711909959
 51
75.0288090041
  0
ARC
  5
283
100
AcDbEntity
  8
0
100
AcDbCircle
 62
7
  6
BYLAYER
 10
81.7827752359
 20
113.020678337
 40
12.0
100
AcDbArc
 50
104.9711909959
 51
255.0288090041
  0
ARC
  5
284
100
AcDbEntity
  8
0
100
AcDbCircle
 62
7
  6
BYLAYER
 10
34.6327752359
 20
148.920678337
 40
10.0
100
AcDbArc
 50
90.0
 51
180.0
  0
ARC
  5
285
100
AcDbEntity
  8
0
100
AcDbCircle
 62
7
  6
BYLAYER
 10
33.4827752359
 20
149.620678337
 40
7.0
100
AcDbArc
 50
89.999999372
 51
180.0
  0
ARC
  5
286
100
AcDbEntity
  8
0
100
AcDbCircle
 62
7
  6
BYLAYER
 10
33.3171107418
 20
149.5519010535
 40
6.0687801646
100
AcDbArc
 50
90.0611717226
 51
117.8053895653
  0
ARC
  5
287
100
AcDbEntity
  8
0
100
AcDbCircle
 62
7
  6
BYLAYER
 10
30.4827752359
 20
149.620678337
 40
4.0
100
AcDbArc
 50
89.9999999644
 51
180.0
  0
ARC
  5
288
100
AcDbEntity
  8
0
100
AcDbCircle
 62
7
  6
BYLAYER
 10
30.4827752359
 20
149.620678337
 40
3.0
100
AcDbArc
 50
90.0
 51
180.0
  0
ARC
  5
289
100
AcDbEntity
  8
0
100
AcDbCircle
 62
7
  6
BYLAYER
 10
59.9342054887
 20
131.320678337
 40
1.0
100
AcDbArc
 50
320.0510165295
 51
90.0
  0
ARC
  5
28A
100
AcDbEntity
  8
0
100
AcDbCircle
 62
7
  6
BYLAYER
 10
18.5827752359
 20
131.670678337
 40
1.0
100
AcDbArc
 50
90.0
 51
180.0
  0
ARC
  5
28B
100
AcDbEntity
  8
0
100
AcDbCircle
 62
7
  6
BYLAYER
 10
24.9827752359
 20
131.670678337
 40
1.0
100
AcDbArc
 50
90.0
 51
180.0
  0
ARC
  5
28C
100
AcDbEntity
  8
0
100
AcDbCircle
 62
7
  6
BYLAYER
 10
128.9327752359
 20
86.420678337
 40
10.0
100
AcDbArc
 50
270.0
 51
360.0
  0
ARC
  5
28D
100
AcDbEntity
  8
0
100
AcDbCircle
 62
7
  6
BYLAYER
 10
130.0827752359
 20
85.720678337
 40
7.0
100
AcDbArc
 50
269.999999372
 51
360.0
  0
ARC
  5
28E
100
AcDbEntity
  8
0
100
AcDbCircle
 62
7
  6
BYLAYER
 10
130.2484397294
 20
85.7894556301
 40
6.068780207
100
AcDbArc
 50
270.0611711159
 51
297.8053855608
  0
ARC
  5
28F
100
AcDbEntity
  8
0
100
AcDbCircle
 62
7
  6
BYLAYER
 10
133.0827752359
 20
85.720678337
 40
4.0
100
AcDbArc
 50
269.9999999644
 51
360.0
  0
ARC
  5
290
100
AcDbEntity
  8
0
100
AcDbCircle
 62
7
  6
BYLAYER
 10
133.0827752359
 20
85.720678337
 40
3.0
100
AcDbArc
 50
270.0
 51
360.0
  0
ARC
  5
291
100
AcDbEntity
  8
0
100
AcDbCircle
 62
7
  6
BYLAYER
 10
147.5827752359
 20
104.020678337
 40
1.0
100
AcDbArc
 50
270.0
 51
360.0
  0
ARC
  5
292
100
AcDbEntity
  8
0
100
AcDbCircle
 62
7
  6
BYLAYER
 10
147.7012537203
 20
104.0242811391
 40
0.5036027727
100
AcDbArc
 50
270.0247850884
 51
283.7123629822
  0
ARC
  5
293
100
AcDbEntity
  8
0
100
AcDbCircle
 62
7
  6
BYLAYER
 10
128.9327752359
 20
148.920678337
 40
10.0
100
AcDbArc
 50
0.0
 51
90.0
  0
ARC
  5
294
100
AcDbEntity
  8
0
100
AcDbCircle
 62
7
  6
BYLAYER
 10
130.0827752359
 20
149.620678337
 40
7.0
100
AcDbArc
 50
359.9999432438
 51
90.0
  0
ARC
  5
295
100
AcDbEntity
  8
0
100
AcDbCircle
 62
7
  6
BYLAYER
 10
130.2485075625
 20
149.5520742901
 40
6.068562938
100
AcDbArc
 50
62.1915429719
 51
89.9292091175
  0
ARC
  5
296
100
AcDbEntity
  8
0
100
AcDbCircle
 62
7
  6
BYLAYER
 10
133.0827752359
 20
149.620678337
 40
4.0
100
AcDbArc
 50
0.0
 51
90.0000000356
  0
CIRCLE
  5
297
100
AcDbEntity
  8
0
100
AcDbCircle
 62
7
  6
BYLAYER
 10
143.0827752359
 20
117.670678337
 40
4.0
  0
ARC
  5
298
100
AcDbEntity
  8
0
100
AcDbCircle
 62
7
  6
BYLAYER
 10
133.0827752359
 20
149.620678337
 40
3.0
100
AcDbArc
 50
0.0
 51
90.0
  0
ARC
  5
299
100
AcDbEntity
  8
0
100
AcDbCircle
 62
7
  6
BYLAYER
 10
147.5827752359
 20
131.320678337
 40
1.0
100
AcDbArc
 50
0.0
 51
90.0
  0
ARC
  5
29A
100
AcDbEntity
  8
0
100
AcDbCircle
 62
7
  6
BYLAYER
 10
147.7012428031
 20
131.3170268453
 40
0.503651609
100
AcDbArc
 50
76.287582409
 51
89.9720847115
  0
SPLINE
  5
29B
100
AcDbEntity
  8
0
100
AcDbSpline
 62
7
  6
BYLAYER
 70
0
 71
3
 72
19
 73
15
 74
0
 42
0.0000001
 43
0.0000001
 44
0.0000000001
 40
0.0
 40
0.0
 40
0.0
 40
0.0
 40
0.1752852447
 40
0.3583928447
 40
0.5380911062
 40
0.700607684
 40
0.7711053432
 40
0.8330100054
 40
0.8856256802
 40
0.9282573709
 40
0.9604410841
 40
0.9826324351
 40
0.9955337946
 40
1.0
 40
1.0
 40
1.0
 40
1.0
 10
53.7648913023
 20
118.7562024133
 30
0.0
 10
53.8278053028
 20
118.7431436943
 30
0.0
 10
53.9564943767
 20
118.7167015587
 30
0.0
 10
54.1498650959
 20
118.677765436
 30
0.0
 10
54.3388224889
 20
118.6406579754
 30
0.0
 10
54.4874400347
 20
118.6122899017
 30
0.0
 10
54.593745753
 20
118.5927151036
 30
0.0
 10
54.6605460101
 20
118.5807471453
 30
0.0
 10
54.7172056998
 20
118.5710190158
 30
0.0
 10
54.7636086844
 20
118.5633129393
 30
0.0
 10
54.7980324835
 20
118.5584549444
 30
0.0
 10
54.8241141235
 20
118.5544669555
 30
0.0
 10
54.8358296487
 20
118.5547516046
 30
0.0
 10
54.8450754789
 20
118.5533375585
 30
0.0
 10
54.8454046651
 20
118.5549413165
 30
0.0
  0
SPLINE
  5
29C
100
AcDbEntity
  8
0
100
AcDbSpline
 62
7
  6
BYLAYER
 70
0
 71
3
 72
11
 73
7
 74
0
 42
0.0000001
 43
0.0000001
 44
0.0000000001
 40
0.0
 40
0.0
 40
0.0
 40
0.0
 40
0.2796533126
 40
0.5428753926
 40
0.7811050533
 40
1.0
 40
1.0
 40
1.0
 40
1.0
 10
43.1678104711
 20
131.320678337
 30
0.0
 10
43.1678104711
 20
131.4497100684
 30
0.0
 10
43.2048369814
 20
131.7019967988
 30
0.0
 10
43.3674055495
 20
132.0309688219
 30
0.0
 10
43.6192034187
 20
132.2623263371
 30
0.0
 10
43.8328570261
 20
132.320678337
 30
0.0
 10
43.9338549142
 20
132.320678337
 30
0.0
  0
SPLINE
  5
29D
100
AcDbEntity
  8
0
100
AcDbSpline
 62
7
  6
BYLAYER
 70
0
 71
3
 72
14
 73
10
 74
0
 42
0.0000001
 43
0.0000001
 44
0.0000000001
 40
0.0
 40
0.0
 40
0.0
 40
0.0
 40
0.0320579132
 40
0.0585413248
 40
0.0930389724
 40
0.1861364142
 40
0.3090034412
 40
0.626685754
 40
1.0
 40
1.0
 40
1.0
 40
1.0
 10
43.9338549142
 20
132.320678337
 30
0.0
 10
43.9228966992
 20
132.320678337
 30
0.0
 10
43.9064574019
 20
132.3029385212
 30
0.0
 10
43.8926783718
 20
132.2755755022
 30
0.0
 10
43.8739830983
 20
132.225646513
 30
0.0
 10
43.8546218992
 20
132.1423939753
 30
0.0
 10
43.8256129275
 20
131.9620556762
 30
0.0
 10
43.8032246694
 20
131.6845140898
 30
0.0
 10
43.7970555756
 20
131.4482866982
 30
0.0
 10
43.7970555756
 20
131.320678337
 30
0.0
  0
SPLINE
  5
29E
100
AcDbEntity
  8
0
100
AcDbSpline
 62
7
  6
BYLAYER
 70
0
 71
3
 72
19
 73
15
 74
0
 42
0.0000001
 43
0.0000001
 44
0.0000000001
 40
0.0
 40
0.0
 40
0.0
 40
0.0
 40
0.1505020602
 40
0.3008046874
 40
0.4493647029
 40
0.5941518129
 40
0.7317941439
 40
0.7961523097
 40
0.8559158285
 40
0.9091809095
 40
0.9532337862
 40
0.9845915283
 40
0.9944147735
 40
1.0
 40
1.0
 40
1.0
 40
1.0
 10
108.9221478006
 20
104.020678337
 30
0.0
 10
108.8481336088
 20
103.9672575382
 30
0.0
 10
108.6997033464
 20
103.8611776341
 30
0.0
 10
108.4765333661
 20
103.7047344675
 30
0.0
 10
108.2547650452
 20
103.5523500022
 30
0.0
 10
108.0378460741
 20
103.4064874936
 30
0.0
 10
107.8619717457
 20
103.2911321417
 30
0.0
 10
107.728219004
 20
103.2055923117
 30
0.0
 10
107.6370290832
 20
103.148529835
 30
0.0
 10
107.5556316728
 20
103.0989304105
 30
0.0
 10
107.488186189
 20
103.059894654
 30
0.0
 10
107.4426169885
 20
103.0349452822
 30
0.0
 10
107.4167476697
 20
103.0238321483
 30
0.0
 10
107.4076858469
 20
103.020678337
 30
0.0
 10
107.4042984202
 20
103.020678337
 30
0.0
  0
SPLINE
  5
29F
100
AcDbEntity
  8
0
100
AcDbSpline
 62
7
  6
BYLAYER
 70
0
 71
3
 72
15
 73
11
 74
0
 42
0.0000001
 43
0.0000001
 44
0.0000000001
 40
0.0
 40
0.0
 40
0.0
 40
0.0
 40
0.0376901598
 40
0.0656548317
 40
0.1010245406
 40
0.1945997779
 40
0.3168599946
 40
0.4641438619
 40
0.6313662661
 40
1.0
 40
1.0
 40
1.0
 40
1.0
 10
33.4827750738
 20
78.720678337
 30
0.0
 10
33.4697253982
 20
78.720678337
 30
0.0
 10
33.4489135989
 20
78.7366767344
 30
0.0
 10
33.4302789169
 20
78.7655144195
 30
0.0
 10
33.4067592351
 20
78.8149772317
 30
0.0
 10
33.3821078031
 20
78.898552259
 30
0.0
 10
33.3570757195
 20
79.0218710751
 30
0.0
 10
33.3364797001
 20
79.171763226
 30
0.0
 10
33.3151411578
 20
79.4073791612
 30
0.0
 10
33.3094587085
 20
79.5930442577
 30
0.0
 10
33.3095694591
 20
79.720678337
 30
0.0
  0
SPLINE
  5
2A0
100
AcDbEntity
  8
0
100
AcDbSpline
 62
7
  6
BYLAYER
 70
0
 71
3
 72
15
 73
11
 74
0
 42
0.0000001
 43
0.0000001
 44
0.0000000001
 40
0.0
 40
0.0
 40
0.0
 40
0.0
 40
0.3685959676
 40
0.5358101989
 40
0.6830975904
 40
0.8053549256
 40
0.898922239
 40
0.9342933587
 40
0.9622665136
 40
1.0
 40
1.0
 40
1.0
 40
1.0
 10
130.255373606
 20
79.720678337
 30
0.0
 10
130.255843626
 20
79.5930532758
 30
0.0
 10
130.2505611751
 20
79.4073714808
 30
0.0
 10
130.2292259248
 20
79.1717571921
 30
0.0
 10
130.2085333929
 20
79.0218749669
 30
0.0
 10
130.183497844
 20
78.898557733
 30
0.0
 10
130.1588710257
 20
78.8149730318
 30
0.0
 10
130.1353438271
 20
78.7655116444
 30
0.0
 10
130.1166823546
 20
78.736663092
 30
0.0
 10
130.0958405642
 20
78.720678337
 30
0.0
 10
130.0827753883
 20
78.720678337
 30
0.0
  0
SPLINE
  5
2A1
100
AcDbEntity
  8
0
100
AcDbSpline
 62
7
  6
BYLAYER
 70
0
 71
3
 72
15
 73
11
 74
0
 42
0.0000001
 43
0.0000001
 44
0.0000000001
 40
0.0
 40
0.0
 40
0.0
 40
0.0
 40
0.034333879
 40
0.0606018725
 40
0.0948196082
 40
0.1890869329
 40
0.3157512871
 40
0.4698058658
 40
0.6418868437
 40
1.0
 40
1.0
 40
1.0
 40
1.0
 10
30.1994120313
 20
79.5384763248
 30
0.0
 10
30.1898223442
 20
79.5435694831
 30
0.0
 10
30.1803939612
 20
79.5634557818
 30
0.0
 10
30.1775521461
 20
79.5927956894
 30
0.0
 10
30.1794603232
 20
79.642093851
 30
0.0
 10
30.1954894311
 20
79.7213451436
 30
0.0
 10
30.228844239
 20
79.8352509173
 30
0.0
 10
30.2781685895
 20
79.9697713352
 30
0.0
 10
30.3613078141
 20
80.169601525
 30
0.0
 10
30.4340294768
 20
80.3208547365
 30
0.0
 10
30.4857548372
 20
80.4216081842
 30
0.0
  0
SPLINE
  5
2A2
100
AcDbEntity
  8
0
100
AcDbSpline
 62
7
  6
BYLAYER
 70
0
 71
3
 72
9
 73
5
 74
0
 42
0.0000001
 43
0.0000001
 44
0.0000000001
 40
0.0
 40
0.0
 40
0.0
 40
0.0
 40
0.4991879877
 40
1.0
 40
1.0
 40
1.0
 40
1.0
 10
133.0796124945
 20
154.9198229425
 30
0.0
 10
133.5083703136
 20
154.6928963441
 30
0.0
 10
134.3140342853
 20
154.1307404848
 30
0.0
 10
134.9632077182
 20
153.3931272756
 30
0.0
 10
135.2372013193
 20
152.9908958092
 30
0.0
  0
SPLINE
  5
2A3
100
AcDbEntity
  8
0
100
AcDbSpline
 62
7
  6
BYLAYER
 70
0
 71
3
 72
9
 73
5
 74
0
 42
0.0000001
 43
0.0000001
 44
0.0000000001
 40
0.0
 40
0.0
 40
0.0
 40
0.0
 40
0.5008302429
 40
1.0
 40
1.0
 40
1.0
 40
1.0
 10
28.3284837383
 20
152.9910856447
 30
0.0
 10
28.6025057621
 20
153.3933334396
 30
0.0
 10
29.251713831
 20
154.1309549206
 30
0.0
 10
30.0574489823
 20
154.6930500273
 30
0.0
 10
30.486211873
 20
154.9199542688
 30
0.0
  0
SPLINE
  5
2A4
100
AcDbEntity
  8
0
100
AcDbSpline
 62
7
  6
BYLAYER
 70
0
 71
3
 72
11
 73
7
 74
0
 42
0.0000001
 43
0.0000001
 44
0.0000000001
 40
0.0
 40
0.0
 40
0.0
 40
0.0
 40
0.2188071293
 40
0.4570510698
 40
0.7203446408
 40
1.0
 40
1.0
 40
1.0
 40
1.0
 10
43.9338549142
 20
103.020678337
 30
0.0
 10
43.8328968791
 20
103.020678337
 30
0.0
 10
43.6192959528
 20
103.0790251595
 30
0.0
 10
43.3673859906
 20
103.3102716225
 30
0.0
 10
43.2048722116
 20
103.6393379054
 30
0.0
 10
43.1678104711
 20
103.8916448102
 30
0.0
 10
43.1678104711
 20
104.020678337
 30
0.0
  0
SPLINE
  5
2A5
100
AcDbEntity
  8
0
100
AcDbSpline
 62
7
  6
BYLAYER
 70
0
 71
3
 72
15
 73
11
 74
0
 42
0.0000001
 43
0.0000001
 44
0.0000000001
 40
0.0
 40
0.0
 40
0.0
 40
0.0
 40
0.0343338811
 40
0.0606018738
 40
0.0948196075
 40
0.1890869266
 40
0.3157512753
 40
0.4698058508
 40
0.6418868292
 40
1.0
 40
1.0
 40
1.0
 40
1.0
 10
133.3661354381
 20
155.8028816431
 30
0.0
 10
133.3757251282
 20
155.7977884896
 30
0.0
 10
133.385153524
 20
155.777902198
 30
0.0
 10
133.3879953559
 20
155.7485622928
 30
0.0
 10
133.3860872061
 20
155.6992641345
 30
0.0
 10
133.37005814
 20
155.62001284
 30
0.0
 10
133.3367033902
 20
155.506107058
 30
0.0
 10
133.287379106
 20
155.3715866234
 30
0.0
 10
133.2042399753
 20
155.171756398
 30
0.0
 10
133.1315183812
 20
155.0205031542
 30
0.0
 10
133.0797930654
 20
154.9197496825
 30
0.0
  0
SPLINE
  5
2A6
100
AcDbEntity
  8
0
100
AcDbSpline
 62
7
  6
BYLAYER
 70
0
 71
3
 72
19
 73
15
 74
0
 42
0.0000001
 43
0.0000001
 44
0.0000000001
 40
0.0
 40
0.0
 40
0.0
 40
0.0
 40
0.1751422726
 40
0.3581424381
 40
0.537795219
 40
0.7003312908
 40
0.7708613499
 40
0.8328085943
 40
0.8854716767
 40
0.9281502508
 40
0.960375457
 40
0.9825999418
 40
0.995523683
 40
1.0
 40
1.0
 40
1.0
 40
1.0
 10
109.7967407053
 20
118.7749850044
 30
0.0
 10
109.7338903623
 20
118.7618950274
 30
0.0
 10
109.6053161537
 20
118.7353861588
 30
0.0
 10
109.4120883393
 20
118.6963452775
 30
0.0
 10
109.2232136416
 20
118.6591259538
 30
0.0
 10
109.0746201802
 20
118.6306640311
 30
0.0
 10
108.9682985008
 20
118.6110176803
 30
0.0
 10
108.901465149
 20
118.5990016246
 30
0.0
 10
108.8447649294
 20
118.5892314449
 30
0.0
 10
108.7983199096
 20
118.5814913184
 30
0.0
 10
108.7638566584
 20
118.5766073446
 30
0.0
 10
108.7377426509
 20
118.5726037379
 30
0.0
 10
108.726005182
 20
118.5728797095
 30
0.0
 10
108.7167457558
 20
118.5714651306
 30
0.0
 10
108.7164144802
 20
118.5730721504
 30
0.0
  0
SPLINE
  5
2A7
100
AcDbEntity
  8
0
100
AcDbSpline
 62
7
  6
BYLAYER
 70
0
 71
3
 72
20
 73
16
 74
0
 42
0.0000001
 43
0.0000001
 44
0.0000000001
 40
0.0
 40
0.0
 40
0.0
 40
0.0
 40
0.1400868658
 40
0.2802401566
 40
0.4198470089
 40
0.5580824381
 40
0.6935416533
 40
0.7594017273
 40
0.8231426058
 40
0.8834429401
 40
0.9376493908
 40
0.9608800332
 40
0.980051972
 40
0.9936122825
 40
1.0
 40
1.0
 40
1.0
 40
1.0
 10
103.7103134152
 20
131.320678337
 30
0.0
 10
103.6027326068
 20
131.3708094726
 30
0.0
 10
103.3871280248
 20
131.4702567439
 30
0.0
 10
103.0629863452
 20
131.6167692224
 30
0.0
 10
102.7391691939
 20
131.7601672567
 30
0.0
 10
102.4178981045
 20
131.8994652566
 30
0.0
 10
102.1530368238
 20
132.0117784206
 30
0.0
 10
101.9456935312
 20
132.0980343001
 30
0.0
 10
101.7968365324
 20
132.1591088566
 30
0.0
 10
101.6567766515
 20
132.2155408702
 30
0.0
 10
101.548223926
 20
132.2585150129
 30
0.0
 10
101.4717763639
 20
132.2875343959
 30
0.0
 10
101.4273197315
 20
132.3045161662
 30
0.0
 10
101.396016282
 20
132.3143349601
 30
0.0
 10
101.3798320341
 20
132.320678337
 30
0.0
 10
101.3744200831
 20
132.320678337
 30
0.0
  0
SPLINE
  5
2A8
100
AcDbEntity
  8
0
100
AcDbSpline
 62
7
  6
BYLAYER
 70
0
 71
3
 72
20
 73
16
 74
0
 42
0.0000001
 43
0.0000001
 44
0.0000000001
 40
0.0
 40
0.0
 40
0.0
 40
0.0
 40
0.2500219566
 40
0.3750406591
 40
0.5000573371
 40
0.6250692656
 40
0.7500660609
 40
0.8125701247
 40
0.8750607263
 40
0.9063116335
 40
0.9375523587
 40
0.9531817787
 40
0.9688094317
 40
0.9844239746
 40
1.0
 40
1.0
 40
1.0
 40
1.0
 10
131.8201666204
 20
132.320678337
 30
0.0
 10
132.2794684204
 20
132.320678337
 30
0.0
 10
132.9686277799
 20
132.3054692037
 30
0.0
 10
133.8856006157
 20
132.2488594221
 30
0.0
 10
134.5717689887
 20
132.1849234551
 30
0.0
 10
135.2548282045
 20
132.0939057305
 30
0.0
 10
135.8195664761
 20
131.9872416154
 30
0.0
 10
136.2638672919
 20
131.8704476352
 30
0.0
 10
136.5361965279
 20
131.7780216195
 30
0.0
 10
136.7456573004
 20
131.6836008078
 30
0.0
 10
136.8704708909
 20
131.6117337318
 30
0.0
 10
136.9615915284
 20
131.5415296757
 30
0.0
 10
137.0224074268
 20
131.4800529196
 30
0.0
 10
137.0695603124
 20
131.4069881289
 30
0.0
 10
137.0827752359
 20
131.3492922099
 30
0.0
 10
137.0827752359
 20
131.320678337
 30
0.0
  0
SPLINE
  5
2A9
100
AcDbEntity
  8
0
100
AcDbSpline
 62
7
  6
BYLAYER
 70
0
 71
3
 72
15
 73
11
 74
0
 42
0.0000001
 43
0.0000001
 44
0.0000000001
 40
0.0
 40
0.0
 40
0.0
 40
0.0
 40
0.0376899226
 40
0.0656545478
 40
0.1010242445
 40
0.1945995157
 40
0.3168597748
 40
0.4641436741
 40
0.6313661287
 40
1.0
 40
1.0
 40
1.0
 40
1.0
 10
130.0827753986
 20
156.620678337
 30
0.0
 10
130.0958249886
 20
156.620678337
 30
0.0
 10
130.1166366226
 20
156.6046798669
 30
0.0
 10
130.135271157
 20
156.5758422444
 30
0.0
 10
130.1587907727
 20
156.5263794203
 30
0.0
 10
130.1834422594
 20
156.4428044238
 30
0.0
 10
130.2084744039
 20
156.3194856077
 30
0.0
 10
130.2290703237
 20
156.1695934412
 30
0.0
 10
130.2504089171
 20
155.9339775029
 30
0.0
 10
130.256091989
 20
155.7483124301
 30
0.0
 10
130.2559817861
 20
155.620678337
 30
0.0
  0
SPLINE
  5
2AA
100
AcDbEntity
  8
0
100
AcDbSpline
 62
7
  6
BYLAYER
 70
0
 71
3
 72
9
 73
5
 74
0
 42
0.0000001
 43
0.0000001
 44
0.0000000001
 40
0.0
 40
0.0
 40
0.0
 40
0.0
 40
0.5178210512
 40
1.0
 40
1.0
 40
1.0
 40
1.0
 10
147.7014718671
 20
131.820678337
 30
0.0
 10
147.7014717468
 20
131.8820905634
 30
0.0
 10
147.6963590234
 20
132.0006814136
 30
0.0
 10
147.6799119845
 20
132.1185941535
 30
0.0
 10
147.6667052824
 20
132.1742334043
 30
0.0
  0
SPLINE
  5
2AB
100
AcDbEntity
  8
0
100
AcDbSpline
 62
7
  6
BYLAYER
 70
0
 71
3
 72
10
 73
6
 74
0
 42
0.0000001
 43
0.0000001
 44
0.0000000001
 40
0.0
 40
0.0
 40
0.0
 40
0.0
 40
0.3863512407
 40
0.6792360727
 40
1.0
 40
1.0
 40
1.0
 40
1.0
 10
147.6667052824
 20
132.1742334043
 30
0.0
 10
147.6615082591
 20
132.1961282329
 30
0.0
 10
147.6502158718
 20
132.2349177235
 30
0.0
 10
147.629301376
 20
132.2863955296
 30
0.0
 10
147.6014559523
 20
132.320675924
 30
0.0
 10
147.5827729417
 20
132.320680507
 30
0.0
  0
SPLINE
  5
2AC
100
AcDbEntity
  8
0
100
AcDbSpline
 62
7
  6
BYLAYER
 70
0
 71
3
 72
15
 73
11
 74
0
 42
0.0000001
 43
0.0000001
 44
0.0000000001
 40
0.0
 40
0.0
 40
0.0
 40
0.0
 40
0.3685961234
 40
0.5358103714
 40
0.6830977008
 40
0.8053549782
 40
0.8989222491
 40
0.9342933603
 40
0.9622665108
 40
1.0
 40
1.0
 40
1.0
 40
1.0
 10
33.3101768439
 20
155.620678337
 30
0.0
 10
33.3097068703
 20
155.7483034531
 30
0.0
 10
33.3149893404
 20
155.9339853057
 30
0.0
 10
33.3363245531
 20
156.1695996383
 30
0.0
 10
33.3570170927
 20
156.3194818277
 30
0.0
 10
33.3820526379
 20
156.4427990057
 30
0.0
 10
33.4066794488
 20
156.5263836702
 30
0.0
 10
33.4302066385
 20
156.5758450405
 30
0.0
 10
33.4488681134
 20
156.604693589
 30
0.0
 10
33.4697099066
 20
156.620678337
 30
0.0
 10
33.4827750836
 20
156.620678337
 30
0.0
  0
SPLINE
  5
2AD
100
AcDbEntity
  8
0
100
AcDbSpline
 62
7
  6
BYLAYER
 70
0
 71
3
 72
13
 73
9
 74
0
 42
0.0000001
 43
0.0000001
 44
0.0000000001
 40
0.0
 40
0.0
 40
0.0
 40
0.0
 40
0.3489913163
 40
0.5181423652
 40
0.6705493302
 40
0.7971469649
 40
0.893518473
 40
1.0
 40
1.0
 40
1.0
 40
1.0
 10
147.820850515
 20
131.8062902201
 30
0.0
 10
147.8339964132
 20
131.8630763462
 30
0.0
 10
147.8503175459
 20
131.9481787151
 30
0.0
 10
147.8628429631
 20
132.0596319467
 30
0.0
 10
147.8668345542
 20
132.1341413366
 30
0.0
 10
147.8640074969
 20
132.1977896208
 30
0.0
 10
147.8562216535
 20
132.2497560969
 30
0.0
 10
147.8383708782
 20
132.2876198675
 30
0.0
 10
147.8211003138
 20
132.2918637748
 30
0.0
  0
SPLINE
  5
2AE
100
AcDbEntity
  8
0
100
AcDbSpline
 62
7
  6
BYLAYER
 70
0
 71
3
 72
14
 73
10
 74
0
 42
0.0000001
 43
0.0000001
 44
0.0000000001
 40
0.0
 40
0.0
 40
0.0
 40
0.0
 40
0.373293304
 40
0.6908461143
 40
0.8138107876
 40
0.9068476622
 40
0.9413896565
 40
0.9678973288
 40
1.0
 40
1.0
 40
1.0
 40
1.0
 10
43.7970555756
 20
104.020678337
 30
0.0
 10
43.7970555756
 20
103.8930704327
 30
0.0
 10
43.8034136212
 20
103.6568864453
 30
0.0
 10
43.8256291577
 20
103.3793461364
 30
0.0
 10
43.8544766471
 20
103.1989992848
 30
0.0
 10
43.8739044914
 20
103.1157278969
 30
0.0
 10
43.8925753018
 20
103.0657890091
 30
0.0
 10
43.9063847329
 20
103.0383845089
 30
0.0
 10
43.9228808235
 20
103.020678337
 30
0.0
 10
43.9338549142
 20
103.020678337
 30
0.0
  0
SPLINE
  5
2AF
100
AcDbEntity
  8
0
100
AcDbSpline
 62
7
  6
BYLAYER
 70
0
 71
3
 72
14
 73
10
 74
0
 42
0.0000001
 43
0.0000001
 44
0.0000000001
 40
0.0
 40
0.0
 40
0.0
 40
0.0
 40
0.0337106223
 40
0.0927760576
 40
0.1855131708
 40
0.3109319806
 40
0.464593835
 40
0.6373690307
 40
1.0
 40
1.0
 40
1.0
 40
1.0
 10
30.1999697817
 20
155.8031686945
 30
0.0
 10
30.1905547677
 20
155.7981692135
 30
0.0
 10
30.1763397742
 20
155.7682428333
 30
0.0
 10
30.179129713
 20
155.7099377894
 30
0.0
 10
30.194845796
 20
155.6232205929
 30
0.0
 10
30.2282056571
 20
155.5104330513
 30
0.0
 10
30.2769854288
 20
155.3760382072
 30
0.0
 10
30.3605448877
 20
155.174753803
 30
0.0
 10
30.4338885053
 20
155.0219857301
 30
0.0
 10
30.4862529313
 20
154.9199675644
 30
0.0
  0
SPLINE
  5
2B0
100
AcDbEntity
  8
0
100
AcDbSpline
 62
7
  6
BYLAYER
 70
0
 71
3
 72
18
 73
14
 74
0
 42
0.0000001
 43
0.0000001
 44
0.0000000001
 40
0.0
 40
0.0
 40
0.0
 40
0.0
 40
0.1757763929
 40
0.3590585028
 40
0.5386178281
 40
0.7007991338
 40
0.8328204831
 40
0.8852722899
 40
0.9277798364
 40
0.959899599
 40
0.9821013769
 40
0.995117899
 40
1.0
 40
1.0
 40
1.0
 40
1.0
 10
54.6433376804
 20
104.0208659743
 30
0.0
 10
54.7041303249
 20
104.0412936719
 30
0.0
 10
54.8284389135
 20
104.0826448285
 30
0.0
 10
55.0152783594
 20
104.1435516031
 30
0.0
 10
55.1978382942
 20
104.2016082504
 30
0.0
 10
55.362962686
 20
104.2526257797
 30
0.0
 10
55.4843199194
 20
104.288537816
 30
0.0
 10
55.5639669566
 20
104.3108044721
 30
0.0
 10
55.6090102279
 20
104.3227759619
 30
0.0
 10
55.6427710961
 20
104.3309515587
 30
0.0
 10
55.6680657337
 20
104.3363593693
 30
0.0
 10
55.6804379607
 20
104.3377150977
 30
0.0
 10
55.6893477481
 20
104.3383399989
 30
0.0
 10
55.689909436
 20
104.3366496154
 30
0.0
  0
SPLINE
  5
2B1
100
AcDbEntity
  8
0
100
AcDbSpline
 62
7
  6
BYLAYER
 70
0
 71
3
 72
11
 73
7
 74
0
 42
0.0000001
 43
0.0000001
 44
0.0000000001
 40
0.0
 40
0.0
 40
0.0
 40
0.0
 40
0.3388177753
 40
0.6184000784
 40
0.8312269784
 40
1.0
 40
1.0
 40
1.0
 40
1.0
 10
147.8206008709
 20
131.8063365059
 30
0.0
 10
147.9290762794
 20
131.7930563237
 30
0.0
 10
148.1256414374
 20
131.7509305402
 30
0.0
 10
148.372570973
 20
131.641204404
 30
0.0
 10
148.5384416838
 20
131.4987575831
 30
0.0
 10
148.5827312834
 20
131.3751194671
 30
0.0
 10
148.5827752354
 20
131.3206819312
 30
0.0
  0
SPLINE
  5
2B2
100
AcDbEntity
  8
0
100
AcDbSpline
 62
7
  6
BYLAYER
 70
0
 71
3
 72
12
 73
8
 74
0
 42
0.0000001
 43
0.0000001
 44
0.0000000001
 40
0.0
 40
0.0
 40
0.0
 40
0.0
 40
0.3358130321
 40
0.6137928076
 40
0.7289370005
 40
0.8296032162
 40
1.0
 40
1.0
 40
1.0
 40
1.0
 10
147.8205996285
 20
103.5350246069
 30
0.0
 10
147.9282231473
 20
103.5481479286
 30
0.0
 10
148.1233375277
 20
103.5890476454
 30
0.0
 10
148.3413408278
 20
103.6852628767
 30
0.0
 10
148.4680460617
 20
103.783614284
 30
0.0
 10
148.5506165853
 20
103.8774522374
 30
0.0
 10
148.5827528157
 20
103.9656639942
 30
0.0
 10
148.5827752359
 20
104.020678337
 30
0.0
  0
SPLINE
  5
2B3
100
AcDbEntity
  8
0
100
AcDbSpline
 62
7
  6
BYLAYER
 70
0
 71
3
 72
10
 73
6
 74
0
 42
0.0000001
 43
0.0000001
 44
0.0000000001
 40
0.0
 40
0.0
 40
0.0
 40
0.0
 40
0.3207570506
 40
0.6136324172
 40
1.0
 40
1.0
 40
1.0
 40
1.0
 10
147.5827738831
 20
103.0206784075
 30
0.0
 10
147.6014565098
 20
103.0206748192
 30
0.0
 10
147.6293028252
 20
103.0549639479
 30
0.0
 10
147.65021661
 20
103.1064381076
 30
0.0
 10
147.6615075357
 20
103.1452294987
 30
0.0
 10
147.6667060038
 20
103.1671249829
 30
0.0
  0
SPLINE
  5
2B4
100
AcDbEntity
  8
0
100
AcDbSpline
 62
7
  6
BYLAYER
 70
0
 71
3
 72
9
 73
5
 74
0
 42
0.0000001
 43
0.0000001
 44
0.0000000001
 40
0.0
 40
0.0
 40
0.0
 40
0.0
 40
0.48217816
 40
1.0
 40
1.0
 40
1.0
 40
1.0
 10
147.6667060038
 20
103.1671249829
 30
0.0
 10
147.6799157202
 20
103.2227631309
 30
0.0
 10
147.6963574605
 20
103.3406764807
 30
0.0
 10
147.7014721476
 20
103.4592663212
 30
0.0
 10
147.7014722319
 20
103.520678337
 30
0.0
  0
SPLINE
  5
2B5
100
AcDbEntity
  8
0
100
AcDbSpline
 62
7
  6
BYLAYER
 70
0
 71
3
 72
14
 73
10
 74
0
 42
0.0000001
 43
0.0000001
 44
0.0000000001
 40
0.0
 40
0.0
 40
0.0
 40
0.0
 40
0.0267115745
 40
0.0856356886
 40
0.1783686341
 40
0.3018117029
 40
0.4516807197
 40
0.6224960508
 40
1.0
 40
1.0
 40
1.0
 40
1.0
 10
54.74114067
 20
103.020678337
 30
0.0
 10
54.7321129411
 20
103.020678337
 30
0.0
 10
54.7143125354
 20
103.0525444234
 30
0.0
 10
54.7008722665
 20
103.1059213055
 30
0.0
 10
54.6839662403
 20
103.2001989001
 30
0.0
 10
54.6704894345
 20
103.3221035665
 30
0.0
 10
54.6586552617
 20
103.4721523655
 30
0.0
 10
54.6467232645
 20
103.7076734838
 30
0.0
 10
54.6434001286
 20
103.8930930721
 30
0.0
 10
54.6434001286
 20
104.0206783368
 30
0.0
  0
SPLINE
  5
2B6
100
AcDbEntity
  8
0
100
AcDbSpline
 62
7
  6
BYLAYER
 70
0
 71
3
 72
9
 73
5
 74
0
 42
0.0000001
 43
0.0000001
 44
0.0000000001
 40
0.0
 40
0.0
 40
0.0
 40
0.0
 40
0.5008302434
 40
1.0
 40
1.0
 40
1.0
 40
1.0
 10
135.237066794
 20
82.3502711179
 30
0.0
 10
134.9630447281
 20
81.9480232455
 30
0.0
 10
134.3138365368
 20
81.2104016321
 30
0.0
 10
133.5081012113
 20
80.6483064601
 30
0.0
 10
133.0793382278
 20
80.4214022087
 30
0.0
  0
SPLINE
  5
2B7
100
AcDbEntity
  8
0
100
AcDbSpline
 62
7
  6
BYLAYER
 70
0
 71
3
 72
9
 73
5
 74
0
 42
0.0000001
 43
0.0000001
 44
0.0000000001
 40
0.0
 40
0.0
 40
0.0
 40
0.0
 40
0.49918753
 40
1.0
 40
1.0
 40
1.0
 40
1.0
 10
30.4859347352
 20
80.4215352833
 30
0.0
 10
30.0571780036
 20
80.64846175
 30
0.0
 10
29.2515152201
 20
81.2106171399
 30
0.0
 10
28.6023425885
 20
81.948229514
 30
0.0
 10
28.3283490923
 20
82.3504608884
 30
0.0
  0
SPLINE
  5
2B8
100
AcDbEntity
  8
0
100
AcDbSpline
 62
7
  6
BYLAYER
 70
0
 71
3
 72
17
 73
13
 74
0
 42
0.0000001
 43
0.0000001
 44
0.0000000001
 40
0.0
 40
0.0
 40
0.0
 40
0.0
 40
0.0059560679
 40
0.0192582349
 40
0.0413883336
 40
0.0731629635
 40
0.1667732811
 40
0.2970998057
 40
0.4578753408
 40
0.6370187353
 40
0.8214566058
 40
1.0
 40
1.0
 40
1.0
 40
1.0
 10
60.7007663697
 20
130.6785027237
 30
0.0
 10
60.6994083665
 20
130.6768816836
 30
0.0
 10
60.6910322547
 20
130.6779118118
 30
0.0
 10
60.6786360781
 20
130.6835826008
 30
0.0
 10
60.6570636519
 20
130.6951328849
 30
0.0
 10
60.6130897162
 20
130.7229442761
 30
0.0
 10
60.5384569045
 20
130.775179808
 30
0.0
 10
60.4290042613
 20
130.8566882543
 30
0.0
 10
60.2970891243
 20
130.9591253782
 30
0.0
 10
60.1516103394
 20
131.0752799511
 30
0.0
 10
60.0026225591
 20
131.1971600335
 30
0.0
 10
59.9036731576
 20
131.2797336557
 30
0.0
 10
59.8552014874
 20
131.3205870903
 30
0.0
  0
SPLINE
  5
2B9
100
AcDbEntity
  8
0
100
AcDbSpline
 62
7
  6
BYLAYER
 70
0
 71
3
 72
13
 73
9
 74
0
 42
0.0000001
 43
0.0000001
 44
0.0000000001
 40
0.0
 40
0.0
 40
0.0
 40
0.0
 40
0.3489944731
 40
0.5181512658
 40
0.670562737
 40
0.7971610947
 40
0.8935290136
 40
1.0
 40
1.0
 40
1.0
 40
1.0
 10
147.8206132567
 20
103.5350277863
 30
0.0
 10
147.8337362358
 20
103.478225476
 30
0.0
 10
147.8500216961
 20
103.3930994381
 30
0.0
 10
147.8624970826
 20
103.281618807
 30
0.0
 10
147.8664538798
 20
103.2070928198
 30
0.0
 10
147.8635939538
 20
103.1434345011
 30
0.0
 10
147.8557814951
 20
103.091465494
 30
0.0
 10
147.837902179
 20
103.0536072156
 30
0.0
 10
147.8206269386
 20
103.0493768557
 30
0.0
  0
SPLINE
  5
2BA
100
AcDbEntity
  8
0
100
AcDbSpline
 62
7
  6
BYLAYER
 70
0
 71
3
 72
14
 73
10
 74
0
 42
0.0000001
 43
0.0000001
 44
0.0000000001
 40
0.0
 40
0.0
 40
0.0
 40
0.0
 40
0.0337106223
 40
0.0927760577
 40
0.1855131709
 40
0.3109319806
 40
0.4645938351
 40
0.6373690308
 40
1.0
 40
1.0
 40
1.0
 40
1.0
 10
133.365580671
 20
79.5381879693
 30
0.0
 10
133.374995685
 20
79.5431874502
 30
0.0
 10
133.3892106786
 20
79.5731138304
 30
0.0
 10
133.3864207401
 20
79.6314188744
 30
0.0
 10
133.3707046573
 20
79.718136071
 30
0.0
 10
133.3373447966
 20
79.8309236128
 30
0.0
 10
133.2885650252
 20
79.9653184571
 30
0.0
 10
133.2050055669
 20
80.1666028617
 30
0.0
 10
133.1316619498
 20
80.3193709349
 30
0.0
 10
133.0792975241
 20
80.4213891008
 30
0.0
  0
SPLINE
  5
2BB
100
AcDbEntity
  8
0
100
AcDbSpline
 62
7
  6
BYLAYER
 70
0
 71
3
 72
15
 73
11
 74
0
 42
0.0000001
 43
0.0000001
 44
0.0000000001
 40
0.0
 40
0.0
 40
0.0
 40
0.0
 40
0.3788737787
 40
0.5502405841
 40
0.7004981654
 40
0.8240979281
 40
0.916651346
 40
0.9748149353
 40
0.9909844548
 40
1.0
 40
1.0
 40
1.0
 40
1.0
 10
59.8552370856
 20
131.3206296065
 30
0.0
 10
59.8552368401
 20
131.4482116115
 30
0.0
 10
59.8578837365
 20
131.6335154188
 30
0.0
 10
59.8676042934
 20
131.8692364303
 30
0.0
 10
59.876968968
 20
132.0188261299
 30
0.0
 10
59.8883886825
 20
132.1418705524
 30
0.0
 10
59.9007033919
 20
132.2330602119
 30
0.0
 10
59.9132970409
 20
132.2887167891
 30
0.0
 10
59.9239177273
 20
132.3141017536
 30
0.0
 10
59.9311695929
 20
132.3206783454
 30
0.0
 10
59.9342054887
 20
132.320678337
 30
0.0
  0
SPLINE
  5
2BC
100
AcDbEntity
  8
0
100
AcDbSpline
 62
7
  6
BYLAYER
 70
0
 71
3
 72
20
 73
16
 74
0
 42
0.0000001
 43
0.0000001
 44
0.0000000001
 40
0.0
 40
0.0
 40
0.0
 40
0.0
 40
0.2500219618
 40
0.3750406666
 40
0.500057347
 40
0.625069277
 40
0.7500660748
 40
0.8125701421
 40
0.8750607417
 40
0.9063116453
 40
0.9375523646
 40
0.9531817917
 40
0.9688093858
 40
0.9844239677
 40
1.0
 40
1.0
 40
1.0
 40
1.0
 10
131.8201666204
 20
103.020678337
 30
0.0
 10
132.2794684293
 20
103.020678337
 30
0.0
 10
132.9686278018
 20
103.0358874687
 30
0.0
 10
133.8856006543
 20
103.0924972547
 30
0.0
 10
134.5717690379
 20
103.1564332213
 30
0.0
 10
135.2548282638
 20
103.2474509528
 30
0.0
 10
135.8195665466
 20
103.3541150767
 30
0.0
 10
136.2638673677
 20
103.4709090656
 30
0.0
 10
136.536196593
 20
103.5633350978
 30
0.0
 10
136.745657353
 20
103.6577558829
 30
0.0
 10
136.8704709428
 20
103.729622955
 30
0.0
 10
136.9615914671
 20
103.7998269878
 30
0.0
 10
137.0224073466
 20
103.8613037153
 30
0.0
 10
137.0695603023
 20
103.9343684413
 30
0.0
 10
137.0827752359
 20
103.9920644513
 30
0.0
 10
137.0827752359
 20
104.020678337
 30
0.0
  0
ELLIPSE
  5
2BD
100
AcDbEntity
  8
0
100
AcDbEllipse
 62
7
  6
BYLAYER
 10
42.2881825252
 20
131.320678337
 30
0.0
 11
1.3054072893
 21
0.0
 31
0.0
 40
0.7660444431
 41
1.5707963268
 42
3.1415926536
  0
ELLIPSE
  5
2BE
100
AcDbEntity
  8
0
100
AcDbEllipse
 62
7
  6
BYLAYER
 10
42.2881825253
 20
104.020678337
 30
0.0
 11
-1.3054072893
 21
0.0
 31
0.0
 40
0.7660444431
 41
0.0
 42
1.5707963268
  0
ENDSEC
  0
SECTION
  2
OBJECTS
  0
DICTIONARY
  5
C
100
AcDbDictionary
280
0
281
1
  3
ACAD_GROUP
350
D
  3
ACAD_MLINESTYLE
350
17
  3
ACAD_LAYOUT
350
1A
  3
ACAD_PLOTSETTINGS
350
19
  3
ACAD_PLOTSTYLENAME
350
E
  0
DICTIONARY
  5
D
102
{ACAD_REACTORS
330
C
102
}
100
AcDbDictionary
280
0
281
1
  0
ACDBDICTIONARYWDFLT
  5
E
102
{ACAD_REACTORS
330
C
102
}
100
AcDbDictionary
281
1
  3
Normal
350
F
100
AcDbDictionaryWithDefault
340
F
  0
DICTIONARY
  5
17
102
{ACAD_REACTORS
330
C
102
}
100
AcDbDictionary
280
0
281
1
  3
Standard
350
18
  0
DICTIONARY
  5
19
102
{ACAD_REACTORS
330
C
102
}
100
AcDbDictionary
281
1
  0
DICTIONARY
  5
1A
102
{ACAD_REACTORS
330
C
102
}
100
AcDbDictionary
281
1
  3
Model
350
2BF
  3
Layout1
350
2C0
  0
ACDBPLACEHOLDER
  5
F
102
{ACAD_REACTORS
330
E
102
}
  0
MLINESTYLE
  5
18
102
{ACAD_REACTORS
330
17
102
}
100
AcDbMlineStyle
  2
STANDARD
 70
0
  3

 62
256
 51
90.0
 52
90.0
 71
2
 49
0.5
 62
256
  6
BYLAYER
 49
-0.5
 62
256
  6
BYLAYER
  0
LAYOUT
  5
2BF
102
{ACAD_REACTORS
330
1A
102
}
100
AcDbPlotSettings
  1

  2
none_device
  4

  6

 40
0.0
 41
0.0
 42
0.0
 43
0.0
 44
210.0
 45
297.0
 46
0.0
 47
0.0
 48
0.0
 49
0.0
140
0.0
141
0.0
142
1.0
143
1.0
 70
1024
 72
1
 73
0
 74
0
  7

 75
0
147
1.0
148
0.0
149
0.0
100
AcDbLayout
  1
Model
 70
0
 71
0
 10
0.0
 20
0.0
 11
210.0
 21
297.0
 12
0.0
 22
0.0
 32
0.0
 14
0.0
 24
0.0
 34
0.0
 15
0.0
 25
0.0
 35
0.0
146
0.0
 13
0.0
 23
0.0
 33
0.0
 16
1.0
 26
0.0
 36
0.0
 17
0.0
 27
1.0
 37
0.0
 76
0
330
210
345
0
346
0
  0
LAYOUT
  5
2C0
102
{ACAD_REACTORS
330
1A
102
}
100
AcDbPlotSettings
  1

  2
none_device
  4

  6

 40
0.0
 41
0.0
 42
0.0
 43
0.0
 44
210.0
 45
297.0
 46
0.0
 47
0.0
 48
0.0
 49
0.0
140
0.0
141
0.0
142
1.0
143
1.0
 70
0
 72
1
 73
0
 74
0
  7

 75
0
147
1.0
148
0.0
149
0.0
100
AcDbLayout
  1
Layout1
 70
0
 71
1
 10
0.0
 20
0.0
 11
210.0
 21
297.0
 12
0.0
 22
0.0
 32
0.0
 14
0.0
 24
0.0
 34
0.0
 15
0.0
 25
0.0
 35
0.0
146
0.0
 13
0.0
 23
0.0
 33
0.0
 16
1.0
 26
0.0
 36
0.0
 17
0.0
 27
1.0
 37
0.0
 76
0
330
211
345
0
346
0
  0
ENDSEC
  0
EOF
