999
DXF file: C:\Users\sesa63760\Dev\_Creo\CAD\MCADPP0003178_3D-CAD\drw0001_2.dxf
999
Pro/ENGINEER 2019471 by Parametric Technology Corporation
  0
SECTION
  2
HEADER
  9
$ACADVER
  1
AC1024
  9
$DWGCODEPAGE
  3
ANSI_1252
  9
$EXTMAX
 10
519.0695952435
 20
734.112713273
 30
0.0
  9
$EXTMIN
 10
0.0
 20
0.0
 30
0.0
  9
$LIMMIN
 10
0.0
 20
0.0
  9
$LIMMAX
 10
519.0695952435
 20
734.112713273
  9
$VIEWCTR
 10
259.5347976218
 20
367.0563566365
  9
$VIEWSIZE
 40
734.112713273
  9
$CLAYER
  8
0
  9
$LTSCALE
 40
47.8532731615
  9
$CELTYPE
  6
BYLAYER
  9
$DIMSCALE
 40
1.0
  9
$DIMASZ
 40
6.1793999434
  9
$DIMEXO
 40
1.0
  9
$DIMDLI
 40
33.062261457
  9
$DIMEXE
 40
1.0
  9
$DIMCEN
 40
7.8305356082
  9
$DIMLFAC
 40
1.0
  9
$DIMBLK
  1
_FILLED
  9
$DIMALT
 70
0
  9
$DIMALTF
 40
0.0393700787
  9
$DIMTXT
 40
8.6511599207
  9
$DIMTOL
 70
1
  9
$DIMLIM
 70
0
  9
$DIMTFAC
 40
1.0
  9
$DIMTP
 40
0.01
  9
$DIMTM
 40
0.01
  9
$DIMGAP
 40
0.625
  9
$DIMDSEP
 70
46
  9
$AUNITS
 70
0
  9
$PDMODE
 70
3
  9
$PDSIZE
 40
0.3125
  9
$HANDSEED
  5
388
  9
$TILEMODE
 70
1
  9
$MEASUREMENT
 70
1
  9
$INSUNITS
 70
4
  0
ENDSEC
  0
SECTION
  2
CLASSES
  0
CLASS
  1
ACDBDICTIONARYWDFLT
  2
AcDbDictionaryWithDefault
  3
AutoCAD 2000
 90
0
 91
1
280
0
281
0
  0
CLASS
  1
ACDBPLACEHOLDER
  2
AcDbPlaceHolder
  3
AutoCAD 2000
 90
0
 91
1
280
0
281
0
  0
CLASS
  1
LAYOUT
  2
AcDbLayout
  3
AutoCAD 2000
 90
0
 91
0
280
0
281
0
  0
ENDSEC
  0
SECTION
  2
TABLES
  0
TABLE
  2
VPORT
  5
8
100
AcDbSymbolTable
 70
2
  0
VPORT
  5
1F4
100
AcDbSymbolTableRecord
100
AcDbViewportTableRecord
  2
*ACTIVE
 70
0
 10
0.0
 20
0.0
 11
1.0
 21
1.0
 12
259.5347976218
 22
367.0563566365
 13
0.0
 23
0.0
 14
1.0
 24
1.0
 15
0.0
 25
0.0
 16
0.0
 26
0.0
 36
1.0
 17
0.0
 27
0.0
 37
0.0
 40
734.112713273
 41
0.7070707071
 42
50.0
 43
0.0
 44
0.0
 50
0.0
 51
0.0
 71
0
 72
100
 73
1
 74
1
 75
0
 76
0
 77
0
 78
0
  0
ENDTAB
  0
TABLE
  2
LTYPE
  5
5
100
AcDbSymbolTable
 70
6
  0
LTYPE
  5
14
100
AcDbSymbolTableRecord
100
AcDbLinetypeTableRecord
  2
BYBLOCK
 70
0
  3

 72
65
 73
0
 40
0.0
  0
LTYPE
  5
15
100
AcDbSymbolTableRecord
100
AcDbLinetypeTableRecord
  2
BYLAYER
 70
0
  3

 72
65
 73
0
 40
0.0
  0
LTYPE
  5
16
100
AcDbSymbolTableRecord
100
AcDbLinetypeTableRecord
  2
CONTINUOUS
 70
64
  3
Solid line
 72
65
 73
0
 40
0.0
  0
LTYPE
  5
1F5
100
AcDbSymbolTableRecord
100
AcDbLinetypeTableRecord
  2
CENTER
 70
64
  3
____ _ ____ _ ____ _ ____ _ ____ _ ____ _ ____
 72
65
 73
4
 40
0.6
 49
0.375
 74
0
 49
-0.075
 74
0
 49
0.075
 74
0
 49
-0.075
 74
0
  0
LTYPE
  5
1F6
100
AcDbSymbolTableRecord
100
AcDbLinetypeTableRecord
  2
HIDDEN
 70
64
  3
- - - - - - - - - - - - - - - - - - - -
 72
65
 73
2
 40
0.2
 49
0.1
 74
0
 49
-0.1
 74
0
  0
LTYPE
  5
1F7
100
AcDbSymbolTableRecord
100
AcDbLinetypeTableRecord
  2
PHANTOM
 70
64
  3
_____ _ _ _____ _ _ _____ _ _ _____
 72
65
 73
6
 40
0.8
 49
0.45
 74
0
 49
-0.05
 74
0
 49
0.1
 74
0
 49
-0.05
 74
0
 49
0.1
 74
0
 49
-0.05
 74
0
  0
LTYPE
  5
1F8
100
AcDbSymbolTableRecord
100
AcDbLinetypeTableRecord
  2
DOT
 70
64
  3
. . . . . . . . . . . . . . . . . . . .
 72
65
 73
2
 40
0.2
 49
0.1
 74
0
 49
-0.1
 74
0
  0
LTYPE
  5
1F9
100
AcDbSymbolTableRecord
100
AcDbLinetypeTableRecord
  2
DASHED
 70
64
  3
- - - - - - - - - - - - - - - - - - - -
 72
65
 73
2
 40
0.2
 49
0.1
 74
0
 49
-0.1
 74
0
  0
ENDTAB
  0
TABLE
  2
LAYER
  5
2
100
AcDbSymbolTable
 70
36
  0
LAYER
  5
10
100
AcDbSymbolTableRecord
100
AcDbLayerTableRecord
  2
0
 70
0
 62
7
  6
CONTINUOUS
370
-3
390
F
  0
LAYER
  5
1FA
100
AcDbSymbolTableRecord
100
AcDbLayerTableRecord
  2
DEFAULT_1
 70
0
 62
7
  6
CENTER
370
-3
390
F
  0
LAYER
  5
1FB
100
AcDbSymbolTableRecord
100
AcDbLayerTableRecord
  2
DEFAULT_2
 70
0
 62
8
  6
HIDDEN
370
-3
390
F
  0
LAYER
  5
1FC
100
AcDbSymbolTableRecord
100
AcDbLayerTableRecord
  2
DEFAULT_3
 70
0
 62
7
  6
PHANTOM
370
-3
390
F
  0
LAYER
  5
1FD
100
AcDbSymbolTableRecord
100
AcDbLayerTableRecord
  2
00_COMPONENTS
 70
0
 62
7
  6
CONTINUOUS
370
-3
390
F
  0
LAYER
  5
1FE
100
AcDbSymbolTableRecord
100
AcDbLayerTableRecord
  2
01_1_DEFAULT_DATUMS
 70
0
 62
7
  6
CONTINUOUS
370
-3
390
F
  0
LAYER
  5
1FF
100
AcDbSymbolTableRecord
100
AcDbLayerTableRecord
  2
01_PLANES
 70
0
 62
7
  6
CONTINUOUS
370
-3
390
F
  0
LAYER
  5
200
100
AcDbSymbolTableRecord
100
AcDbLayerTableRecord
  2
02_COORD_SYS
 70
0
 62
7
  6
CONTINUOUS
370
-3
390
F
  0
LAYER
  5
201
100
AcDbSymbolTableRecord
100
AcDbLayerTableRecord
  2
03_AXES
 70
0
 62
7
  6
CONTINUOUS
370
-3
390
F
  0
LAYER
  5
202
100
AcDbSymbolTableRecord
100
AcDbLayerTableRecord
  2
04_POINTS
 70
0
 62
7
  6
CONTINUOUS
370
-3
390
F
  0
LAYER
  5
203
100
AcDbSymbolTableRecord
100
AcDbLayerTableRecord
  2
05_CURVES
 70
0
 62
7
  6
CONTINUOUS
370
-3
390
F
  0
LAYER
  5
204
100
AcDbSymbolTableRecord
100
AcDbLayerTableRecord
  2
06_SURFS
 70
0
 62
7
  6
CONTINUOUS
370
-3
390
F
  0
LAYER
  5
205
100
AcDbSymbolTableRecord
100
AcDbLayerTableRecord
  2
07_COSMETICS
 70
0
 62
7
  6
CONTINUOUS
370
-3
390
F
  0
LAYER
  5
206
100
AcDbSymbolTableRecord
100
AcDbLayerTableRecord
  2
10_NOTES
 70
0
 62
7
  6
CONTINUOUS
370
-3
390
F
  0
LAYER
  5
207
100
AcDbSymbolTableRecord
100
AcDbLayerTableRecord
  2
11_NOTES_PUB
 70
0
 62
7
  6
CONTINUOUS
370
-3
390
F
  0
LAYER
  5
208
100
AcDbSymbolTableRecord
100
AcDbLayerTableRecord
  2
13_REF_GTOL
 70
0
 62
7
  6
CONTINUOUS
370
-3
390
F
  0
LAYER
  5
209
100
AcDbSymbolTableRecord
100
AcDbLayerTableRecord
  2
16_MISC
 70
0
 62
7
  6
CONTINUOUS
370
-3
390
F
  0
LAYER
  5
20A
100
AcDbSymbolTableRecord
100
AcDbLayerTableRecord
  2
17_NO_PRINT
 70
0
 62
7
  6
CONTINUOUS
370
-3
390
F
  0
LAYER
  5
20B
100
AcDbSymbolTableRecord
100
AcDbLayerTableRecord
  2
18_DATUM_CAMS_JOINTS
 70
0
 62
7
  6
CONTINUOUS
370
-3
390
F
  0
LAYER
  5
20C
100
AcDbSymbolTableRecord
100
AcDbLayerTableRecord
  2
19_DATUM_FUNCTIONAL
 70
0
 62
7
  6
CONTINUOUS
370
-3
390
F
  0
LAYER
  5
20D
100
AcDbSymbolTableRecord
100
AcDbLayerTableRecord
  2
20_DATUM_KINEMATIC_SCHEME
 70
0
 62
7
  6
CONTINUOUS
370
-3
390
F
  0
ENDTAB
  0
TABLE
  2
STYLE
  5
3
100
AcDbSymbolTable
 70
1
  0
STYLE
  5
11
100
AcDbSymbolTableRecord
100
AcDbTextStyleTableRecord
  2
STANDARD
 70
0
 40
0.0
 41
0.8
 50
0.0
 71
0
 42
0.2
  3
txt
  4

  0
STYLE
  5
20E
100
AcDbSymbolTableRecord
100
AcDbTextStyleTableRecord
  2
TEXTSTYLE_1
 70
0
 40
0.0
 41
0.8
 50
0.0
 71
0
 42
0.2
  3
gdt
  4

  0
ENDTAB
  0
TABLE
  2
VIEW
  5
6
100
AcDbSymbolTable
 70
0
  0
ENDTAB
  0
TABLE
  2
UCS
  5
7
100
AcDbSymbolTable
 70
0
  0
ENDTAB
  0
TABLE
  2
APPID
  5
9
100
AcDbSymbolTable
 70
1
  0
APPID
  5
20F
100
AcDbSymbolTableRecord
100
AcDbRegAppTableRecord
  2
ACAD
 70
0
  0
ENDTAB
  0
TABLE
  2
BLOCK_RECORD
  5
1
100
AcDbSymbolTable
 70
0
  0
BLOCK_RECORD
  5
210
100
AcDbSymbolTableRecord
100
AcDbBlockTableRecord
  2
*Model_Space
  0
BLOCK_RECORD
  5
211
100
AcDbSymbolTableRecord
100
AcDbBlockTableRecord
  2
*Paper_Space
  0
BLOCK_RECORD
  5
212
100
AcDbSymbolTableRecord
100
AcDbBlockTableRecord
  2
_FILLED
  0
ENDTAB
  0
TABLE
  2
DIMSTYLE
  5
A
100
AcDbSymbolTable
 70
1
100
AcDbDimStyleTable
 71
0
  0
DIMSTYLE
105
213
100
AcDbSymbolTableRecord
100
AcDbDimStyleTableRecord
  2
STANDARD
 70
0
  3

  4

 40
1.0
 41
6.1793999434
 42
1.0
 43
0.38
 44
1.0
 45
0.0
 46
0.0
 47
0.01
 48
0.01
140
8.6511599207
141
0.09
142
0.0
143
25.4
144
1.0
145
0.0
146
1.0
147
0.625
 71
1
 72
0
 73
0
 74
0
 75
0
 76
0
 77
1
 78
8
 79
2
170
0
171
1
172
0
173
0
174
0
175
0
176
0
177
0
178
0
270
2
179
2
271
2
272
2
273
2
274
2
275
0
280
0
281
0
282
0
283
1
284
8
285
0
286
0
287
3
288
0
340
11
278
46
341
212
342
212
343
212
344
212
  0
ENDTAB
  0
ENDSEC
  0
SECTION
  2
BLOCKS
  0
BLOCK
  5
20
100
AcDbEntity
  8
0
100
AcDbBlockBegin
  2
*Model_Space
 70
0
 10
0.0
 20
0.0
 30
0.0
  3
*Model_Space
  1

  0
ENDBLK
  5
21
100
AcDbEntity
  8
0
100
AcDbBlockEnd
  0
BLOCK
  5
1C
100
AcDbEntity
  8
0
100
AcDbBlockBegin
  2
*Paper_Space
 70
0
 10
0.0
 20
0.0
 30
0.0
  3
*Paper_Space
  1

  0
ENDBLK
  5
1D
100
AcDbEntity
  8
0
100
AcDbBlockEnd
  0
BLOCK
  5
214
100
AcDbEntity
  8
0
100
AcDbBlockBegin
  2
_FILLED
 70
64
 10
0.0
 20
0.0
  3
_FILLED
  1

  0
SOLID
  5
215
100
AcDbEntity
  8
0
  6
BYBLOCK
 62
0
100
AcDbTrace
 10
0.0
 20
0.0
 11
-1.0
 21
0.25
 12
-1.0
 22
-0.25
 13
-1.0
 23
-0.25
  0
ENDBLK
  5
216
100
AcDbEntity
  8
0
  6
BYBLOCK
 62
0
100
AcDbBlockEnd
  0
ENDSEC
  0
SECTION
  2
ENTITIES
  0
LINE
  5
217
100
AcDbEntity
  8
0
100
AcDbLine
 62
7
  6
CONTINUOUS
 10
56.9125003842
 20
344.6195460999
 11
57.8201402892
 21
334.2451745139
  0
LINE
  5
218
100
AcDbEntity
  8
0
100
AcDbLine
 62
7
  6
CONTINUOUS
 10
155.7247368423
 20
421.6459285872
 11
155.1797298761
 21
411.2465761684
  0
LINE
  5
219
100
AcDbEntity
  8
0
100
AcDbLine
 62
7
  6
CONTINUOUS
 10
160.4459094363
 20
356.0997629561
 11
161.7741629557
 21
340.9177557572
  0
LINE
  5
21A
100
AcDbEntity
  8
0
100
AcDbLine
 62
7
  6
CONTINUOUS
 10
240.8324924805
 20
264.1085364775
 11
415.5844924805
 21
264.1085364775
  0
LINE
  5
21B
100
AcDbEntity
  8
0
100
AcDbLine
 62
7
  6
CONTINUOUS
 10
415.5844924805
 20
266.7501364775
 11
383.8344924805
 21
266.7501364775
  0
LINE
  5
21C
100
AcDbEntity
  8
0
100
AcDbLine
 62
7
  6
CONTINUOUS
 10
263.0574924805
 20
266.7501364775
 11
240.8324924805
 21
266.7501364775
  0
LINE
  5
21D
100
AcDbEntity
  8
0
100
AcDbLine
 62
7
  6
CONTINUOUS
 10
263.0574924805
 20
270.7125364775
 11
383.8344924805
 21
270.7125364775
  0
LINE
  5
21E
100
AcDbEntity
  8
0
100
AcDbLine
 62
7
  6
CONTINUOUS
 10
185.7215828195
 20
358.6298106385
 11
187.1051802356
 21
342.8152198063
  0
LINE
  5
21F
100
AcDbEntity
  8
0
100
AcDbLine
 62
7
  6
CONTINUOUS
 10
187.8642805955
 20
342.8816324823
 11
186.4806831794
 21
358.6962233145
  0
LINE
  5
220
100
AcDbEntity
  8
0
100
AcDbLine
 62
7
  6
CONTINUOUS
 10
327.0654924805
 20
285.9525364775
 11
277.3243836579
 21
285.9525364775
  0
LINE
  5
221
100
AcDbEntity
  8
0
100
AcDbLine
 62
7
  6
CONTINUOUS
 10
192.9496853041
 20
363.1504838055
 11
195.0084782592
 21
339.6183726472
  0
LINE
  5
222
100
AcDbEntity
  8
0
100
AcDbLine
 62
7
  6
CONTINUOUS
 10
202.296759428
 20
365.6000563564
 11
204.638913134
 21
338.8291169956
  0
LINE
  5
223
100
AcDbEntity
  8
0
100
AcDbLine
 62
7
  6
CONTINUOUS
 10
204.7265342859
 20
339.5761965454
 11
204.2705005775
 21
344.7886856837
  0
LINE
  5
224
100
AcDbEntity
  8
0
100
AcDbLine
 62
7
  6
CONTINUOUS
 10
202.9688121284
 20
359.6670527387
 11
202.5127784201
 21
364.8795418769
  0
LINE
  5
225
100
AcDbEntity
  8
0
100
AcDbLine
 62
7
  6
CONTINUOUS
 10
206.2921070656
 20
333.3389104472
 11
205.7386680991
 21
339.6647467801
  0
LINE
  5
226
100
AcDbEntity
  8
0
100
AcDbLine
 62
7
  6
CONTINUOUS
 10
205.1498090388
 20
346.3954366382
 11
204.1137712936
 21
358.2374022534
  0
LINE
  5
227
100
AcDbEntity
  8
0
100
AcDbLine
 62
7
  6
CONTINUOUS
 10
203.5249122333
 20
364.9680921116
 11
203.4607133132
 21
365.7018891262
  0
LINE
  5
228
100
AcDbEntity
  8
0
100
AcDbLine
 62
7
  6
CONTINUOUS
 10
320.6265924805
 20
292.3914364775
 11
317.7563924805
 21
292.3914364775
  0
LINE
  5
229
100
AcDbEntity
  8
0
100
AcDbLine
 62
7
  6
CONTINUOUS
 10
282.5265924805
 20
292.3914364775
 11
279.6563924805
 21
292.3914364775
  0
LINE
  5
22A
100
AcDbEntity
  8
0
100
AcDbLine
 62
7
  6
CONTINUOUS
 10
323.8853829954
 20
293.188172754
 11
320.6265924805
 21
293.188172754
  0
LINE
  5
22B
100
AcDbEntity
  8
0
100
AcDbLine
 62
7
  6
CONTINUOUS
 10
317.7563924805
 20
293.188172754
 11
314.4976019655
 21
293.188172754
  0
LINE
  5
22C
100
AcDbEntity
  8
0
100
AcDbLine
 62
7
  6
CONTINUOUS
 10
285.7853829954
 20
293.188172754
 11
282.5265924805
 21
293.188172754
  0
LINE
  5
22D
100
AcDbEntity
  8
0
100
AcDbLine
 62
7
  6
CONTINUOUS
 10
279.6563924805
 20
293.188172754
 11
276.3976019655
 21
293.188172754
  0
LINE
  5
22E
100
AcDbEntity
  8
0
100
AcDbLine
 62
7
  6
CONTINUOUS
 10
276.4162119286
 20
294.5893393165
 11
279.6563924805
 21
294.5893393165
  0
LINE
  5
22F
100
AcDbEntity
  8
0
100
AcDbLine
 62
7
  6
CONTINUOUS
 10
282.5265924805
 20
294.5893393165
 11
285.7667730323
 21
294.5893393165
  0
LINE
  5
230
100
AcDbEntity
  8
0
100
AcDbLine
 62
7
  6
CONTINUOUS
 10
314.5162119286
 20
294.5893393165
 11
317.7563924805
 21
294.5893393165
  0
LINE
  5
231
100
AcDbEntity
  8
0
100
AcDbLine
 62
7
  6
CONTINUOUS
 10
320.6265924805
 20
294.5893393165
 11
323.8667730323
 21
294.5893393165
  0
LINE
  5
232
100
AcDbEntity
  8
0
100
AcDbLine
 62
7
  6
CONTINUOUS
 10
279.6563924805
 20
295.2616364775
 11
282.5265924805
 21
295.2616364775
  0
LINE
  5
233
100
AcDbEntity
  8
0
100
AcDbLine
 62
7
  6
CONTINUOUS
 10
317.7563924805
 20
295.2616364775
 11
320.6265924805
 21
295.2616364775
  0
LINE
  5
234
100
AcDbEntity
  8
0
100
AcDbLine
 62
7
  6
CONTINUOUS
 10
207.3833855457
 20
339.8086409113
 11
206.7945264854
 21
346.5393307695
  0
LINE
  5
235
100
AcDbEntity
  8
0
100
AcDbLine
 62
7
  6
CONTINUOUS
 10
205.7584887402
 20
358.3812963847
 11
205.1696296799
 21
365.1119862429
  0
LINE
  5
236
100
AcDbEntity
  8
0
100
AcDbLine
 62
7
  6
CONTINUOUS
 10
208.9489583254
 20
333.5713548131
 11
207.8066602986
 21
346.6278810041
  0
LINE
  5
237
100
AcDbEntity
  8
0
100
AcDbLine
 62
7
  6
CONTINUOUS
 10
206.7706225534
 20
358.4698466193
 11
206.1817634932
 21
365.2005364775
  0
LINE
  5
238
100
AcDbEntity
  8
0
100
AcDbLine
 62
7
  6
CONTINUOUS
 10
206.497114753
 20
365.9675398301
 11
208.839268459
 21
339.1966004693
  0
LINE
  5
239
100
AcDbEntity
  8
0
100
AcDbLine
 62
7
  6
CONTINUOUS
 10
210.4671590453
 20
333.704180165
 11
209.9779189989
 21
339.2962194833
  0
LINE
  5
23A
100
AcDbEntity
  8
0
100
AcDbLine
 62
7
  6
CONTINUOUS
 10
210.0032223443
 20
339.2984332392
 11
207.6610686383
 21
366.0693725999
  0
LINE
  5
23B
100
AcDbEntity
  8
0
100
AcDbLine
 62
7
  6
CONTINUOUS
 10
219.3502961209
 20
341.7480097594
 11
217.2915038603
 21
365.280112979
  0
LINE
  5
23C
100
AcDbEntity
  8
0
100
AcDbLine
 62
7
  6
CONTINUOUS
 10
212.3844924805
 20
467.3085364775
 11
212.3844924805
 21
404.6975364775
  0
LINE
  5
23D
100
AcDbEntity
  8
0
100
AcDbLine
 62
7
  6
CONTINUOUS
 10
207.8027490137
 20
364.4499584987
 11
208.1312259992
 21
366.3128440551
  0
LINE
  5
23E
100
AcDbEntity
  8
0
100
AcDbLine
 62
7
  6
CONTINUOUS
 10
322.5957250569
 20
320.2425364775
 11
324.4804775692
 21
320.2425364775
  0
LINE
  5
23F
100
AcDbEntity
  8
0
100
AcDbLine
 62
7
  6
CONTINUOUS
 10
388.7401577401
 20
284.9254739319
 11
338.3490510254
 21
296.5591775879
  0
LINE
  5
240
100
AcDbEntity
  8
0
100
AcDbLine
 62
7
  6
CONTINUOUS
 10
275.4346714315
 20
286.6090324107
 11
215.2989583254
 21
334.1269078265
  0
LINE
  5
241
100
AcDbEntity
  8
0
100
AcDbLine
 62
7
  6
CONTINUOUS
 10
209.8615419689
 20
340.9178473404
 11
210.508515333
 21
339.1403026314
  0
LINE
  5
242
100
AcDbEntity
  8
0
100
AcDbLine
 62
7
  6
CONTINUOUS
 10
224.2540022222
 20
346.0831685102
 11
222.8735040643
 21
361.862334659
  0
LINE
  5
243
100
AcDbEntity
  8
0
100
AcDbLine
 62
7
  6
CONTINUOUS
 10
224.5740609183
 20
360.43539803
 11
225.6809388512
 21
347.7837253642
  0
LINE
  5
244
100
AcDbEntity
  8
0
100
AcDbLine
 62
7
  6
CONTINUOUS
 10
229.821350762
 20
361.6593871217
 11
231.0610540468
 21
347.4895137361
  0
LINE
  5
245
100
AcDbEntity
  8
0
100
AcDbLine
 62
7
  6
CONTINUOUS
 10
234.2284924805
 20
396.8235364775
 11
234.2284924805
 21
392.6325364775
  0
LINE
  5
246
100
AcDbEntity
  8
0
100
AcDbLine
 62
7
  6
CONTINUOUS
 10
230.7855983427
 20
450.4670426065
 11
229.8991511264
 21
425.0825156003
  0
LINE
  5
247
100
AcDbEntity
  8
0
100
AcDbLine
 62
7
  6
CONTINUOUS
 10
232.9502898368
 20
450.3914499138
 11
232.0638426205
 21
425.0069229066
  0
LINE
  5
248
100
AcDbEntity
  8
0
100
AcDbLine
 62
7
  6
CONTINUOUS
 10
236.2719109051
 20
432.678949482
 11
236.6129339582
 21
442.4445720058
  0
LINE
  5
249
100
AcDbEntity
  8
0
100
AcDbLine
 62
7
  6
CONTINUOUS
 10
219.3502964682
 20
341.74800579
 11
219.0218194826
 21
339.8851202336
  0
LINE
  5
24A
100
AcDbEntity
  8
0
100
AcDbLine
 62
7
  6
CONTINUOUS
 10
360.4440960095
 20
325.9983083762
 11
357.5738960095
 21
325.9983083762
  0
LINE
  5
24B
100
AcDbEntity
  8
0
100
AcDbLine
 62
7
  6
CONTINUOUS
 10
363.7028865244
 20
326.7950446527
 11
360.4440960095
 21
326.7950446527
  0
LINE
  5
24C
100
AcDbEntity
  8
0
100
AcDbLine
 62
7
  6
CONTINUOUS
 10
357.5738960095
 20
326.7950446527
 11
354.3151054945
 21
326.7950446527
  0
LINE
  5
24D
100
AcDbEntity
  8
0
100
AcDbLine
 62
7
  6
CONTINUOUS
 10
354.3337154576
 20
328.1962112152
 11
357.5738960095
 21
328.1962112152
  0
LINE
  5
24E
100
AcDbEntity
  8
0
100
AcDbLine
 62
7
  6
CONTINUOUS
 10
360.4440960095
 20
328.1962112152
 11
363.6842765614
 21
328.1962112152
  0
LINE
  5
24F
100
AcDbEntity
  8
0
100
AcDbLine
 62
7
  6
CONTINUOUS
 10
357.5738960095
 20
328.8685083762
 11
360.4440960095
 21
328.8685083762
  0
LINE
  5
250
100
AcDbEntity
  8
0
100
AcDbLine
 62
7
  6
CONTINUOUS
 10
307.9265924805
 20
330.4914364775
 11
305.0563924805
 21
330.4914364775
  0
LINE
  5
251
100
AcDbEntity
  8
0
100
AcDbLine
 62
7
  6
CONTINUOUS
 10
311.1853829954
 20
331.288172754
 11
307.9265924805
 21
331.288172754
  0
LINE
  5
252
100
AcDbEntity
  8
0
100
AcDbLine
 62
7
  6
CONTINUOUS
 10
305.0563924805
 20
331.288172754
 11
301.7976019655
 21
331.288172754
  0
LINE
  5
253
100
AcDbEntity
  8
0
100
AcDbLine
 62
7
  6
CONTINUOUS
 10
301.8162119286
 20
332.6893393165
 11
305.0563924805
 21
332.6893393165
  0
LINE
  5
254
100
AcDbEntity
  8
0
100
AcDbLine
 62
7
  6
CONTINUOUS
 10
307.9265924805
 20
332.6893393165
 11
311.1667730323
 21
332.6893393165
  0
LINE
  5
255
100
AcDbEntity
  8
0
100
AcDbLine
 62
7
  6
CONTINUOUS
 10
305.0563924805
 20
333.3616364775
 11
307.9265924805
 21
333.3616364775
  0
LINE
  5
256
100
AcDbEntity
  8
0
100
AcDbLine
 62
7
  6
CONTINUOUS
 10
339.4400865497
 20
333.6431426198
 11
336.5698865497
 21
333.6431426198
  0
LINE
  5
257
100
AcDbEntity
  8
0
100
AcDbLine
 62
7
  6
CONTINUOUS
 10
342.6988770646
 20
334.4398788963
 11
339.4400865497
 21
334.4398788963
  0
LINE
  5
258
100
AcDbEntity
  8
0
100
AcDbLine
 62
7
  6
CONTINUOUS
 10
336.5698865497
 20
334.4398788963
 11
333.3110960347
 21
334.4398788963
  0
LINE
  5
259
100
AcDbEntity
  8
0
100
AcDbLine
 62
7
  6
CONTINUOUS
 10
333.3297059978
 20
335.8410454589
 11
336.5698865497
 21
335.8410454589
  0
LINE
  5
25A
100
AcDbEntity
  8
0
100
AcDbLine
 62
7
  6
CONTINUOUS
 10
339.4400865497
 20
335.8410454589
 11
342.6802671015
 21
335.8410454589
  0
LINE
  5
25B
100
AcDbEntity
  8
0
100
AcDbLine
 62
7
  6
CONTINUOUS
 10
336.5698865497
 20
336.5133426198
 11
339.4400865497
 21
336.5133426198
  0
LINE
  5
25C
100
AcDbEntity
  8
0
100
AcDbLine
 62
7
  6
CONTINUOUS
 10
222.8735040643
 20
361.862334659
 11
224.5740609183
 21
360.43539803
  0
LINE
  5
25D
100
AcDbEntity
  8
0
100
AcDbLine
 62
7
  6
CONTINUOUS
 10
217.291503513
 20
365.2801169484
 11
216.6445301489
 21
367.0576616574
  0
LINE
  5
25E
100
AcDbEntity
  8
0
100
AcDbLine
 62
7
  6
CONTINUOUS
 10
238.399024193
 20
348.1315029372
 11
237.1593330237
 21
362.3012378411
  0
LINE
  5
25F
100
AcDbEntity
  8
0
100
AcDbLine
 62
7
  6
CONTINUOUS
 10
239.0917118771
 20
348.9570159708
 11
237.9848339438
 21
361.6086886412
  0
LINE
  5
260
100
AcDbEntity
  8
0
100
AcDbLine
 62
7
  6
CONTINUOUS
 10
246.4288195374
 20
350.1088701939
 11
245.4104918391
 21
361.7484090464
  0
LINE
  5
261
100
AcDbEntity
  8
0
100
AcDbLine
 62
7
  6
CONTINUOUS
 10
246.170454712
 20
361.304956705
 11
247.1002321756
 21
350.6775516658
  0
LINE
  5
262
100
AcDbEntity
  8
0
100
AcDbLine
 62
7
  6
CONTINUOUS
 10
240.8324924805
 20
264.1085364775
 11
240.8324924805
 21
266.7501364775
  0
LINE
  5
263
100
AcDbEntity
  8
0
100
AcDbLine
 62
7
  6
CONTINUOUS
 10
247.1824924805
 20
266.7501364775
 11
247.1824924805
 21
264.1085364775
  0
LINE
  5
264
100
AcDbEntity
  8
0
100
AcDbLine
 62
7
  6
CONTINUOUS
 10
239.4449767809
 20
432.56814358
 11
239.785999834
 21
442.3337661038
  0
LINE
  5
265
100
AcDbEntity
  8
0
100
AcDbLine
 62
7
  6
CONTINUOUS
 10
243.1076209023
 20
424.6212656721
 11
243.9940681185
 21
450.0057926791
  0
LINE
  5
266
100
AcDbEntity
  8
0
100
AcDbLine
 62
7
  6
CONTINUOUS
 10
245.2723123964
 20
424.5456729794
 11
246.1587596127
 21
449.9301999855
  0
LINE
  5
267
100
AcDbEntity
  8
0
100
AcDbLine
 62
7
  6
CONTINUOUS
 10
224.2540022222
 20
346.0831685102
 11
225.6809388512
 21
347.7837253642
  0
LINE
  5
268
100
AcDbEntity
  8
0
100
AcDbLine
 62
7
  6
CONTINUOUS
 10
206.2921070656
 20
333.3389104472
 11
215.2989583254
 21
334.1269078265
  0
LINE
  5
269
100
AcDbEntity
  8
0
100
AcDbLine
 62
7
  6
CONTINUOUS
 10
208.8161329734
 20
335.089555533
 11
206.1592817136
 21
334.8571111671
  0
LINE
  5
26A
100
AcDbEntity
  8
0
100
AcDbLine
 62
7
  6
CONTINUOUS
 10
219.0218194826
 20
339.8851202336
 11
210.508515333
 21
339.1403026314
  0
LINE
  5
26B
100
AcDbEntity
  8
0
100
AcDbLine
 62
7
  6
CONTINUOUS
 10
210.0032223443
 20
339.2984332392
 11
208.839268459
 21
339.1966004693
  0
LINE
  5
26C
100
AcDbEntity
  8
0
100
AcDbLine
 62
7
  6
CONTINUOUS
 10
204.638913134
 20
338.8291169956
 11
205.8028670192
 21
338.9309497654
  0
LINE
  5
26D
100
AcDbEntity
  8
0
100
AcDbLine
 62
7
  6
CONTINUOUS
 10
205.7386680991
 20
339.6647467801
 11
204.7265342859
 21
339.5761965454
  0
LINE
  5
26E
100
AcDbEntity
  8
0
100
AcDbLine
 62
7
  6
CONTINUOUS
 10
207.3833855457
 20
339.8086409113
 11
208.3955193589
 21
339.897191146
  0
LINE
  5
26F
100
AcDbEntity
  8
0
100
AcDbLine
 62
7
  6
CONTINUOUS
 10
195.0084782592
 20
339.6183726472
 11
204.4972327586
 21
340.4485310968
  0
LINE
  5
270
100
AcDbEntity
  8
0
100
AcDbLine
 62
7
  6
CONTINUOUS
 10
207.036554838
 20
343.7729340403
 11
208.0486886512
 21
343.861484275
  0
LINE
  5
271
100
AcDbEntity
  8
0
100
AcDbLine
 62
7
  6
CONTINUOUS
 10
187.1051802356
 20
342.8152198063
 11
187.8642805955
 21
342.8816324823
  0
LINE
  5
272
100
AcDbEntity
  8
0
100
AcDbLine
 62
7
  6
CONTINUOUS
 10
187.8627309664
 20
342.899344824
 11
194.6693308606
 21
343.4948451519
  0
LINE
  5
273
100
AcDbEntity
  8
0
100
AcDbLine
 62
7
  6
CONTINUOUS
 10
207.978890505
 20
344.6592807374
 11
208.358440685
 21
344.6924870753
  0
LINE
  5
274
100
AcDbEntity
  8
0
100
AcDbLine
 62
7
  6
CONTINUOUS
 10
219.0111490695
 20
345.6244782948
 11
224.2540022222
 21
346.0831685102
  0
LINE
  5
275
100
AcDbEntity
  8
0
100
AcDbLine
 62
7
  6
CONTINUOUS
 10
187.0775082873
 20
343.131511623
 11
161.7741629557
 21
340.9177557572
  0
LINE
  5
276
100
AcDbEntity
  8
0
100
AcDbLine
 62
7
  6
CONTINUOUS
 10
204.2705005775
 20
344.7886856837
 11
206.9273518373
 21
345.0211300496
  0
LINE
  5
277
100
AcDbEntity
  8
0
100
AcDbLine
 62
7
  6
CONTINUOUS
 10
187.0562609906
 20
343.3743693354
 11
161.752915659
 21
341.1606134697
  0
LINE
  5
278
100
AcDbEntity
  8
0
100
AcDbLine
 62
7
  6
CONTINUOUS
 10
231.0610540468
 20
347.4895137361
 11
238.399024193
 21
348.1315029372
  0
LINE
  5
279
100
AcDbEntity
  8
0
100
AcDbLine
 62
7
  6
CONTINUOUS
 10
161.7105572744
 20
341.6447720217
 11
187.0139026059
 21
343.8585278875
  0
LINE
  5
27A
100
AcDbEntity
  8
0
100
AcDbLine
 62
7
  6
CONTINUOUS
 10
218.4274971492
 20
346.6782555896
 11
209.9141929996
 21
345.9334379873
  0
LINE
  5
27B
100
AcDbEntity
  8
0
100
AcDbLine
 62
7
  6
CONTINUOUS
 10
187.0036412817
 20
343.9758153604
 11
161.7002959501
 21
341.7620594946
  0
LINE
  5
27C
100
AcDbEntity
  8
0
100
AcDbLine
 62
7
  6
CONTINUOUS
 10
325.1507579525
 20
356.1674941001
 11
332.4887280986
 21
356.8094833012
  0
LINE
  5
27D
100
AcDbEntity
  8
0
100
AcDbLine
 62
7
  6
CONTINUOUS
 10
225.6809388512
 20
347.7837253642
 11
230.9946413708
 21
348.248614096
  0
LINE
  5
27E
100
AcDbEntity
  8
0
100
AcDbLine
 62
7
  6
CONTINUOUS
 10
205.1498090388
 20
346.3954366382
 11
207.8066602986
 21
346.6278810041
  0
LINE
  5
27F
100
AcDbEntity
  8
0
100
AcDbLine
 62
7
  6
CONTINUOUS
 10
239.0474367596
 20
349.4630828797
 11
246.4288195374
 21
350.1088701939
  0
LINE
  5
280
100
AcDbEntity
  8
0
100
AcDbLine
 62
7
  6
CONTINUOUS
 10
247.100232175
 20
350.6775516657
 11
253.173035028
 21
351.2088530712
  0
LINE
  5
281
100
AcDbEntity
  8
0
100
AcDbLine
 62
7
  6
CONTINUOUS
 10
161.5638561485
 20
343.3215735637
 11
57.8201402892
 21
334.2451745139
  0
LINE
  5
282
100
AcDbEntity
  8
0
100
AcDbLine
 62
7
  6
CONTINUOUS
 10
253.173035028
 20
351.2088530712
 11
252.2432575643
 21
361.8362581104
  0
LINE
  5
283
100
AcDbEntity
  8
0
100
AcDbLine
 62
7
  6
CONTINUOUS
 10
253.2784924805
 20
392.6325364775
 11
253.2784924805
 21
396.8235364775
  0
LINE
  5
284
100
AcDbEntity
  8
0
100
AcDbLine
 62
7
  6
CONTINUOUS
 10
259.6284924805
 20
396.8235364775
 11
259.6284924805
 21
388.4415364775
  0
LINE
  5
285
100
AcDbEntity
  8
0
100
AcDbLine
 62
7
  6
CONTINUOUS
 10
263.0574924805
 20
264.1085364775
 11
263.0574924805
 21
296.3891982559
  0
LINE
  5
286
100
AcDbEntity
  8
0
100
AcDbLine
 62
7
  6
CONTINUOUS
 10
266.3868799667
 20
423.3498426977
 11
265.0575466782
 21
397.984652515
  0
LINE
  5
287
100
AcDbEntity
  8
0
100
AcDbLine
 62
7
  6
CONTINUOUS
 10
253.0844847933
 20
352.2209868845
 11
324.9459855349
 21
358.5080535433
  0
LINE
  5
288
100
AcDbEntity
  8
0
100
AcDbLine
 62
7
  6
CONTINUOUS
 10
186.7220293048
 20
347.1946549857
 11
161.4186839732
 21
344.9808991199
  0
LINE
  5
289
100
AcDbEntity
  8
0
100
AcDbLine
 62
7
  6
CONTINUOUS
 10
365.5194789976
 20
363.2051403352
 11
365.0053025271
 21
363.160155723
  0
LINE
  5
28A
100
AcDbEntity
  8
0
100
AcDbLine
 62
7
  6
CONTINUOUS
 10
354.1038788892
 20
362.2064047384
 11
336.2328719201
 21
360.6428942228
  0
LINE
  5
28B
100
AcDbEntity
  8
0
100
AcDbLine
 62
7
  6
CONTINUOUS
 10
161.3164217865
 20
346.1497612627
 11
186.619767118
 21
348.3635171285
  0
LINE
  5
28C
100
AcDbEntity
  8
0
100
AcDbLine
 62
7
  6
CONTINUOUS
 10
186.6155167384
 20
348.4120991904
 11
161.3121714068
 21
346.1983433246
  0
LINE
  5
28D
100
AcDbEntity
  8
0
100
AcDbLine
 62
7
  6
CONTINUOUS
 10
194.4668069565
 20
351.42709865
 11
202.9801111061
 21
352.1719162523
  0
LINE
  5
28E
100
AcDbEntity
  8
0
100
AcDbLine
 62
7
  6
CONTINUOUS
 10
160.9079009852
 20
350.8191753887
 11
186.2112463167
 21
353.0329312545
  0
LINE
  5
28F
100
AcDbEntity
  8
0
100
AcDbLine
 62
7
  6
CONTINUOUS
 10
186.206995937
 20
353.0815133164
 11
160.9036506055
 21
350.8677574506
  0
LINE
  5
290
100
AcDbEntity
  8
0
100
AcDbLine
 62
7
  6
CONTINUOUS
 10
352.3527646313
 20
368.4274580607
 11
335.6794329536
 21
366.9687305557
  0
LINE
  5
291
100
AcDbEntity
  8
0
100
AcDbLine
 62
7
  6
CONTINUOUS
 10
160.8013884188
 20
352.0366195934
 11
186.1047337503
 21
354.2503754592
  0
LINE
  5
292
100
AcDbEntity
  8
0
100
AcDbLine
 62
7
  6
CONTINUOUS
 10
252.331807799
 20
360.8241242972
 11
324.1933085405
 21
367.111190956
  0
LINE
  5
293
100
AcDbEntity
  8
0
100
AcDbLine
 62
7
  6
CONTINUOUS
 10
160.6562162435
 20
353.6959451496
 11
56.9125003842
 21
344.6195460999
  0
LINE
  5
294
100
AcDbEntity
  8
0
100
AcDbLine
 62
7
  6
CONTINUOUS
 10
246.170454712
 20
361.304956705
 11
252.2432575643
 21
361.8362581104
  0
LINE
  5
295
100
AcDbEntity
  8
0
100
AcDbLine
 62
7
  6
CONTINUOUS
 10
238.0291090613
 20
361.1026217322
 11
245.4104918391
 21
361.7484090464
  0
LINE
  5
296
100
AcDbEntity
  8
0
100
AcDbLine
 62
7
  6
CONTINUOUS
 10
206.7706225535
 20
358.4698466193
 11
204.1137712936
 21
358.2374022534
  0
LINE
  5
297
100
AcDbEntity
  8
0
100
AcDbLine
 62
7
  6
CONTINUOUS
 10
224.5740609183
 20
360.43539803
 11
229.8877634379
 21
360.9002867618
  0
LINE
  5
298
100
AcDbEntity
  8
0
100
AcDbLine
 62
7
  6
CONTINUOUS
 10
323.9885361229
 20
369.4517503992
 11
331.3265062691
 21
370.0937396003
  0
LINE
  5
299
100
AcDbEntity
  8
0
100
AcDbLine
 62
7
  6
CONTINUOUS
 10
160.5197764419
 20
355.2554592187
 11
185.8231217734
 21
357.4692150845
  0
LINE
  5
29A
100
AcDbEntity
  8
0
100
AcDbLine
 62
7
  6
CONTINUOUS
 10
217.2388524823
 20
360.2645263014
 11
208.7255483327
 21
359.5197086992
  0
LINE
  5
29B
100
AcDbEntity
  8
0
100
AcDbLine
 62
7
  6
CONTINUOUS
 10
185.8128604491
 20
357.5865025574
 11
160.5095151176
 21
355.3727466916
  0
LINE
  5
29C
100
AcDbEntity
  8
0
100
AcDbLine
 62
7
  6
CONTINUOUS
 10
229.821350762
 20
361.6593871217
 11
237.1593209081
 21
362.3013763228
  0
LINE
  5
29D
100
AcDbEntity
  8
0
100
AcDbLine
 62
7
  6
CONTINUOUS
 10
160.467156733
 20
355.8569052437
 11
185.7705020645
 21
358.0706611094
  0
LINE
  5
29E
100
AcDbEntity
  8
0
100
AcDbLine
 62
7
  6
CONTINUOUS
 10
205.6256633882
 20
359.8994971046
 11
202.9688121284
 21
359.6670527387
  0
LINE
  5
29F
100
AcDbEntity
  8
0
100
AcDbLine
 62
7
  6
CONTINUOUS
 10
185.7492547678
 20
358.3135188219
 11
160.4459094363
 21
356.0997629561
  0
LINE
  5
2A0
100
AcDbEntity
  8
0
100
AcDbLine
 62
7
  6
CONTINUOUS
 10
186.4822328085
 20
358.6785109728
 11
193.2888327027
 21
359.2740113007
  0
LINE
  5
2A1
100
AcDbEntity
  8
0
100
AcDbLine
 62
7
  6
CONTINUOUS
 10
206.5983923471
 20
360.4384468861
 11
206.9779425271
 21
360.4716532241
  0
LINE
  5
2A2
100
AcDbEntity
  8
0
100
AcDbLine
 62
7
  6
CONTINUOUS
 10
217.6306509116
 20
361.4036444436
 11
222.8735040643
 21
361.862334659
  0
LINE
  5
2A3
100
AcDbEntity
  8
0
100
AcDbLine
 62
7
  6
CONTINUOUS
 10
185.7215828195
 20
358.6298106385
 11
186.4806831794
 21
358.6962233145
  0
LINE
  5
2A4
100
AcDbEntity
  8
0
100
AcDbLine
 62
7
  6
CONTINUOUS
 10
206.5285942008
 20
361.2362433485
 11
205.5164603876
 21
361.1476931138
  0
LINE
  5
2A5
100
AcDbEntity
  8
0
100
AcDbLine
 62
7
  6
CONTINUOUS
 10
361.423988346
 20
356.6915364775
 11
408.0431159525
 21
356.6915364775
  0
LINE
  5
2A6
100
AcDbEntity
  8
0
100
AcDbLine
 62
7
  6
CONTINUOUS
 10
337.2300554539
 20
360.7301364775
 11
338.9621765859
 21
360.7301364775
  0
LINE
  5
2A7
100
AcDbEntity
  8
0
100
AcDbLine
 62
7
  6
CONTINUOUS
 10
207.7370819494
 20
365.2005364775
 11
207.9350961625
 21
365.2005364775
  0
LINE
  5
2A8
100
AcDbEntity
  8
0
100
AcDbLine
 62
7
  6
CONTINUOUS
 10
217.2915038603
 20
365.2005364775
 11
279.6940489164
 21
365.2005364775
  0
LINE
  5
2A9
100
AcDbEntity
  8
0
100
AcDbLine
 62
7
  6
CONTINUOUS
 10
357.748020955
 20
319.5130299817
 11
333.8798283871
 21
328.2003416222
  0
LINE
  5
2AA
100
AcDbEntity
  8
0
100
AcDbLine
 62
7
  6
CONTINUOUS
 10
395.9406919505
 20
309.2340700386
 11
376.8132651408
 21
316.1958840555
  0
LINE
  5
2AB
100
AcDbEntity
  8
0
100
AcDbLine
 62
7
  6
CONTINUOUS
 10
279.6563924805
 20
292.3914364775
 11
279.6563924805
 21
293.188172754
  0
LINE
  5
2AC
100
AcDbEntity
  8
0
100
AcDbLine
 62
7
  6
CONTINUOUS
 10
279.6563924805
 20
294.5893393165
 11
279.6563924805
 21
295.2616364775
  0
LINE
  5
2AD
100
AcDbEntity
  8
0
100
AcDbLine
 62
7
  6
CONTINUOUS
 10
268.5499224935
 20
423.2364824424
 11
267.2205892048
 21
397.8712922584
  0
LINE
  5
2AE
100
AcDbEntity
  8
0
100
AcDbLine
 62
7
  6
CONTINUOUS
 10
271.9545100597
 20
412.9599284589
 11
272.0733166333
 21
415.2268929285
  0
LINE
  5
2AF
100
AcDbEntity
  8
0
100
AcDbLine
 62
7
  6
CONTINUOUS
 10
275.1251588325
 20
412.7937617978
 11
275.2439654061
 21
415.0607262674
  0
LINE
  5
2B0
100
AcDbEntity
  8
0
100
AcDbLine
 62
7
  6
CONTINUOUS
 10
278.2559548189
 20
397.2929532544
 11
279.5852881073
 21
422.6581434353
  0
LINE
  5
2B1
100
AcDbEntity
  8
0
100
AcDbLine
 62
7
  6
CONTINUOUS
 10
280.4189973456
 20
397.1795929989
 11
281.7483306342
 21
422.5447831816
  0
LINE
  5
2B2
100
AcDbEntity
  8
0
100
AcDbLine
 62
7
  6
CONTINUOUS
 10
202.645603772
 20
363.3613411571
 11
205.3024550318
 21
363.593785523
  0
LINE
  5
2B3
100
AcDbEntity
  8
0
100
AcDbLine
 62
7
  6
CONTINUOUS
 10
192.9496853041
 20
363.1504838055
 11
202.4384398034
 21
363.9806422552
  0
LINE
  5
2B4
100
AcDbEntity
  8
0
100
AcDbLine
 62
7
  6
CONTINUOUS
 10
202.5127784201
 20
364.8795418769
 11
206.1817634932
 21
365.2005364775
  0
LINE
  5
2B5
100
AcDbEntity
  8
0
100
AcDbLine
 62
7
  6
CONTINUOUS
 10
207.6610686383
 20
366.0693725999
 11
206.497114753
 21
365.9675398301
  0
LINE
  5
2B6
100
AcDbEntity
  8
0
100
AcDbLine
 62
7
  6
CONTINUOUS
 10
202.296759428
 20
365.6000563564
 11
203.4607133132
 21
365.7018891262
  0
LINE
  5
2B7
100
AcDbEntity
  8
0
100
AcDbLine
 62
7
  6
CONTINUOUS
 10
216.6445301489
 20
367.0576616574
 11
208.1312259992
 21
366.3128440551
  0
LINE
  5
2B8
100
AcDbEntity
  8
0
100
AcDbLine
 62
7
  6
CONTINUOUS
 10
265.9784924805
 20
382.0915364775
 11
342.490996615
 21
382.0915364775
  0
LINE
  5
2B9
100
AcDbEntity
  8
0
100
AcDbLine
 62
7
  6
CONTINUOUS
 10
331.3265062691
 20
370.0937396003
 11
335.4691261464
 21
369.3725483622
  0
LINE
  5
2BA
100
AcDbEntity
  8
0
100
AcDbLine
 62
7
  6
CONTINUOUS
 10
372.1792797948
 20
340.5964298372
 11
336.3769909428
 21
353.6273972979
  0
LINE
  5
2BB
100
AcDbEntity
  8
0
100
AcDbLine
 62
7
  6
CONTINUOUS
 10
336.757848075
 20
354.6737936687
 11
372.560136927
 21
341.642826208
  0
LINE
  5
2BC
100
AcDbEntity
  8
0
100
AcDbLine
 62
7
  6
CONTINUOUS
 10
282.5265924805
 20
295.2616364775
 11
282.5265924805
 21
294.5893393165
  0
LINE
  5
2BD
100
AcDbEntity
  8
0
100
AcDbLine
 62
7
  6
CONTINUOUS
 10
282.5265924805
 20
293.188172754
 11
282.5265924805
 21
292.3914364775
  0
LINE
  5
2BE
100
AcDbEntity
  8
0
100
AcDbLine
 62
7
  6
CONTINUOUS
 10
284.7744924805
 20
445.0835364775
 11
284.7744924805
 21
467.3085364775
  0
LINE
  5
2BF
100
AcDbEntity
  8
0
100
AcDbLine
 62
7
  6
CONTINUOUS
 10
285.5364924805
 20
467.3085364775
 11
285.5364924805
 21
464.6415364775
  0
LINE
  5
2C0
100
AcDbEntity
  8
0
100
AcDbLine
 62
7
  6
CONTINUOUS
 10
332.4887280986
 20
356.8094833012
 11
336.4431787273
 21
358.2390764163
  0
LINE
  5
2C1
100
AcDbEntity
  8
0
100
AcDbLine
 62
7
  6
CONTINUOUS
 10
253.2784924805
 20
392.6325364775
 11
234.2284924805
 21
392.6325364775
  0
LINE
  5
2C2
100
AcDbEntity
  8
0
100
AcDbLine
 62
7
  6
CONTINUOUS
 10
234.2284924805
 20
396.8235364775
 11
253.2784924805
 21
396.8235364775
  0
LINE
  5
2C3
100
AcDbEntity
  8
0
100
AcDbLine
 62
7
  6
CONTINUOUS
 10
258.1044924805
 20
398.3475364775
 11
254.8024924805
 21
398.3475364775
  0
LINE
  5
2C4
100
AcDbEntity
  8
0
100
AcDbLine
 62
7
  6
CONTINUOUS
 10
218.7344924805
 20
398.3475364775
 11
232.7044924805
 21
398.3475364775
  0
LINE
  5
2C5
100
AcDbEntity
  8
0
100
AcDbLine
 62
7
  6
CONTINUOUS
 10
265.0575466782
 20
397.9846525149
 11
267.2205892049
 21
397.8712922596
  0
LINE
  5
2C6
100
AcDbEntity
  8
0
100
AcDbLine
 62
7
  6
CONTINUOUS
 10
278.2559548188
 20
397.2929532543
 11
280.4189973456
 21
397.179592999
  0
LINE
  5
2C7
100
AcDbEntity
  8
0
100
AcDbLine
 62
7
  6
CONTINUOUS
 10
373.9884968081
 20
345.5672127284
 11
338.1862079562
 21
358.5981801891
  0
LINE
  5
2C8
100
AcDbEntity
  8
0
100
AcDbLine
 62
7
  6
CONTINUOUS
 10
339.9677063846
 20
360.9696498986
 11
374.9590682096
 21
348.2338357379
  0
LINE
  5
2C9
100
AcDbEntity
  8
0
100
AcDbLine
 62
7
  6
CONTINUOUS
 10
305.0563924805
 20
330.4914364775
 11
305.0563924805
 21
331.288172754
  0
LINE
  5
2CA
100
AcDbEntity
  8
0
100
AcDbLine
 62
7
  6
CONTINUOUS
 10
305.0563924805
 20
332.6893393165
 11
305.0563924805
 21
333.3616364775
  0
LINE
  5
2CB
100
AcDbEntity
  8
0
100
AcDbLine
 62
7
  6
CONTINUOUS
 10
307.9265924805
 20
333.3616364775
 11
307.9265924805
 21
332.6893393165
  0
LINE
  5
2CC
100
AcDbEntity
  8
0
100
AcDbLine
 62
7
  6
CONTINUOUS
 10
307.9265924805
 20
331.288172754
 11
307.9265924805
 21
330.4914364775
  0
LINE
  5
2CD
100
AcDbEntity
  8
0
100
AcDbLine
 62
7
  6
CONTINUOUS
 10
306.0029016258
 20
401.4344660596
 11
306.3551836308
 21
408.1564071485
  0
LINE
  5
2CE
100
AcDbEntity
  8
0
100
AcDbLine
 62
7
  6
CONTINUOUS
 10
346.2308689156
 20
367.8918615863
 11
351.554545928
 21
370.3743329468
  0
LINE
  5
2CF
100
AcDbEntity
  8
0
100
AcDbLine
 62
7
  6
CONTINUOUS
 10
457.6846460088
 20
394.1915308047
 11
454.7188445815
 21
394.3469618713
  0
LINE
  5
2D0
100
AcDbEntity
  8
0
100
AcDbLine
 62
7
  6
CONTINUOUS
 10
155.179720035
 20
411.2463883903
 11
212.3844924805
 21
408.2484133021
  0
LINE
  5
2D1
100
AcDbEntity
  8
0
100
AcDbLine
 62
7
  6
CONTINUOUS
 10
274.7325606791
 20
405.3025427681
 11
271.5619119062
 21
405.4687094292
  0
LINE
  5
2D2
100
AcDbEntity
  8
0
100
AcDbLine
 62
7
  6
CONTINUOUS
 10
457.836722435
 20
397.0933218801
 11
454.8709210077
 21
397.2487529467
  0
LINE
  5
2D3
100
AcDbEntity
  8
0
100
AcDbLine
 62
7
  6
CONTINUOUS
 10
274.8213339269
 20
406.9964372441
 11
271.6506851541
 21
407.1626039051
  0
LINE
  5
2D4
100
AcDbEntity
  8
0
100
AcDbLine
 62
7
  6
CONTINUOUS
 10
441.6658125024
 20
398.2670770957
 11
454.3923893333
 21
397.6001054661
  0
LINE
  5
2D5
100
AcDbEntity
  8
0
100
AcDbLine
 62
7
  6
CONTINUOUS
 10
458.3493590018
 20
397.3927294731
 11
468.2925135534
 21
396.871630824
  0
LINE
  5
2D6
100
AcDbEntity
  8
0
100
AcDbLine
 62
7
  6
CONTINUOUS
 10
271.7106422093
 20
408.3066526723
 11
279.6346931943
 21
407.8913707573
  0
LINE
  5
2D7
100
AcDbEntity
  8
0
100
AcDbLine
 62
7
  6
CONTINUOUS
 10
274.8870612293
 20
408.2505888855
 11
271.7164124565
 21
408.4167555466
  0
LINE
  5
2D8
100
AcDbEntity
  8
0
100
AcDbLine
 62
7
  6
CONTINUOUS
 10
271.8873814969
 20
411.6790391754
 11
275.0580302697
 21
411.5128725144
  0
LINE
  5
2D9
100
AcDbEntity
  8
0
100
AcDbLine
 62
7
  6
CONTINUOUS
 10
275.0624777114
 20
411.5977347579
 11
271.8918289386
 21
411.763901419
  0
LINE
  5
2DA
100
AcDbEntity
  8
0
100
AcDbLine
 62
7
  6
CONTINUOUS
 10
271.9545100597
 20
412.9599284589
 11
275.1251588325
 21
412.7937617978
  0
LINE
  5
2DB
100
AcDbEntity
  8
0
100
AcDbLine
 62
7
  6
CONTINUOUS
 10
458.1720179685
 20
403.4911417846
 11
455.2062165412
 21
403.6465728512
  0
LINE
  5
2DC
100
AcDbEntity
  8
0
100
AcDbLine
 62
7
  6
CONTINUOUS
 10
349.6430237282
 20
375.0365822147
 11
344.8096013858
 21
376.795804077
  0
LINE
  5
2DD
100
AcDbEntity
  8
0
100
AcDbLine
 62
7
  6
CONTINUOUS
 10
307.1392802076
 20
356.8450138745
 11
319.7315419488
 21
322.2480590806
  0
LINE
  5
2DE
100
AcDbEntity
  8
0
100
AcDbLine
 62
7
  6
CONTINUOUS
 10
323.9885361229
 20
369.4517503992
 11
325.1507579525
 21
356.1674941001
  0
LINE
  5
2DF
100
AcDbEntity
  8
0
100
AcDbLine
 62
7
  6
CONTINUOUS
 10
317.7563924805
 20
292.3914364775
 11
317.7563924805
 21
293.188172754
  0
LINE
  5
2E0
100
AcDbEntity
  8
0
100
AcDbLine
 62
7
  6
CONTINUOUS
 10
317.7563924805
 20
294.5893393165
 11
317.7563924805
 21
295.2616364775
  0
LINE
  5
2E1
100
AcDbEntity
  8
0
100
AcDbLine
 62
7
  6
CONTINUOUS
 10
320.6265924805
 20
295.2616364775
 11
320.6265924805
 21
294.5893393165
  0
LINE
  5
2E2
100
AcDbEntity
  8
0
100
AcDbLine
 62
7
  6
CONTINUOUS
 10
320.6265924805
 20
293.188172754
 11
320.6265924805
 21
292.3914364775
  0
LINE
  5
2E3
100
AcDbEntity
  8
0
100
AcDbLine
 62
7
  6
CONTINUOUS
 10
229.8991511264
 20
425.0825156003
 11
232.0638426206
 21
425.0069229076
  0
LINE
  5
2E4
100
AcDbEntity
  8
0
100
AcDbLine
 62
7
  6
CONTINUOUS
 10
243.1076209023
 20
424.621265672
 11
245.2723123964
 21
424.5456729793
  0
LINE
  5
2E5
100
AcDbEntity
  8
0
100
AcDbLine
 62
7
  6
CONTINUOUS
 10
445.5846495794
 20
404.4204139442
 11
454.7247226554
 21
403.9414030118
  0
LINE
  5
2E6
100
AcDbEntity
  8
0
100
AcDbLine
 62
7
  6
CONTINUOUS
 10
458.6816923239
 20
403.7340270188
 11
468.6248468756
 21
403.2129283697
  0
LINE
  5
2E7
100
AcDbEntity
  8
0
100
AcDbLine
 62
7
  6
CONTINUOUS
 10
272.0733166333
 20
415.2268929285
 11
275.2439654061
 21
415.0607262674
  0
LINE
  5
2E8
100
AcDbEntity
  8
0
100
AcDbLine
 62
7
  6
CONTINUOUS
 10
155.7247466833
 20
421.6461163653
 11
212.3844924805
 21
418.6767049133
  0
LINE
  5
2E9
100
AcDbEntity
  8
0
100
AcDbLine
 62
7
  6
CONTINUOUS
 10
458.3552370757
 20
406.9871706137
 11
455.3894356484
 21
407.1426016803
  0
LINE
  5
2EA
100
AcDbEntity
  8
0
100
AcDbLine
 62
7
  6
CONTINUOUS
 10
281.7483306342
 20
422.5447831817
 11
279.5852881074
 21
422.658143437
  0
LINE
  5
2EB
100
AcDbEntity
  8
0
100
AcDbLine
 62
7
  6
CONTINUOUS
 10
268.5499224935
 20
423.2364824423
 11
266.3868799667
 21
423.3498426976
  0
LINE
  5
2EC
100
AcDbEntity
  8
0
100
AcDbLine
 62
7
  6
CONTINUOUS
 10
332.4887280986
 20
356.8094833012
 11
331.3265062691
 21
370.0937396003
  0
LINE
  5
2ED
100
AcDbEntity
  8
0
100
AcDbLine
 62
7
  6
CONTINUOUS
 10
336.4431787273
 20
358.2390764163
 11
335.4691261464
 21
369.3725483622
  0
LINE
  5
2EE
100
AcDbEntity
  8
0
100
AcDbLine
 62
7
  6
CONTINUOUS
 10
330.1134924805
 20
301.1258727612
 11
330.1134924805
 21
289.0005364775
  0
LINE
  5
2EF
100
AcDbEntity
  8
0
100
AcDbLine
 62
7
  6
CONTINUOUS
 10
336.5698865497
 20
333.6431426198
 11
336.5698865497
 21
334.4398788963
  0
LINE
  5
2F0
100
AcDbEntity
  8
0
100
AcDbLine
 62
7
  6
CONTINUOUS
 10
336.5698865497
 20
335.8410454589
 11
336.5698865497
 21
336.5133426198
  0
LINE
  5
2F1
100
AcDbEntity
  8
0
100
AcDbLine
 62
7
  6
CONTINUOUS
 10
339.4400865497
 20
336.5133426198
 11
339.4400865497
 21
335.8410454589
  0
LINE
  5
2F2
100
AcDbEntity
  8
0
100
AcDbLine
 62
7
  6
CONTINUOUS
 10
339.4400865497
 20
334.4398788963
 11
339.4400865497
 21
333.6431426198
  0
LINE
  5
2F3
100
AcDbEntity
  8
0
100
AcDbLine
 62
7
  6
CONTINUOUS
 10
324.7332241846
 20
321.6364110524
 11
339.0191471136
 21
360.8866617157
  0
LINE
  5
2F4
100
AcDbEntity
  8
0
100
AcDbLine
 62
7
  6
CONTINUOUS
 10
341.4154940734
 20
367.470570877
 11
346.267530567
 21
380.8014315815
  0
LINE
  5
2F5
100
AcDbEntity
  8
0
100
AcDbLine
 62
7
  6
CONTINUOUS
 10
338.1144924805
 20
438.7335364775
 11
291.1244924805
 21
438.7335364775
  0
LINE
  5
2F6
100
AcDbEntity
  8
0
100
AcDbLine
 62
7
  6
CONTINUOUS
 10
239.4449767809
 20
432.56814358
 11
236.2719109051
 21
432.678949482
  0
LINE
  5
2F7
100
AcDbEntity
  8
0
100
AcDbLine
 62
7
  6
CONTINUOUS
 10
236.6129339582
 20
442.4445720058
 11
239.785999834
 21
442.3337661038
  0
LINE
  5
2F8
100
AcDbEntity
  8
0
100
AcDbLine
 62
7
  6
CONTINUOUS
 10
343.7024924805
 20
464.6415364775
 11
343.7024924805
 21
467.3085364775
  0
LINE
  5
2F9
100
AcDbEntity
  8
0
100
AcDbLine
 62
7
  6
CONTINUOUS
 10
344.4644924805
 20
445.0835364775
 11
344.4644924805
 21
467.3085364775
  0
LINE
  5
2FA
100
AcDbEntity
  8
0
100
AcDbLine
 62
7
  6
CONTINUOUS
 10
246.1587596127
 20
449.9301999855
 11
243.9940681185
 21
450.0057926782
  0
LINE
  5
2FB
100
AcDbEntity
  8
0
100
AcDbLine
 62
7
  6
CONTINUOUS
 10
232.9502898368
 20
450.3914499138
 11
230.7855983427
 21
450.4670426065
  0
LINE
  5
2FC
100
AcDbEntity
  8
0
100
AcDbLine
 62
7
  6
CONTINUOUS
 10
355.5486387479
 20
360.6326431423
 11
348.3663462129
 21
378.1504298129
  0
LINE
  5
2FD
100
AcDbEntity
  8
0
100
AcDbLine
 62
7
  6
CONTINUOUS
 10
357.5738960095
 20
325.9983083762
 11
357.5738960095
 21
326.7950446527
  0
LINE
  5
2FE
100
AcDbEntity
  8
0
100
AcDbLine
 62
7
  6
CONTINUOUS
 10
357.5738960095
 20
328.1962112152
 11
357.5738960095
 21
328.8685083762
  0
LINE
  5
2FF
100
AcDbEntity
  8
0
100
AcDbLine
 62
7
  6
CONTINUOUS
 10
360.4440960095
 20
328.8685083762
 11
360.4440960095
 21
328.1962112152
  0
LINE
  5
300
100
AcDbEntity
  8
0
100
AcDbLine
 62
7
  6
CONTINUOUS
 10
360.4440960095
 20
326.7950446527
 11
360.4440960095
 21
325.9983083762
  0
LINE
  5
301
100
AcDbEntity
  8
0
100
AcDbLine
 62
7
  6
CONTINUOUS
 10
445.8104924805
 20
463.1175364775
 11
344.4644924805
 21
463.1175364775
  0
LINE
  5
302
100
AcDbEntity
  8
0
100
AcDbLine
 62
7
  6
CONTINUOUS
 10
284.7744924805
 20
463.1175364775
 11
212.3844924805
 21
463.1175364775
  0
LINE
  5
303
100
AcDbEntity
  8
0
100
AcDbLine
 62
7
  6
CONTINUOUS
 10
284.7744924805
 20
464.6415364775
 11
344.4644924805
 21
464.6415364775
  0
LINE
  5
304
100
AcDbEntity
  8
0
100
AcDbLine
 62
7
  6
CONTINUOUS
 10
212.3844924805
 20
467.3085364775
 11
445.8104924805
 21
467.3085364775
  0
LINE
  5
305
100
AcDbEntity
  8
0
100
AcDbLine
 62
7
  6
CONTINUOUS
 10
374.3435338368
 20
356.6915364775
 11
375.3065307399
 21
354.6263829544
  0
LINE
  5
306
100
AcDbEntity
  8
0
100
AcDbLine
 62
7
  6
CONTINUOUS
 10
383.8344924805
 20
320.6489364775
 11
383.8344924805
 21
313.6403662958
  0
LINE
  5
307
100
AcDbEntity
  8
0
100
AcDbLine
 62
7
  6
CONTINUOUS
 10
383.8344924805
 20
304.3792034173
 11
383.8344924805
 21
292.5811359749
  0
LINE
  5
308
100
AcDbEntity
  8
0
100
AcDbLine
 62
7
  6
CONTINUOUS
 10
383.8344924805
 20
264.1085364775
 11
383.8344924805
 21
286.0580359966
  0
LINE
  5
309
100
AcDbEntity
  8
0
100
AcDbLine
 62
7
  6
CONTINUOUS
 10
365.8868970071
 20
323.3082502136
 11
378.0374195292
 21
356.6915364775
  0
LINE
  5
30A
100
AcDbEntity
  8
0
100
AcDbLine
 62
7
  6
CONTINUOUS
 10
469.0933492576
 20
397.5927065308
 11
468.2925135535
 21
396.871630824
  0
LINE
  5
30B
100
AcDbEntity
  8
0
100
AcDbLine
 62
7
  6
CONTINUOUS
 10
392.1555823459
 20
356.6915364775
 11
383.8344924805
 21
320.6489364775
  0
LINE
  5
30C
100
AcDbEntity
  8
0
100
AcDbLine
 62
7
  6
CONTINUOUS
 10
454.8493476512
 20
406.3193895914
 11
455.274370797
 21
406.9738678424
  0
LINE
  5
30D
100
AcDbEntity
  8
0
100
AcDbLine
 62
7
  6
CONTINUOUS
 10
455.2744007106
 20
406.9738626996
 11
455.3894356484
 21
407.1426016803
  0
LINE
  5
30E
100
AcDbEntity
  8
0
100
AcDbLine
 62
7
  6
CONTINUOUS
 10
444.5864160539
 20
402.261431953
 11
413.1690395259
 21
359.2935493485
  0
LINE
  5
30F
100
AcDbEntity
  8
0
100
AcDbLine
 62
7
  6
CONTINUOUS
 10
409.2344924805
 20
264.1085364775
 11
409.2344924805
 21
266.7501364775
  0
LINE
  5
310
100
AcDbEntity
  8
0
100
AcDbLine
 62
7
  6
CONTINUOUS
 10
415.5844924805
 20
266.7501364775
 11
415.5844924805
 21
264.1085364775
  0
LINE
  5
311
100
AcDbEntity
  8
0
100
AcDbLine
 62
7
  6
CONTINUOUS
 10
458.224734006
 20
395.0147428935
 11
457.7997108602
 21
394.3602646425
  0
LINE
  5
312
100
AcDbEntity
  8
0
100
AcDbLine
 62
7
  6
CONTINUOUS
 10
457.6846460088
 20
394.1915308047
 11
457.7996786232
 21
394.3602701849
  0
LINE
  5
313
100
AcDbEntity
  8
0
100
AcDbLine
 62
7
  6
CONTINUOUS
 10
445.8104924805
 20
406.0094190819
 11
445.8104924805
 21
467.3085364775
  0
LINE
  5
314
100
AcDbEntity
  8
0
100
AcDbLine
 62
7
  6
CONTINUOUS
 10
469.3459225824
 20
402.4120926655
 11
468.6248468756
 21
403.2129283697
  0
LINE
  5
315
100
AcDbEntity
  8
0
100
AcDbLine
 62
7
  6
CONTINUOUS
 10
454.6220778435
 20
394.5268009074
 11
454.7188445815
 21
394.3469618713
  0
LINE
  5
316
100
AcDbEntity
  8
0
100
AcDbLine
 62
7
  6
CONTINUOUS
 10
454.2677643375
 20
395.2221188865
 11
454.6220475562
 21
394.5267989196
  0
LINE
  5
317
100
AcDbEntity
  8
0
100
AcDbLine
 62
7
  6
CONTINUOUS
 10
454.8493456836
 20
406.3193520462
 11
454.2677663052
 21
395.2221564317
  0
LINE
  5
318
100
AcDbEntity
  8
0
100
AcDbLine
 62
7
  6
CONTINUOUS
 10
458.2247359737
 20
395.0147804387
 11
458.8063153521
 21
406.1119760532
  0
LINE
  5
319
100
AcDbEntity
  8
0
100
AcDbLine
 62
7
  6
CONTINUOUS
 10
458.3552370757
 20
406.9871706137
 11
458.4520014613
 21
406.807331423
  0
LINE
  5
31A
100
AcDbEntity
  8
0
100
AcDbLine
 62
7
  6
CONTINUOUS
 10
458.8063173198
 20
406.1120135984
 11
458.4520341011
 21
406.8073335654
  0
LINE
  5
31B
100
AcDbEntity
  8
0
100
AcDbLine
 62
7
  6
CONTINUOUS
 10
468.2925135534
 20
396.871630824
 11
468.6248468756
 21
403.2129283697
  0
LINE
  5
31C
100
AcDbEntity
  8
0
100
AcDbLine
 62
7
  6
CONTINUOUS
 10
469.0933612641
 20
397.592935628
 11
469.3459105759
 21
402.4118635683
  0
ARC
  5
31D
100
AcDbEntity
  8
0
100
AcDbCircle
 62
7
  6
CONTINUOUS
 10
168.414166454
 20
355.0189404758
 40
34.6769740683
100
AcDbArc
 50
7.6646960766
 51
8.2438102785
  0
ARC
  5
31E
100
AcDbEntity
  8
0
100
AcDbCircle
 62
7
  6
CONTINUOUS
 10
169.607183893
 20
355.1753369807
 40
33.4737563446
100
AcDbArc
 50
5.0083288353
 51
7.6717484028
  0
ARC
  5
31F
100
AcDbEntity
  8
0
100
AcDbCircle
 62
7
  6
CONTINUOUS
 10
221.3962789192
 20
343.5564640227
 40
11.7220918918
100
AcDbArc
 50
188.5362731367
 51
192.8779867171
  0
ARC
  5
320
100
AcDbEntity
  8
0
100
AcDbCircle
 62
7
  6
CONTINUOUS
 10
219.0156061244
 20
363.8409974808
 40
11.1171144603
100
AcDbArc
 50
181.4742255179
 51
184.9920905489
  0
ARC
  5
321
100
AcDbEntity
  8
0
100
AcDbCircle
 62
7
  6
CONTINUOUS
 10
220.7983047778
 20
343.4646488271
 40
11.1171136056
100
AcDbArc
 50
185.0079085379
 51
188.5257723168
  0
ARC
  5
322
100
AcDbEntity
  8
0
100
AcDbCircle
 62
7
  6
CONTINUOUS
 10
245.2520924805
 20
318.0835364775
 40
6.35
100
AcDbArc
 50
213.8085885804
 51
248.4084021397
  0
CIRCLE
  5
323
100
AcDbEntity
  8
0
100
AcDbCircle
 62
7
  6
CONTINUOUS
 10
281.0914924805
 20
293.8265364775
 40
4.7371
  0
ARC
  5
324
100
AcDbEntity
  8
0
100
AcDbCircle
 62
7
  6
CONTINUOUS
 10
277.3243836579
 20
289.0005364775
 40
3.048
100
AcDbArc
 50
231.6850100969
 51
270.0
  0
ARC
  5
325
100
AcDbEntity
  8
0
100
AcDbCircle
 62
7
  6
CONTINUOUS
 10
279.6940489164
 20
362.1525364775
 40
3.048
100
AcDbArc
 50
24.9943505011
 51
90.0
  0
ARC
  5
326
100
AcDbEntity
  8
0
100
AcDbCircle
 62
7
  6
CONTINUOUS
 10
237.2257335841
 20
361.5422759629
 40
0.762
100
AcDbArc
 50
5.0000001755
 51
95.0
  0
ARC
  5
327
100
AcDbEntity
  8
0
100
AcDbCircle
 62
7
  6
CONTINUOUS
 10
238.332611517
 20
348.8906032971
 40
0.762
100
AcDbArc
 50
275.0
 51
4.9999998245
  0
ARC
  5
328
100
AcDbEntity
  8
0
100
AcDbCircle
 62
7
  6
CONTINUOUS
 10
246.3624079342
 20
350.8679706477
 40
0.762
100
AcDbArc
 50
275.0
 51
345.5287793655
  0
ARC
  5
329
100
AcDbEntity
  8
0
100
AcDbCircle
 62
7
  6
CONTINUOUS
 10
245.4769055872
 20
360.9893087803
 40
0.762
100
AcDbArc
 50
24.4712206345
 51
95.0
  0
ARC
  5
32A
100
AcDbEntity
  8
0
100
AcDbCircle
 62
7
  6
CONTINUOUS
 10
237.5857317614
 20
424.8140942898
 40
7.6912659464
100
AcDbArc
 50
177.9999999999
 51
358.000000001
  0
ARC
  5
32B
100
AcDbEntity
  8
0
100
AcDbCircle
 62
7
  6
CONTINUOUS
 10
238.4721789777
 20
450.1986212961
 40
7.6912659464
100
AcDbArc
 50
357.9999999999
 51
178.0000000009
  0
ARC
  5
32C
100
AcDbEntity
  8
0
100
AcDbCircle
 62
7
  6
CONTINUOUS
 10
274.0676053004
 20
422.9473129397
 40
7.6912659464
100
AcDbArc
 50
356.9999999998
 51
177.0000000002
  0
ARC
  5
32D
100
AcDbEntity
  8
0
100
AcDbCircle
 62
7
  6
CONTINUOUS
 10
272.7382720119
 20
397.5821227569
 40
7.6912659464
100
AcDbArc
 50
176.9999999998
 51
357.0000000004
  0
ARC
  5
32E
100
AcDbEntity
  8
0
100
AcDbCircle
 62
7
  6
CONTINUOUS
 10
218.7344924805
 20
404.6975364775
 40
6.35
100
AcDbArc
 50
180.0
 51
270.0
  0
ARC
  5
32F
100
AcDbEntity
  8
0
100
AcDbCircle
 62
7
  6
CONTINUOUS
 10
265.9784924805
 20
388.4415364775
 40
6.35
100
AcDbArc
 50
180.0
 51
270.0
  0
ARC
  5
330
100
AcDbEntity
  8
0
100
AcDbCircle
 62
7
  6
CONTINUOUS
 10
291.1244924805
 20
445.0835364775
 40
6.35
100
AcDbArc
 50
180.0
 51
270.0
  0
ARC
  5
331
100
AcDbEntity
  8
0
100
AcDbCircle
 62
7
  6
CONTINUOUS
 10
238.4721789777
 20
450.1986212961
 40
5.5252549769
100
AcDbArc
 50
358.0000000093
 51
178.0000000015
  0
ARC
  5
332
100
AcDbEntity
  8
0
100
AcDbCircle
 62
7
  6
CONTINUOUS
 10
237.5857317614
 20
424.8140942898
 40
5.5252549769
100
AcDbArc
 50
178.0000000102
 51
358.0000000015
  0
ARC
  5
333
100
AcDbEntity
  8
0
100
AcDbCircle
 62
7
  6
CONTINUOUS
 10
272.7382720119
 20
397.5821227569
 40
5.5252549769
100
AcDbArc
 50
177.0000000128
 51
357.0000000023
  0
ARC
  5
334
100
AcDbEntity
  8
0
100
AcDbCircle
 62
7
  6
CONTINUOUS
 10
274.0676053004
 20
422.9473129397
 40
5.5252549769
100
AcDbArc
 50
356.9999999822
 51
177.0000000004
  0
CIRCLE
  5
335
100
AcDbEntity
  8
0
100
AcDbCircle
 62
7
  6
CONTINUOUS
 10
272.7382720119
 20
397.5821227569
 40
2.413
  0
CIRCLE
  5
336
100
AcDbEntity
  8
0
100
AcDbCircle
 62
7
  6
CONTINUOUS
 10
274.0676053004
 20
422.9473129397
 40
2.413
  0
CIRCLE
  5
337
100
AcDbEntity
  8
0
100
AcDbCircle
 62
7
  6
CONTINUOUS
 10
237.5857317614
 20
424.8140942898
 40
2.0193
  0
CIRCLE
  5
338
100
AcDbEntity
  8
0
100
AcDbCircle
 62
7
  6
CONTINUOUS
 10
238.4721789777
 20
450.1986212961
 40
2.0193
  0
ARC
  5
339
100
AcDbEntity
  8
0
100
AcDbCircle
 62
7
  6
CONTINUOUS
 10
232.7044924805
 20
396.8235364775
 40
1.524
100
AcDbArc
 50
0.0
 51
90.0
  0
ARC
  5
33A
100
AcDbEntity
  8
0
100
AcDbCircle
 62
7
  6
CONTINUOUS
 10
254.8024924805
 20
396.8235364775
 40
1.524
100
AcDbArc
 50
90.0
 51
180.0
  0
ARC
  5
33B
100
AcDbEntity
  8
0
100
AcDbCircle
 62
7
  6
CONTINUOUS
 10
258.1044924805
 20
396.8235364775
 40
1.524
100
AcDbArc
 50
0.0
 51
90.0
  0
ARC
  5
33C
100
AcDbEntity
  8
0
100
AcDbCircle
 62
7
  6
CONTINUOUS
 10
342.6343686106
 20
315.1209273221
 40
19.05
100
AcDbArc
 50
160.0
 51
257.0000000002
  0
CIRCLE
  5
33D
100
AcDbEntity
  8
0
100
AcDbCircle
 62
7
  6
CONTINUOUS
 10
319.1914924805
 20
293.8265364775
 40
4.7371
  0
ARC
  5
33E
100
AcDbEntity
  8
0
100
AcDbCircle
 62
7
  6
CONTINUOUS
 10
327.0654924805
 20
289.0005364775
 40
3.048
100
AcDbArc
 50
270.0
 51
360.0
  0
ARC
  5
33F
100
AcDbEntity
  8
0
100
AcDbCircle
 62
7
  6
CONTINUOUS
 10
322.5957250569
 20
323.2905364775
 40
3.048
100
AcDbArc
 50
200.0000000012
 51
270.0
  0
ARC
  5
340
100
AcDbEntity
  8
0
100
AcDbCircle
 62
7
  6
CONTINUOUS
 10
342.6864924804
 20
315.2641364775
 40
2.3749
100
AcDbArc
 50
200.6958452311
 51
220.8041319466
  0
ARC
  5
341
100
AcDbEntity
  8
0
100
AcDbCircle
 62
7
  6
CONTINUOUS
 10
342.6864924804
 20
315.2641364775
 40
2.3749
100
AcDbArc
 50
228.1454570752
 51
271.4704818212
  0
ARC
  5
342
100
AcDbEntity
  8
0
100
AcDbCircle
 62
7
  6
CONTINUOUS
 10
342.6864924804
 20
315.2641364775
 40
2.3749
100
AcDbArc
 50
278.8610417519
 51
298.7418539071
  0
ARC
  5
343
100
AcDbEntity
  8
0
100
AcDbCircle
 62
7
  6
CONTINUOUS
 10
342.6864924804
 20
315.2641364775
 40
2.3749
100
AcDbArc
 50
306.6719711102
 51
13.3039216849
  0
ARC
  5
344
100
AcDbEntity
  8
0
100
AcDbCircle
 62
7
  6
CONTINUOUS
 10
342.6864924804
 20
315.2641364775
 40
2.3749
100
AcDbArc
 50
20.6958452311
 51
40.8041319466
  0
ARC
  5
345
100
AcDbEntity
  8
0
100
AcDbCircle
 62
7
  6
CONTINUOUS
 10
342.6864924804
 20
315.2641364775
 40
2.3749
100
AcDbArc
 50
48.1454570752
 51
91.4704818212
  0
ARC
  5
346
100
AcDbEntity
  8
0
100
AcDbCircle
 62
7
  6
CONTINUOUS
 10
342.6864924804
 20
315.2641364775
 40
2.3749
100
AcDbArc
 50
98.8610417519
 51
118.7418539072
  0
ARC
  5
347
100
AcDbEntity
  8
0
100
AcDbCircle
 62
7
  6
CONTINUOUS
 10
342.6864924804
 20
315.2641364775
 40
2.3749
100
AcDbArc
 50
126.6719711102
 51
193.3039216849
  0
CIRCLE
  5
348
100
AcDbEntity
  8
0
100
AcDbCircle
 62
7
  6
CONTINUOUS
 10
342.6864924804
 20
315.2641364775
 40
2.3114
  0
ARC
  5
349
100
AcDbEntity
  8
0
100
AcDbCircle
 62
7
  6
CONTINUOUS
 10
336.0516562972
 20
334.1673897642
 40
6.35
100
AcDbArc
 50
160.0
 51
250.0
  0
CIRCLE
  5
34A
100
AcDbEntity
  8
0
100
AcDbCircle
 62
7
  6
CONTINUOUS
 10
306.4914924805
 20
331.9265364775
 40
4.7371
  0
CIRCLE
  5
34B
100
AcDbEntity
  8
0
100
AcDbCircle
 62
7
  6
CONTINUOUS
 10
338.0049865497
 20
335.0782426198
 40
4.7371
  0
ARC
  5
34C
100
AcDbEntity
  8
0
100
AcDbCircle
 62
7
  6
CONTINUOUS
 10
304.2750970995
 20
355.8025364775
 40
3.048
100
AcDbArc
 50
20.0000000024
 51
21.9302009611
  0
ARC
  5
34D
100
AcDbEntity
  8
0
100
AcDbCircle
 62
7
  6
CONTINUOUS
 10
391.5970361303
 20
297.2999737546
 40
12.7
100
AcDbArc
 50
256.9999999996
 51
70.0
  0
CIRCLE
  5
34E
100
AcDbEntity
  8
0
100
AcDbCircle
 62
7
  6
CONTINUOUS
 10
388.9430496772
 20
298.4281265183
 40
7.9375
  0
ARC
  5
34F
100
AcDbEntity
  8
0
100
AcDbCircle
 62
7
  6
CONTINUOUS
 10
359.9198488651
 20
325.4800781237
 40
6.35
100
AcDbArc
 50
250.0
 51
340.0
  0
ARC
  5
350
100
AcDbEntity
  8
0
100
AcDbCircle
 62
7
  6
CONTINUOUS
 10
381.156920961
 20
328.1299803395
 40
12.7
100
AcDbArc
 50
160.0
 51
250.0
  0
ARC
  5
351
100
AcDbEntity
  8
0
100
AcDbCircle
 62
7
  6
CONTINUOUS
 10
369.5514762922
 20
351.9427569922
 40
6.35
100
AcDbArc
 50
340.0
 51
25.000000001
  0
ARC
  5
352
100
AcDbEntity
  8
0
100
AcDbCircle
 62
7
  6
CONTINUOUS
 10
361.423988346
 20
363.0415364775
 40
6.35
100
AcDbArc
 50
202.2936291598
 51
270.0
  0
ARC
  5
353
100
AcDbEntity
  8
0
100
AcDbCircle
 62
7
  6
CONTINUOUS
 10
408.0431159525
 20
363.0415364775
 40
6.35
100
AcDbArc
 50
270.0
 51
323.8263709541
  0
ARC
  5
354
100
AcDbEntity
  8
0
100
AcDbCircle
 62
7
  6
CONTINUOUS
 10
359.6267501794
 20
361.807111985
 40
5.6134
100
AcDbArc
 50
2.010664506
 51
13.9014189699
  0
ARC
  5
355
100
AcDbEntity
  8
0
100
AcDbCircle
 62
7
  6
CONTINUOUS
 10
359.6267501794
 20
361.807111985
 40
5.6134
100
AcDbArc
 50
174.9423522796
 51
295.2950280428
  0
ARC
  5
356
100
AcDbEntity
  8
0
100
AcDbCircle
 62
7
  6
CONTINUOUS
 10
359.6267501794
 20
361.807111985
 40
5.5499
100
AcDbArc
 50
1.866691618
 51
31.1845029193
  0
ARC
  5
357
100
AcDbEntity
  8
0
100
AcDbCircle
 62
7
  6
CONTINUOUS
 10
359.6267501794
 20
361.807111985
 40
5.5499
100
AcDbArc
 50
162.737630952
 51
292.4354862831
  0
ARC
  5
358
100
AcDbEntity
  8
0
100
AcDbCircle
 62
7
  6
CONTINUOUS
 10
359.6267501794
 20
361.807111985
 40
4.7879
100
AcDbArc
 50
354.1483170052
 51
42.46778449
  0
ARC
  5
359
100
AcDbEntity
  8
0
100
AcDbCircle
 62
7
  6
CONTINUOUS
 10
359.6267501794
 20
361.807111985
 40
4.7879
100
AcDbArc
 50
175.1084915929
 51
273.171087642
  0
CIRCLE
  5
35A
100
AcDbEntity
  8
0
100
AcDbCircle
 62
7
  6
CONTINUOUS
 10
359.0089960095
 20
327.4334083762
 40
4.7371
  0
CIRCLE
  5
35B
100
AcDbEntity
  8
0
100
AcDbCircle
 62
7
  6
CONTINUOUS
 10
363.5144924805
 20
363.0415364775
 40
2.0193
  0
CIRCLE
  5
35C
100
AcDbEntity
  8
0
100
AcDbCircle
 62
7
  6
CONTINUOUS
 10
398.3124924805
 20
376.7575364775
 40
15.3396454307
  0
CIRCLE
  5
35D
100
AcDbEntity
  8
0
100
AcDbCircle
 62
7
  6
CONTINUOUS
 10
398.3124924805
 20
376.7575364775
 40
12.8099852263
  0
CIRCLE
  5
35E
100
AcDbEntity
  8
0
100
AcDbCircle
 62
7
  6
CONTINUOUS
 10
398.3124924805
 20
376.7575364775
 40
12.7
  0
CIRCLE
  5
35F
100
AcDbEntity
  8
0
100
AcDbCircle
 62
7
  6
CONTINUOUS
 10
398.3124924805
 20
376.7575364775
 40
7.0485
  0
ARC
  5
360
100
AcDbEntity
  8
0
100
AcDbCircle
 62
7
  6
CONTINUOUS
 10
342.490996615
 20
375.7415364775
 40
6.35
100
AcDbArc
 50
22.2936291613
 51
90.0
  0
ARC
  5
361
100
AcDbEntity
  8
0
100
AcDbCircle
 62
7
  6
CONTINUOUS
 10
439.4604924805
 20
406.0094190819
 40
6.35
100
AcDbArc
 50
323.8263709545
 51
360.0
  0
ARC
  5
362
100
AcDbEntity
  8
0
100
AcDbCircle
 62
7
  6
CONTINUOUS
 10
338.1144924805
 20
445.0835364775
 40
6.35
100
AcDbArc
 50
270.0
 51
360.0
  0
CIRCLE
  5
363
100
AcDbEntity
  8
0
100
AcDbCircle
 62
7
  6
CONTINUOUS
 10
439.4604924805
 20
446.6075364775
 40
2.0193
  0
SPLINE
  5
364
100
AcDbEntity
  8
0
100
AcDbSpline
 62
7
  6
CONTINUOUS
 70
0
 71
3
 72
11
 73
7
 74
0
 42
0.0000001
 43
0.0000001
 44
0.0000000001
 40
0.0
 40
0.0
 40
0.0
 40
0.0
 40
0.2624494241
 40
0.5152813739
 40
0.7600105751
 40
1.0
 40
1.0
 40
1.0
 40
1.0
 10
457.799713759
 20
394.3602641448
 30
0.0
 10
457.8641044081
 20
394.4594152346
 30
0.0
 10
457.9826360177
 20
394.6594472195
 30
0.0
 10
458.1247811754
 20
394.971813287
 30
0.0
 10
458.2209693599
 20
395.291011826
 30
0.0
 10
458.2506104448
 20
395.5084947594
 30
0.0
 10
458.2562683425
 20
395.6164538791
 30
0.0
  0
SPLINE
  5
365
100
AcDbEntity
  8
0
100
AcDbSpline
 62
7
  6
CONTINUOUS
 70
0
 71
3
 72
11
 73
7
 74
0
 42
0.0000001
 43
0.0000001
 44
0.0000000001
 40
0.0
 40
0.0
 40
0.0
 40
0.0
 40
0.2423336906
 40
0.4883991987
 40
0.7406638036
 40
1.0
 40
1.0
 40
1.0
 40
1.0
 10
458.7592116427
 20
405.213183736
 30
0.0
 10
458.7669769189
 20
405.3613540333
 30
0.0
 10
458.7590875788
 20
405.6616821674
 30
0.0
 10
458.6802729272
 20
406.1096395919
 30
0.0
 10
458.5434070396
 20
406.5538816549
 30
0.0
 10
458.4220422285
 20
406.8431242512
 30
0.0
 10
458.3552370757
 20
406.9871706137
 30
0.0
  0
SPLINE
  5
366
100
AcDbEntity
  8
0
100
AcDbSpline
 62
7
  6
CONTINUOUS
 70
0
 71
3
 72
10
 73
6
 74
0
 42
0.0000001
 43
0.0000001
 44
0.0000000001
 40
0.0
 40
0.0
 40
0.0
 40
0.0
 40
0.2500384701
 40
0.5000847235
 40
1.0
 40
1.0
 40
1.0
 40
1.0
 10
458.4999543224
 20
400.2662593691
 30
0.0
 10
458.5141355388
 20
400.5368530982
 30
0.0
 10
458.5193864247
 20
401.0795485142
 30
0.0
 10
458.441344899
 20
402.1613280579
 30
0.0
 10
458.2950288905
 20
402.9635370551
 30
0.0
 10
458.1720179685
 20
403.4911417846
 30
0.0
  0
SPLINE
  5
367
100
AcDbEntity
  8
0
100
AcDbSpline
 62
7
  6
CONTINUOUS
 70
0
 71
3
 72
11
 73
7
 74
0
 42
0.0000001
 43
0.0000001
 44
0.0000000001
 40
0.0
 40
0.0
 40
0.0
 40
0.0
 40
0.2593362449
 40
0.5116008747
 40
0.7576663755
 40
1.0
 40
1.0
 40
1.0
 40
1.0
 10
455.3894356484
 20
407.1426016803
 30
0.0
 10
455.3079395011
 20
407.0063274333
 30
0.0
 10
455.1570054172
 20
406.7313553842
 30
0.0
 10
454.9744533745
 20
406.3038532528
 30
0.0
 10
454.8492462069
 20
405.8665881845
 30
0.0
 10
454.8100072483
 20
405.5687299858
 30
0.0
 10
454.8022419742
 20
405.4205597289
 30
0.0
  0
SPLINE
  5
368
100
AcDbEntity
  8
0
100
AcDbSpline
 62
7
  6
CONTINUOUS
 70
0
 71
3
 72
10
 73
6
 74
0
 42
0.0000001
 43
0.0000001
 44
0.0000000001
 40
0.0
 40
0.0
 40
0.0
 40
0.0
 40
0.4999153443
 40
0.7499615928
 40
1.0
 40
1.0
 40
1.0
 40
1.0
 10
455.2062165412
 20
403.6465728512
 30
0.0
 10
455.0287297502
 20
403.1347164689
 30
0.0
 10
454.7993615772
 20
402.3521961783
 30
0.0
 10
454.608670862
 20
401.2845002894
 30
0.0
 10
454.5571658667
 20
400.7442290231
 30
0.0
 10
454.5429846538
 20
400.4736353621
 30
0.0
  0
SPLINE
  5
369
100
AcDbEntity
  8
0
100
AcDbSpline
 62
7
  6
CONTINUOUS
 70
0
 71
3
 72
11
 73
7
 74
0
 42
0.0000001
 43
0.0000001
 44
0.0000000001
 40
0.0
 40
0.0
 40
0.0
 40
0.0
 40
0.2423336923
 40
0.4883991994
 40
0.7406637835
 40
1.0
 40
1.0
 40
1.0
 40
1.0
 10
454.8022419742
 20
405.4205597289
 30
0.0
 10
454.7944766979
 20
405.2723894299
 30
0.0
 10
454.8023660115
 20
404.9720612883
 30
0.0
 10
454.8811807544
 20
404.5241038988
 30
0.0
 10
455.0180464028
 20
404.0798617581
 30
0.0
 10
455.1394113829
 20
403.7906192255
 30
0.0
 10
455.2062165412
 20
403.6465728512
 30
0.0
  0
SPLINE
  5
36A
100
AcDbEntity
  8
0
100
AcDbSpline
 62
7
  6
CONTINUOUS
 70
0
 71
3
 72
11
 73
7
 74
0
 42
0.0000001
 43
0.0000001
 44
0.0000000001
 40
0.0
 40
0.0
 40
0.0
 40
0.0
 40
0.2593362649
 40
0.5116008738
 40
0.7576663736
 40
1.0
 40
1.0
 40
1.0
 40
1.0
 10
458.1720179685
 20
403.4911417846
 30
0.0
 10
458.2535141225
 20
403.6274160427
 30
0.0
 10
458.4044483686
 20
403.9023880103
 30
0.0
 10
458.587000181
 20
404.3298902441
 30
0.0
 10
458.7122074357
 20
404.7671552683
 30
0.0
 10
458.7514463685
 20
405.0650134772
 30
0.0
 10
458.7592116427
 20
405.213183736
 30
0.0
  0
SPLINE
  5
36B
100
AcDbEntity
  8
0
100
AcDbSpline
 62
7
  6
CONTINUOUS
 70
0
 71
3
 72
11
 73
7
 74
0
 42
0.0000001
 43
0.0000001
 44
0.0000000001
 40
0.0
 40
0.0
 40
0.0
 40
0.0
 40
0.237868257
 40
0.4817080444
 40
0.7353464771
 40
1.0
 40
1.0
 40
1.0
 40
1.0
 10
458.2562683425
 20
395.6164538791
 30
0.0
 10
458.2627222944
 20
395.7396026172
 30
0.0
 10
458.2519703375
 20
395.9907955372
 30
0.0
 10
458.1685724268
 20
396.3644023522
 30
0.0
 10
458.0274024404
 20
396.7345632225
 30
0.0
 10
457.9043112625
 20
396.9739205152
 30
0.0
 10
457.836722435
 20
397.0933218801
 30
0.0
  0
SPLINE
  5
36C
100
AcDbEntity
  8
0
100
AcDbSpline
 62
7
  6
CONTINUOUS
 70
0
 71
3
 72
10
 73
6
 74
0
 42
0.0000001
 43
0.0000001
 44
0.0000000001
 40
0.0
 40
0.0
 40
0.0
 40
0.0
 40
0.4999153398
 40
0.7499615761
 40
1.0
 40
1.0
 40
1.0
 40
1.0
 10
457.836722435
 20
397.0933218801
 30
0.0
 10
458.0142092245
 20
397.605178258
 30
0.0
 10
458.2435767493
 20
398.3876986633
 30
0.0
 10
458.4342686456
 20
399.4553943535
 30
0.0
 10
458.4857731085
 20
399.9956656899
 30
0.0
 10
458.4999543224
 20
400.2662593691
 30
0.0
  0
SPLINE
  5
36D
100
AcDbEntity
  8
0
100
AcDbSpline
 62
7
  6
CONTINUOUS
 70
0
 71
3
 72
11
 73
7
 74
0
 42
0.0000001
 43
0.0000001
 44
0.0000000001
 40
0.0
 40
0.0
 40
0.0
 40
0.0
 40
0.264653573
 40
0.5182920288
 40
0.7621318079
 40
1.0
 40
1.0
 40
1.0
 40
1.0
 10
454.8709210077
 20
397.2487529467
 30
0.0
 10
454.7912215827
 20
397.1370706101
 30
0.0
 10
454.6437850252
 20
396.9118910507
 30
0.0
 10
454.4646960534
 20
396.5585141938
 30
0.0
 10
454.3427024895
 20
396.1956715108
 30
0.0
 10
454.3057526241
 20
395.9469785766
 30
0.0
 10
454.299298674
 20
395.8238298722
 30
0.0
  0
SPLINE
  5
36E
100
AcDbEntity
  8
0
100
AcDbSpline
 62
7
  6
CONTINUOUS
 70
0
 71
3
 72
10
 73
6
 74
0
 42
0.0000001
 43
0.0000001
 44
0.0000000001
 40
0.0
 40
0.0
 40
0.0
 40
0.0
 40
0.2500384794
 40
0.5000847198
 40
1.0
 40
1.0
 40
1.0
 40
1.0
 10
454.5429846538
 20
400.4736353621
 30
0.0
 10
454.5288034369
 20
400.203041623
 30
0.0
 10
454.5235520145
 20
399.6603462017
 30
0.0
 10
454.601594742
 20
398.5785667331
 30
0.0
 10
454.7479100847
 20
397.7763576802
 30
0.0
 10
454.8709210077
 20
397.2487529467
 30
0.0
  0
SPLINE
  5
36F
100
AcDbEntity
  8
0
100
AcDbSpline
 62
7
  6
CONTINUOUS
 70
0
 71
3
 72
11
 73
7
 74
0
 42
0.0000001
 43
0.0000001
 44
0.0000000001
 40
0.0
 40
0.0
 40
0.0
 40
0.0
 40
0.2399894834
 40
0.4847187053
 40
0.7375506323
 40
1.0
 40
1.0
 40
1.0
 40
1.0
 10
454.299298674
 20
395.8238298722
 30
0.0
 10
454.2936407749
 20
395.7158707255
 30
0.0
 10
454.3003863151
 20
395.4964808107
 30
0.0
 10
454.3626822768
 20
395.1689764512
 30
0.0
 10
454.4713975849
 20
394.8434633616
 30
0.0
 10
454.5683708567
 20
394.6321372962
 30
0.0
 10
454.6220446362
 20
394.5267987285
 30
0.0
  0
SPLINE
  5
370
100
AcDbEntity
  8
0
100
AcDbSpline
 62
7
  6
CONTINUOUS
 70
0
 71
3
 72
9
 73
5
 74
0
 42
0.0000001
 43
0.0000001
 44
0.0000000001
 40
0.0
 40
0.0
 40
0.0
 40
0.0
 40
0.5004180295
 40
1.0
 40
1.0
 40
1.0
 40
1.0
 10
204.0095075837
 20
340.4058606731
 30
0.0
 10
204.074601062
 20
341.3874504432
 30
0.0
 10
204.1500633781
 20
343.3534206579
 30
0.0
 10
204.0699941745
 20
345.3205157325
 30
0.0
 10
203.9853697922
 20
346.2989651963
 30
0.0
  0
SPLINE
  5
371
100
AcDbEntity
  8
0
100
AcDbSpline
 62
7
  6
CONTINUOUS
 70
0
 71
3
 72
9
 73
5
 74
0
 42
0.0000001
 43
0.0000001
 44
0.0000000001
 40
0.0
 40
0.0
 40
0.0
 40
0.0
 40
0.2498004845
 40
1.0
 40
1.0
 40
1.0
 40
1.0
 10
202.7328192816
 20
359.9911229575
 30
0.0
 10
202.6847744281
 20
360.322772052
 30
0.0
 10
202.4733348495
 20
361.647664112
 30
0.0
 10
202.1906728687
 20
362.9605933474
 30
0.0
 10
201.9507146285
 20
363.9379718314
 30
0.0
  0
SPLINE
  5
372
100
AcDbEntity
  8
0
100
AcDbSpline
 62
7
  6
CONTINUOUS
 70
0
 71
3
 72
9
 73
5
 74
0
 42
0.0000001
 43
0.0000001
 44
0.0000000001
 40
0.0
 40
0.0
 40
0.0
 40
0.0
 40
0.5004189056
 40
1.0
 40
1.0
 40
1.0
 40
1.0
 10
193.4374104789
 20
363.1931542292
 30
0.0
 10
193.3719560797
 20
362.2061218814
 30
0.0
 10
193.2963802277
 20
360.2292212383
 30
0.0
 10
193.3783134025
 20
358.251242221
 30
0.0
 10
193.4643835431
 20
357.2674560133
 30
0.0
  0
SPLINE
  5
373
100
AcDbEntity
  8
0
100
AcDbSpline
 62
7
  6
CONTINUOUS
 70
0
 71
3
 72
9
 73
5
 74
0
 42
0.0000001
 43
0.0000001
 44
0.0000000001
 40
0.0
 40
0.0
 40
0.0
 40
0.0
 40
0.500418906
 40
1.0
 40
1.0
 40
1.0
 40
1.0
 10
202.9801111061
 20
352.1719162523
 30
0.0
 10
203.0455655054
 20
353.1589486005
 30
0.0
 10
203.12114143
 20
355.1358492418
 30
0.0
 10
203.0392081827
 20
357.1138282565
 30
0.0
 10
202.9531380424
 20
358.097614463
 30
0.0
  0
SPLINE
  5
374
100
AcDbEntity
  8
0
100
AcDbSpline
 62
7
  6
CONTINUOUS
 70
0
 71
3
 72
9
 73
5
 74
0
 42
0.0000001
 43
0.0000001
 44
0.0000000001
 40
0.0
 40
0.0
 40
0.0
 40
0.0
 40
0.4995810958
 40
1.0
 40
1.0
 40
1.0
 40
1.0
 10
194.4937800206
 20
345.5014004352
 30
0.0
 10
194.5798501614
 20
344.5176142249
 30
0.0
 10
194.8426341227
 20
342.5554575977
 30
0.0
 10
195.2603470665
 20
340.6217141393
 30
0.0
 10
195.4962034341
 20
339.6610430709
 30
0.0
  0
SPLINE
  5
375
100
AcDbEntity
  8
0
100
AcDbSpline
 62
7
  6
CONTINUOUS
 70
0
 71
3
 72
9
 73
5
 74
0
 42
0.0000001
 43
0.0000001
 44
0.0000000001
 40
0.0
 40
0.0
 40
0.0
 40
0.0
 40
0.4995810963
 40
1.0
 40
1.0
 40
1.0
 40
1.0
 10
203.9825345199
 20
346.3315588849
 30
0.0
 10
203.8964643792
 20
347.315345096
 30
0.0
 10
203.6336803459
 20
349.2775017124
 30
0.0
 10
203.2159674735
 20
351.2112451846
 30
0.0
 10
202.9801111061
 20
352.1719162523
 30
0.0
  0
SPLINE
  5
376
100
AcDbEntity
  8
0
100
AcDbSpline
 62
7
  6
CONTINUOUS
 70
0
 71
3
 72
9
 73
5
 74
0
 42
0.0000001
 43
0.0000001
 44
0.0000000001
 40
0.0
 40
0.0
 40
0.0
 40
0.0
 40
0.4995810958
 40
1.0
 40
1.0
 40
1.0
 40
1.0
 10
193.4643835431
 20
357.2674560133
 30
0.0
 10
193.5504536839
 20
356.2836698032
 30
0.0
 10
193.8132376452
 20
354.3215131763
 30
0.0
 10
194.230950589
 20
352.3877697183
 30
0.0
 10
194.4668069565
 20
351.42709865
 30
0.0
  0
SPLINE
  5
377
100
AcDbEntity
  8
0
100
AcDbSpline
 62
7
  6
CONTINUOUS
 70
0
 71
3
 72
9
 73
5
 74
0
 42
0.0000001
 43
0.0000001
 44
0.0000000001
 40
0.0
 40
0.0
 40
0.0
 40
0.0
 40
0.5004189056
 40
1.0
 40
1.0
 40
1.0
 40
1.0
 10
194.4668069565
 20
351.42709865
 30
0.0
 10
194.4013525573
 20
350.4400663024
 30
0.0
 10
194.3257767053
 20
348.4631656597
 30
0.0
 10
194.40770988
 20
346.4851866428
 30
0.0
 10
194.4937800206
 20
345.5014004352
 30
0.0
  0
SPLINE
  5
378
100
AcDbEntity
  8
0
100
AcDbSpline
 62
7
  6
CONTINUOUS
 70
0
 71
3
 72
9
 73
5
 74
0
 42
0.0000001
 43
0.0000001
 44
0.0000000001
 40
0.0
 40
0.0
 40
0.0
 40
0.0
 40
0.5035607143
 40
1.0
 40
1.0
 40
1.0
 40
1.0
 10
219.0218194826
 20
339.8851202336
 30
0.0
 10
219.1224394729
 20
340.4557645554
 30
0.0
 10
219.2706616965
 20
341.5995258642
 30
0.0
 10
219.2621714529
 20
342.755279325
 30
0.0
 10
219.2123834907
 20
343.3243583362
 30
0.0
  0
SPLINE
  5
379
100
AcDbEntity
  8
0
100
AcDbSpline
 62
7
  6
CONTINUOUS
 70
0
 71
3
 72
9
 73
5
 74
0
 42
0.0000001
 43
0.0000001
 44
0.0000000001
 40
0.0
 40
0.0
 40
0.0
 40
0.0
 40
0.4964392862
 40
1.0
 40
1.0
 40
1.0
 40
1.0
 10
219.2123834907
 20
343.3243583362
 30
0.0
 10
219.1625955284
 20
343.8934373484
 30
0.0
 10
218.9702623674
 20
345.033106646
 30
0.0
 10
218.6256798423
 20
346.1337531154
 30
0.0
 10
218.4274971492
 20
346.6782555896
 30
0.0
  0
SPLINE
  5
37A
100
AcDbEntity
  8
0
100
AcDbSpline
 62
7
  6
CONTINUOUS
 70
0
 71
3
 72
9
 73
5
 74
0
 42
0.0000001
 43
0.0000001
 44
0.0000000001
 40
0.0
 40
0.0
 40
0.0
 40
0.0
 40
0.5000188381
 40
1.0
 40
1.0
 40
1.0
 40
1.0
 10
218.4274971492
 20
346.6782555896
 30
0.0
 10
218.4798279086
 20
347.8171838359
 30
0.0
 10
218.5288189224
 20
350.0982271176
 30
0.0
 10
218.4202613665
 20
352.3783556453
 30
0.0
 10
218.3208999906
 20
353.5140613688
 30
0.0
  0
SPLINE
  5
37B
100
AcDbEntity
  8
0
100
AcDbSpline
 62
7
  6
CONTINUOUS
 70
0
 71
3
 72
9
 73
5
 74
0
 42
0.0000001
 43
0.0000001
 44
0.0000000001
 40
0.0
 40
0.0
 40
0.0
 40
0.0
 40
0.5032251684
 40
1.0
 40
1.0
 40
1.0
 40
1.0
 10
208.1312259992
 20
366.3128440551
 30
0.0
 10
208.050515986
 20
365.8551148242
 30
0.0
 10
207.9235021375
 20
364.9390304756
 30
0.0
 10
207.8903102489
 20
364.0136641203
 30
0.0
 10
207.9021714344
 20
363.554984695
 30
0.0
  0
SPLINE
  5
37C
100
AcDbEntity
  8
0
100
AcDbSpline
 62
7
  6
CONTINUOUS
 70
0
 71
3
 72
9
 73
5
 74
0
 42
0.0000001
 43
0.0000001
 44
0.0000000001
 40
0.0
 40
0.0
 40
0.0
 40
0.0
 40
0.2495063278
 40
1.0
 40
1.0
 40
1.0
 40
1.0
 10
217.4294164903
 20
363.7037644046
 30
0.0
 10
217.4180338724
 20
363.8338683224
 30
0.0
 10
217.3631588372
 20
364.3544825723
 30
0.0
 10
217.2711831129
 20
364.8710261054
 30
0.0
 10
217.1840114843
 20
365.2540684932
 30
0.0
  0
SPLINE
  5
37D
100
AcDbEntity
  8
0
100
AcDbSpline
 62
7
  6
CONTINUOUS
 70
0
 71
3
 72
9
 73
5
 74
0
 42
0.0000001
 43
0.0000001
 44
0.0000000001
 40
0.0
 40
0.0
 40
0.0
 40
0.0
 40
0.2483094068
 40
1.0
 40
1.0
 40
1.0
 40
1.0
 10
217.1840114843
 20
365.2540684932
 30
0.0
 10
217.1494213746
 20
365.4060615035
 30
0.0
 10
216.9987203247
 20
366.0155786445
 30
0.0
 10
216.8059236441
 20
366.6142366734
 30
0.0
 10
216.6445301489
 20
367.0576616574
 30
0.0
  0
SPLINE
  5
37E
100
AcDbEntity
  8
0
100
AcDbSpline
 62
7
  6
CONTINUOUS
 70
0
 71
3
 72
9
 73
5
 74
0
 42
0.0000001
 43
0.0000001
 44
0.0000000001
 40
0.0
 40
0.0
 40
0.0
 40
0.0
 40
0.2483094059
 40
1.0
 40
1.0
 40
1.0
 40
1.0
 10
209.9690340251
 20
340.9438958513
 30
0.0
 10
210.0036241349
 20
340.7919028376
 30
0.0
 10
210.1543251022
 20
340.18238566
 30
0.0
 10
210.3471218335
 20
339.5837276269
 30
0.0
 10
210.508515333
 20
339.1403026314
 30
0.0
  0
SPLINE
  5
37F
100
AcDbEntity
  8
0
100
AcDbSpline
 62
7
  6
CONTINUOUS
 70
0
 71
3
 72
9
 73
5
 74
0
 42
0.0000001
 43
0.0000001
 44
0.0000000001
 40
0.0
 40
0.0
 40
0.0
 40
0.0
 40
0.4999811642
 40
1.0
 40
1.0
 40
1.0
 40
1.0
 10
218.3208999906
 20
353.5140613688
 30
0.0
 10
218.2215386144
 20
354.6497670958
 30
0.0
 10
217.9325064727
 20
356.9141061234
 30
0.0
 10
217.4881610329
 20
359.1519880818
 30
0.0
 10
217.2388524823
 20
360.2645263014
 30
0.0
  0
SPLINE
  5
380
100
AcDbEntity
  8
0
100
AcDbSpline
 62
7
  6
CONTINUOUS
 70
0
 71
3
 72
9
 73
5
 74
0
 42
0.0000001
 43
0.0000001
 44
0.0000000001
 40
0.0
 40
0.0
 40
0.0
 40
0.0
 40
0.5035607143
 40
1.0
 40
1.0
 40
1.0
 40
1.0
 10
217.2388524823
 20
360.2645263014
 30
0.0
 10
217.3394724726
 20
360.8351706233
 30
0.0
 10
217.4876946962
 20
361.9789319323
 30
0.0
 10
217.4792044525
 20
363.1346853933
 30
0.0
 10
217.4294164903
 20
363.7037644046
 30
0.0
  0
SPLINE
  5
381
100
AcDbEntity
  8
0
100
AcDbSpline
 62
7
  6
CONTINUOUS
 70
0
 71
3
 72
9
 73
5
 74
0
 42
0.0000001
 43
0.0000001
 44
0.0000000001
 40
0.0
 40
0.0
 40
0.0
 40
0.0
 40
0.4999811625
 40
1.0
 40
1.0
 40
1.0
 40
1.0
 10
208.8321454913
 20
352.6839029194
 30
0.0
 10
208.9315068673
 20
351.5481971946
 30
0.0
 10
209.2205387115
 20
349.2838581212
 30
0.0
 10
209.6648844478
 20
347.0459762122
 30
0.0
 10
209.9141929996
 20
345.9334379873
 30
0.0
  0
SPLINE
  5
382
100
AcDbEntity
  8
0
100
AcDbSpline
 62
7
  6
CONTINUOUS
 70
0
 71
3
 72
9
 73
5
 74
0
 42
0.0000001
 43
0.0000001
 44
0.0000000001
 40
0.0
 40
0.0
 40
0.0
 40
0.0
 40
0.5035607158
 40
1.0
 40
1.0
 40
1.0
 40
1.0
 10
209.9141929996
 20
345.9334379873
 30
0.0
 10
209.8135730089
 20
345.3627936634
 30
0.0
 10
209.6653507136
 20
344.2190323599
 30
0.0
 10
209.6738410294
 20
343.0632788966
 30
0.0
 10
209.7236289913
 20
342.4941998865
 30
0.0
  0
SPLINE
  5
383
100
AcDbEntity
  8
0
100
AcDbSpline
 62
7
  6
CONTINUOUS
 70
0
 71
3
 72
9
 73
5
 74
0
 42
0.0000001
 43
0.0000001
 44
0.0000000001
 40
0.0
 40
0.0
 40
0.0
 40
0.0
 40
0.5000188372
 40
1.0
 40
1.0
 40
1.0
 40
1.0
 10
208.7255483327
 20
359.5197086992
 30
0.0
 10
208.6732175734
 20
358.3807804565
 30
0.0
 10
208.6242268576
 20
356.0997371777
 30
0.0
 10
208.7327841153
 20
353.8196086434
 30
0.0
 10
208.8321454913
 20
352.6839029194
 30
0.0
  0
SPLINE
  5
384
100
AcDbEntity
  8
0
100
AcDbSpline
 62
7
  6
CONTINUOUS
 70
0
 71
3
 72
9
 73
5
 74
0
 42
0.0000001
 43
0.0000001
 44
0.0000000001
 40
0.0
 40
0.0
 40
0.0
 40
0.0
 40
0.4964392876
 40
1.0
 40
1.0
 40
1.0
 40
1.0
 10
207.940661991
 20
362.8736059549
 30
0.0
 10
207.9904499532
 20
362.3045269415
 30
0.0
 10
208.1827831849
 20
361.1648576587
 30
0.0
 10
208.5273656403
 20
360.0642111715
 30
0.0
 10
208.7255483327
 20
359.5197086992
 30
0.0
  0
SPLINE
  5
385
100
AcDbEntity
  8
0
100
AcDbSpline
 62
7
  6
CONTINUOUS
 70
0
 71
3
 72
14
 73
10
 74
0
 42
0.0000001
 43
0.0000001
 44
0.0000000001
 40
0.0
 40
0.0
 40
0.0
 40
0.0
 40
0.017288512
 40
0.0662426613
 40
0.1469678479
 40
0.2590745993
 40
0.4017305153
 40
0.5736563555
 40
1.0
 40
1.0
 40
1.0
 40
1.0
 10
206.1817634931
 20
365.2005364775
 30
0.0
 10
206.1819498204
 20
365.1984067472
 30
0.0
 10
206.1942696889
 20
365.1997648906
 30
0.0
 10
206.2085803789
 20
365.1977538938
 30
0.0
 10
206.2406383796
 20
365.1996387724
 30
0.0
 10
206.2811466779
 20
365.2007504429
 30
0.0
 10
206.3342247214
 20
365.2031740968
 30
0.0
 10
206.4255915995
 20
365.2069933635
 30
0.0
 10
206.4995938872
 20
365.2099113094
 30
0.0
 10
206.5522838069
 20
365.2117175299
 30
0.0
  0
ENDSEC
  0
SECTION
  2
OBJECTS
  0
DICTIONARY
  5
C
100
AcDbDictionary
280
0
281
1
  3
ACAD_GROUP
350
D
  3
ACAD_MLINESTYLE
350
17
  3
ACAD_LAYOUT
350
1A
  3
ACAD_PLOTSETTINGS
350
19
  3
ACAD_PLOTSTYLENAME
350
E
  0
DICTIONARY
  5
D
102
{ACAD_REACTORS
330
C
102
}
100
AcDbDictionary
280
0
281
1
  0
ACDBDICTIONARYWDFLT
  5
E
102
{ACAD_REACTORS
330
C
102
}
100
AcDbDictionary
281
1
  3
Normal
350
F
100
AcDbDictionaryWithDefault
340
F
  0
DICTIONARY
  5
17
102
{ACAD_REACTORS
330
C
102
}
100
AcDbDictionary
280
0
281
1
  3
Standard
350
18
  0
DICTIONARY
  5
19
102
{ACAD_REACTORS
330
C
102
}
100
AcDbDictionary
281
1
  0
DICTIONARY
  5
1A
102
{ACAD_REACTORS
330
C
102
}
100
AcDbDictionary
281
1
  3
Model
350
386
  3
Layout1
350
387
  0
ACDBPLACEHOLDER
  5
F
102
{ACAD_REACTORS
330
E
102
}
  0
MLINESTYLE
  5
18
102
{ACAD_REACTORS
330
17
102
}
100
AcDbMlineStyle
  2
STANDARD
 70
0
  3

 62
256
 51
90.0
 52
90.0
 71
2
 49
0.5
 62
256
  6
BYLAYER
 49
-0.5
 62
256
  6
BYLAYER
  0
LAYOUT
  5
386
102
{ACAD_REACTORS
330
1A
102
}
100
AcDbPlotSettings
  1

  2
none_device
  4

  6

 40
0.0
 41
0.0
 42
0.0
 43
0.0
 44
210.0
 45
297.0
 46
0.0
 47
0.0
 48
0.0
 49
0.0
140
0.0
141
0.0
142
1.0
143
1.0
 70
1024
 72
1
 73
0
 74
0
  7

 75
0
147
1.0
148
0.0
149
0.0
100
AcDbLayout
  1
Model
 70
0
 71
0
 10
0.0
 20
0.0
 11
210.0
 21
297.0
 12
0.0
 22
0.0
 32
0.0
 14
0.0
 24
0.0
 34
0.0
 15
0.0
 25
0.0
 35
0.0
146
0.0
 13
0.0
 23
0.0
 33
0.0
 16
1.0
 26
0.0
 36
0.0
 17
0.0
 27
1.0
 37
0.0
 76
0
330
210
345
0
346
0
  0
LAYOUT
  5
387
102
{ACAD_REACTORS
330
1A
102
}
100
AcDbPlotSettings
  1

  2
none_device
  4

  6

 40
0.0
 41
0.0
 42
0.0
 43
0.0
 44
210.0
 45
297.0
 46
0.0
 47
0.0
 48
0.0
 49
0.0
140
0.0
141
0.0
142
1.0
143
1.0
 70
0
 72
1
 73
0
 74
0
  7

 75
0
147
1.0
148
0.0
149
0.0
100
AcDbLayout
  1
Layout1
 70
0
 71
1
 10
0.0
 20
0.0
 11
210.0
 21
297.0
 12
0.0
 22
0.0
 32
0.0
 14
0.0
 24
0.0
 34
0.0
 15
0.0
 25
0.0
 35
0.0
146
0.0
 13
0.0
 23
0.0
 33
0.0
 16
1.0
 26
0.0
 36
0.0
 17
0.0
 27
1.0
 37
0.0
 76
0
330
211
345
0
346
0
  0
ENDSEC
  0
EOF
