999
DXF file: C:\Users\sesa63760\Dev\_Creo\CAD\MCADID0004807_3D-CAD\drw0001_1.dxf
999
Pro/ENGINEER 2019471 by Parametric Technology Corporation
  0
SECTION
  2
HEADER
  9
$ACADVER
  1
AC1024
  9
$DWGCODEPAGE
  3
ANSI_1252
  9
$EXTMAX
 10
87.1353188742
 20
123.2342366935
 30
0.0
  9
$EXTMIN
 10
0.0
 20
0.0
 30
0.0
  9
$LIMMIN
 10
0.0
 20
0.0
  9
$LIMMAX
 10
87.1353188742
 20
123.2342366935
  9
$VIEWCTR
 10
43.5676594371
 20
61.6171183468
  9
$VIEWSIZE
 40
123.2342366935
  9
$CLAYER
  8
0
  9
$LTSCALE
 40
8.03304654
  9
$CELTYPE
  6
BYLAYER
  9
$DIMSCALE
 40
1.0
  9
$DIMASZ
 40
1.0373252247
  9
$DIMEXO
 40
1.0
  9
$DIMDLI
 40
5.5501048822
  9
$DIMEXE
 40
1.0
  9
$DIMCEN
 40
1.3144985247
  9
$DIMLFAC
 40
1.0
  9
$DIMBLK
  1
_FILLED
  9
$DIMALT
 70
0
  9
$DIMALTF
 40
0.0393700787
  9
$DIMTXT
 40
1.4522553146
  9
$DIMTOL
 70
1
  9
$DIMLIM
 70
0
  9
$DIMTFAC
 40
1.0
  9
$DIMTP
 40
0.01
  9
$DIMTM
 40
0.01
  9
$DIMGAP
 40
0.625
  9
$DIMDSEP
 70
46
  9
$AUNITS
 70
0
  9
$PDMODE
 70
3
  9
$PDSIZE
 40
0.3125
  9
$HANDSEED
  5
27D
  9
$TILEMODE
 70
1
  9
$MEASUREMENT
 70
1
  9
$INSUNITS
 70
4
  0
ENDSEC
  0
SECTION
  2
CLASSES
  0
CLASS
  1
ACDBDICTIONARYWDFLT
  2
AcDbDictionaryWithDefault
  3
AutoCAD 2000
 90
0
 91
1
280
0
281
0
  0
CLASS
  1
ACDBPLACEHOLDER
  2
AcDbPlaceHolder
  3
AutoCAD 2000
 90
0
 91
1
280
0
281
0
  0
CLASS
  1
LAYOUT
  2
AcDbLayout
  3
AutoCAD 2000
 90
0
 91
0
280
0
281
0
  0
ENDSEC
  0
SECTION
  2
TABLES
  0
TABLE
  2
VPORT
  5
8
100
AcDbSymbolTable
 70
2
  0
VPORT
  5
1F4
100
AcDbSymbolTableRecord
100
AcDbViewportTableRecord
  2
*ACTIVE
 70
0
 10
0.0
 20
0.0
 11
1.0
 21
1.0
 12
43.5676594371
 22
61.6171183468
 13
0.0
 23
0.0
 14
1.0
 24
1.0
 15
0.0
 25
0.0
 16
0.0
 26
0.0
 36
1.0
 17
0.0
 27
0.0
 37
0.0
 40
123.2342366935
 41
0.7070707071
 42
50.0
 43
0.0
 44
0.0
 50
0.0
 51
0.0
 71
0
 72
100
 73
1
 74
1
 75
0
 76
0
 77
0
 78
0
  0
ENDTAB
  0
TABLE
  2
LTYPE
  5
5
100
AcDbSymbolTable
 70
6
  0
LTYPE
  5
14
100
AcDbSymbolTableRecord
100
AcDbLinetypeTableRecord
  2
BYBLOCK
 70
0
  3

 72
65
 73
0
 40
0.0
  0
LTYPE
  5
15
100
AcDbSymbolTableRecord
100
AcDbLinetypeTableRecord
  2
BYLAYER
 70
0
  3

 72
65
 73
0
 40
0.0
  0
LTYPE
  5
16
100
AcDbSymbolTableRecord
100
AcDbLinetypeTableRecord
  2
CONTINUOUS
 70
64
  3
Solid line
 72
65
 73
0
 40
0.0
  0
LTYPE
  5
1F5
100
AcDbSymbolTableRecord
100
AcDbLinetypeTableRecord
  2
CENTER
 70
64
  3
____ _ ____ _ ____ _ ____ _ ____ _ ____ _ ____
 72
65
 73
4
 40
0.6
 49
0.375
 74
0
 49
-0.075
 74
0
 49
0.075
 74
0
 49
-0.075
 74
0
  0
LTYPE
  5
1F6
100
AcDbSymbolTableRecord
100
AcDbLinetypeTableRecord
  2
HIDDEN
 70
64
  3
- - - - - - - - - - - - - - - - - - - -
 72
65
 73
2
 40
0.2
 49
0.1
 74
0
 49
-0.1
 74
0
  0
LTYPE
  5
1F7
100
AcDbSymbolTableRecord
100
AcDbLinetypeTableRecord
  2
PHANTOM
 70
64
  3
_____ _ _ _____ _ _ _____ _ _ _____
 72
65
 73
6
 40
0.8
 49
0.45
 74
0
 49
-0.05
 74
0
 49
0.1
 74
0
 49
-0.05
 74
0
 49
0.1
 74
0
 49
-0.05
 74
0
  0
LTYPE
  5
1F8
100
AcDbSymbolTableRecord
100
AcDbLinetypeTableRecord
  2
DOT
 70
64
  3
. . . . . . . . . . . . . . . . . . . .
 72
65
 73
2
 40
0.2
 49
0.1
 74
0
 49
-0.1
 74
0
  0
LTYPE
  5
1F9
100
AcDbSymbolTableRecord
100
AcDbLinetypeTableRecord
  2
DASHED
 70
64
  3
- - - - - - - - - - - - - - - - - - - -
 72
65
 73
2
 40
0.2
 49
0.1
 74
0
 49
-0.1
 74
0
  0
ENDTAB
  0
TABLE
  2
LAYER
  5
2
100
AcDbSymbolTable
 70
36
  0
LAYER
  5
10
100
AcDbSymbolTableRecord
100
AcDbLayerTableRecord
  2
0
 70
0
 62
7
  6
CONTINUOUS
370
-3
390
F
  0
LAYER
  5
1FA
100
AcDbSymbolTableRecord
100
AcDbLayerTableRecord
  2
DEFAULT_1
 70
0
 62
7
  6
CENTER
370
-3
390
F
  0
LAYER
  5
1FB
100
AcDbSymbolTableRecord
100
AcDbLayerTableRecord
  2
DEFAULT_2
 70
0
 62
7
  6
HIDDEN
370
-3
390
F
  0
LAYER
  5
1FC
100
AcDbSymbolTableRecord
100
AcDbLayerTableRecord
  2
DEFAULT_3
 70
0
 62
7
  6
PHANTOM
370
-3
390
F
  0
LAYER
  5
1FD
100
AcDbSymbolTableRecord
100
AcDbLayerTableRecord
  2
00_COMPONENTS
 70
0
 62
7
  6
CONTINUOUS
370
-3
390
F
  0
LAYER
  5
1FE
100
AcDbSymbolTableRecord
100
AcDbLayerTableRecord
  2
01_1_DEFAULT_DATUMS
 70
0
 62
7
  6
CONTINUOUS
370
-3
390
F
  0
LAYER
  5
1FF
100
AcDbSymbolTableRecord
100
AcDbLayerTableRecord
  2
01_PLANES
 70
0
 62
7
  6
CONTINUOUS
370
-3
390
F
  0
LAYER
  5
200
100
AcDbSymbolTableRecord
100
AcDbLayerTableRecord
  2
02_COORD_SYS
 70
0
 62
7
  6
CONTINUOUS
370
-3
390
F
  0
LAYER
  5
201
100
AcDbSymbolTableRecord
100
AcDbLayerTableRecord
  2
03_AXES
 70
0
 62
7
  6
CONTINUOUS
370
-3
390
F
  0
LAYER
  5
202
100
AcDbSymbolTableRecord
100
AcDbLayerTableRecord
  2
04_POINTS
 70
0
 62
7
  6
CONTINUOUS
370
-3
390
F
  0
LAYER
  5
203
100
AcDbSymbolTableRecord
100
AcDbLayerTableRecord
  2
05_CURVES
 70
0
 62
7
  6
CONTINUOUS
370
-3
390
F
  0
LAYER
  5
204
100
AcDbSymbolTableRecord
100
AcDbLayerTableRecord
  2
06_SURFS
 70
0
 62
7
  6
CONTINUOUS
370
-3
390
F
  0
LAYER
  5
205
100
AcDbSymbolTableRecord
100
AcDbLayerTableRecord
  2
07_COSMETICS
 70
0
 62
7
  6
CONTINUOUS
370
-3
390
F
  0
LAYER
  5
206
100
AcDbSymbolTableRecord
100
AcDbLayerTableRecord
  2
10_NOTES
 70
0
 62
7
  6
CONTINUOUS
370
-3
390
F
  0
LAYER
  5
207
100
AcDbSymbolTableRecord
100
AcDbLayerTableRecord
  2
11_NOTES_PUB
 70
0
 62
7
  6
CONTINUOUS
370
-3
390
F
  0
LAYER
  5
208
100
AcDbSymbolTableRecord
100
AcDbLayerTableRecord
  2
13_REF_GTOL
 70
0
 62
7
  6
CONTINUOUS
370
-3
390
F
  0
LAYER
  5
209
100
AcDbSymbolTableRecord
100
AcDbLayerTableRecord
  2
16_MISC
 70
0
 62
7
  6
CONTINUOUS
370
-3
390
F
  0
LAYER
  5
20A
100
AcDbSymbolTableRecord
100
AcDbLayerTableRecord
  2
17_NO_PRINT
 70
0
 62
7
  6
CONTINUOUS
370
-3
390
F
  0
LAYER
  5
20B
100
AcDbSymbolTableRecord
100
AcDbLayerTableRecord
  2
18_DATUM_CAMS_JOINTS
 70
0
 62
7
  6
CONTINUOUS
370
-3
390
F
  0
LAYER
  5
20C
100
AcDbSymbolTableRecord
100
AcDbLayerTableRecord
  2
19_DATUM_FUNCTIONAL
 70
0
 62
7
  6
CONTINUOUS
370
-3
390
F
  0
LAYER
  5
20D
100
AcDbSymbolTableRecord
100
AcDbLayerTableRecord
  2
20_DATUM_KINEMATIC_SCHEME
 70
0
 62
7
  6
CONTINUOUS
370
-3
390
F
  0
ENDTAB
  0
TABLE
  2
STYLE
  5
3
100
AcDbSymbolTable
 70
1
  0
STYLE
  5
11
100
AcDbSymbolTableRecord
100
AcDbTextStyleTableRecord
  2
STANDARD
 70
0
 40
0.0
 41
1.0
 50
0.0
 71
0
 42
0.2
  3
ARIAL.TTF
  4

  0
STYLE
  5
20E
100
AcDbSymbolTableRecord
100
AcDbTextStyleTableRecord
  2
TEXTSTYLE_1
 70
0
 40
0.0
 41
0.8
 50
0.0
 71
0
 42
0.2
  3
gdt
  4

  0
ENDTAB
  0
TABLE
  2
VIEW
  5
6
100
AcDbSymbolTable
 70
0
  0
ENDTAB
  0
TABLE
  2
UCS
  5
7
100
AcDbSymbolTable
 70
0
  0
ENDTAB
  0
TABLE
  2
APPID
  5
9
100
AcDbSymbolTable
 70
1
  0
APPID
  5
20F
100
AcDbSymbolTableRecord
100
AcDbRegAppTableRecord
  2
ACAD
 70
0
  0
ENDTAB
  0
TABLE
  2
BLOCK_RECORD
  5
1
100
AcDbSymbolTable
 70
0
  0
BLOCK_RECORD
  5
210
100
AcDbSymbolTableRecord
100
AcDbBlockTableRecord
  2
*Model_Space
  0
BLOCK_RECORD
  5
211
100
AcDbSymbolTableRecord
100
AcDbBlockTableRecord
  2
*Paper_Space
  0
BLOCK_RECORD
  5
212
100
AcDbSymbolTableRecord
100
AcDbBlockTableRecord
  2
_FILLED
  0
ENDTAB
  0
TABLE
  2
DIMSTYLE
  5
A
100
AcDbSymbolTable
 70
1
100
AcDbDimStyleTable
 71
0
  0
DIMSTYLE
105
213
100
AcDbSymbolTableRecord
100
AcDbDimStyleTableRecord
  2
STANDARD
 70
0
  3

  4

 40
1.0
 41
1.0373252247
 42
1.0
 43
0.38
 44
1.0
 45
0.0
 46
0.0
 47
0.01
 48
0.01
140
1.4522553146
141
0.09
142
0.0
143
25.4
144
1.0
145
0.0
146
1.0
147
0.625
 71
1
 72
0
 73
0
 74
0
 75
0
 76
0
 77
1
 78
8
 79
2
170
0
171
1
172
0
173
0
174
0
175
0
176
0
177
0
178
0
270
2
179
2
271
2
272
2
273
2
274
2
275
0
280
0
281
0
282
0
283
1
284
8
285
0
286
0
287
3
288
0
340
11
278
46
341
212
342
212
343
212
344
212
  0
ENDTAB
  0
ENDSEC
  0
SECTION
  2
BLOCKS
  0
BLOCK
  5
20
100
AcDbEntity
  8
0
100
AcDbBlockBegin
  2
*Model_Space
 70
0
 10
0.0
 20
0.0
 30
0.0
  3
*Model_Space
  1

  0
ENDBLK
  5
21
100
AcDbEntity
  8
0
100
AcDbBlockEnd
  0
BLOCK
  5
1C
100
AcDbEntity
  8
0
100
AcDbBlockBegin
  2
*Paper_Space
 70
0
 10
0.0
 20
0.0
 30
0.0
  3
*Paper_Space
  1

  0
ENDBLK
  5
1D
100
AcDbEntity
  8
0
100
AcDbBlockEnd
  0
BLOCK
  5
214
100
AcDbEntity
  8
0
100
AcDbBlockBegin
  2
_FILLED
 70
64
 10
0.0
 20
0.0
  3
_FILLED
  1

  0
SOLID
  5
215
100
AcDbEntity
  8
0
  6
BYBLOCK
 62
0
100
AcDbTrace
 10
0.0
 20
0.0
 11
-1.0
 21
0.25
 12
-1.0
 22
-0.25
 13
-1.0
 23
-0.25
  0
ENDBLK
  5
216
100
AcDbEntity
  8
0
  6
BYBLOCK
 62
0
100
AcDbBlockEnd
  0
ENDSEC
  0
SECTION
  2
ENTITIES
  0
LINE
  5
217
100
AcDbEntity
  8
0
100
AcDbLine
 62
7
  6
BYLAYER
 10
47.6848498045
 20
112.7988916663
 11
49.8061613161
 21
114.023624128
  0
LINE
  5
218
100
AcDbEntity
  8
0
100
AcDbLine
 62
7
  6
BYLAYER
 10
49.8061789799
 20
9.5113672616
 11
47.6848498045
 21
10.7360895251
  0
LINE
  5
219
100
AcDbEntity
  8
0
100
AcDbLine
 62
7
  6
BYLAYER
 10
51.9274904916
 20
112.7989018644
 11
49.8061789799
 21
111.5741694028
  0
LINE
  5
21A
100
AcDbEntity
  8
0
100
AcDbLine
 62
7
  6
BYLAYER
 10
39.1063263537
 20
100.3248813498
 11
37.6921186793
 21
99.508393042
  0
LINE
  5
21B
100
AcDbEntity
  8
0
100
AcDbLine
 62
7
  6
BYLAYER
 10
40.9319578172
 20
99.4918158129
 11
41.6390616545
 21
99.9000599668
  0
LINE
  5
21C
100
AcDbEntity
  8
0
100
AcDbLine
 62
7
  6
BYLAYER
 10
42.399204609
 20
99.5204429638
 11
43.1063084462
 21
99.9286871177
  0
LINE
  5
21D
100
AcDbEntity
  8
0
100
AcDbLine
 62
7
  6
BYLAYER
 10
43.1593475635
 20
99.0815841527
 11
42.4522437263
 21
98.6733399988
  0
LINE
  5
21E
100
AcDbEntity
  8
0
100
AcDbLine
 62
7
  6
BYLAYER
 10
36.0865277283
 20
94.9387452651
 11
36.7936315655
 21
95.3469894189
  0
LINE
  5
21F
100
AcDbEntity
  8
0
100
AcDbLine
 62
7
  6
BYLAYER
 10
41.6390616545
 20
97.3464940401
 11
40.9319578172
 21
96.9382498862
  0
LINE
  5
220
100
AcDbEntity
  8
0
100
AcDbLine
 62
7
  6
BYLAYER
 10
50.5309664482
 20
94.8256742868
 11
49.823862611
 21
94.4174301329
  0
LINE
  5
221
100
AcDbEntity
  8
0
100
AcDbLine
 62
7
  6
BYLAYER
 10
45.7933312897
 20
90.1511279066
 11
45.0862274525
 21
89.7428837528
  0
LINE
  5
222
100
AcDbEntity
  8
0
100
AcDbLine
 62
7
  6
BYLAYER
 10
41.6390616545
 20
86.9545049089
 11
40.9319578172
 21
86.5462607551
  0
LINE
  5
223
100
AcDbEntity
  8
0
100
AcDbLine
 62
7
  6
BYLAYER
 10
50.5309664482
 20
90.8656375637
 11
49.823862611
 21
90.4573934099
  0
LINE
  5
224
100
AcDbEntity
  8
0
100
AcDbLine
 62
7
  6
BYLAYER
 10
48.7808787103
 20
85.9359972022
 11
48.7631980233
 21
85.9257893137
  0
LINE
  5
225
100
AcDbEntity
  8
0
100
AcDbLine
 62
7
  6
BYLAYER
 10
50.5309664482
 20
85.7216723358
 11
49.823862611
 21
85.3134281819
  0
LINE
  5
226
100
AcDbEntity
  8
0
100
AcDbLine
 62
7
  6
BYLAYER
 10
50.5309664482
 20
81.7616356127
 11
49.823862611
 21
81.3533914589
  0
LINE
  5
227
100
AcDbEntity
  8
0
100
AcDbLine
 62
7
  6
BYLAYER
 10
38.2979740911
 20
93.6619949962
 11
38.2979740911
 21
95.417475193
  0
LINE
  5
228
100
AcDbEntity
  8
0
100
AcDbLine
 62
7
  6
BYLAYER
 10
40.9319578172
 20
99.4918158129
 11
40.9319578172
 21
96.9382498862
  0
LINE
  5
229
100
AcDbEntity
  8
0
100
AcDbLine
 62
7
  6
BYLAYER
 10
40.9319578172
 20
89.0998266818
 11
40.9319578172
 21
86.5462607551
  0
LINE
  5
22A
100
AcDbEntity
  8
0
100
AcDbLine
 62
7
  6
BYLAYER
 10
41.6390616545
 20
99.9000599668
 11
41.6390616545
 21
97.3464940401
  0
LINE
  5
22B
100
AcDbEntity
  8
0
100
AcDbLine
 62
7
  6
BYLAYER
 10
41.6390616545
 20
88.6915893266
 11
41.6390616545
 21
86.9545049089
  0
LINE
  5
22C
100
AcDbEntity
  8
0
100
AcDbLine
 62
7
  6
BYLAYER
 10
42.4522437263
 20
88.2221090595
 11
42.4522437263
 21
85.6093013247
  0
LINE
  5
22D
100
AcDbEntity
  8
0
100
AcDbLine
 62
7
  6
BYLAYER
 10
42.4522437263
 20
96.060532264
 11
42.4522437263
 21
98.6733399988
  0
LINE
  5
22E
100
AcDbEntity
  8
0
100
AcDbLine
 62
7
  6
BYLAYER
 10
45.0862274525
 20
91.4983639496
 11
45.0862274525
 21
89.7428837528
  0
LINE
  5
22F
100
AcDbEntity
  8
0
100
AcDbLine
 62
7
  6
BYLAYER
 10
45.7933312897
 20
91.0901265944
 11
45.7933312897
 21
90.1511279066
  0
LINE
  5
230
100
AcDbEntity
  8
0
100
AcDbLine
 62
7
  6
BYLAYER
 10
46.9777400793
 20
90.4063233306
 11
46.9777400793
 21
89.4673246428
  0
LINE
  5
231
100
AcDbEntity
  8
0
100
AcDbLine
 62
7
  6
BYLAYER
 10
47.348978573
 20
88.4365133383
 11
47.348978573
 21
90.1919935351
  0
LINE
  5
232
100
AcDbEntity
  8
0
100
AcDbLine
 62
7
  6
BYLAYER
 10
47.6848498045
 20
112.7988916663
 11
47.6848498045
 21
96.4688433237
  0
LINE
  5
233
100
AcDbEntity
  8
0
100
AcDbLine
 62
7
  6
BYLAYER
 10
47.6848498045
 20
82.5883231406
 11
47.6848498045
 21
10.7360895251
  0
LINE
  5
234
100
AcDbEntity
  8
0
100
AcDbLine
 62
7
  6
BYLAYER
 10
48.7631980233
 20
91.0697545416
 11
48.7631980233
 21
85.9257893137
  0
LINE
  5
235
100
AcDbEntity
  8
0
100
AcDbLine
 62
7
  6
BYLAYER
 10
49.8061789799
 20
111.5741694028
 11
49.8061789799
 21
95.2441210602
  0
LINE
  5
236
100
AcDbEntity
  8
0
100
AcDbLine
 62
7
  6
BYLAYER
 10
49.8061789799
 20
81.3533914589
 11
49.8061789799
 21
9.5113672616
  0
LINE
  5
237
100
AcDbEntity
  8
0
100
AcDbLine
 62
7
  6
BYLAYER
 10
49.823862611
 20
94.4174301329
 11
49.823862611
 21
90.4573934099
  0
LINE
  5
238
100
AcDbEntity
  8
0
100
AcDbLine
 62
7
  6
BYLAYER
 10
49.823862611
 20
85.3134281819
 11
49.823862611
 21
81.3533914589
  0
LINE
  5
239
100
AcDbEntity
  8
0
100
AcDbLine
 62
7
  6
BYLAYER
 10
50.5309664482
 20
94.8256742868
 11
50.5309664482
 21
90.8656375637
  0
LINE
  5
23A
100
AcDbEntity
  8
0
100
AcDbLine
 62
7
  6
BYLAYER
 10
50.5309664482
 20
85.7216723358
 11
50.5309664482
 21
81.7616356127
  0
LINE
  5
23B
100
AcDbEntity
  8
0
100
AcDbLine
 62
7
  6
BYLAYER
 10
51.9274904916
 20
112.7989018644
 11
51.9274904916
 21
10.7360997232
  0
LINE
  5
23C
100
AcDbEntity
  8
0
100
AcDbLine
 62
7
  6
BYLAYER
 10
51.9628518657
 20
95.6319565757
 11
51.9628518657
 21
82.5679179016
  0
LINE
  5
23D
100
AcDbEntity
  8
0
100
AcDbLine
 62
7
  6
BYLAYER
 10
52.402187278
 20
83.1802790334
 11
52.402187278
 21
96.2443177075
  0
LINE
  5
23E
100
AcDbEntity
  8
0
100
AcDbLine
 62
7
  6
BYLAYER
 10
49.823862611
 20
81.3533914589
 11
42.4522437263
 21
85.6093013247
  0
LINE
  5
23F
100
AcDbEntity
  8
0
100
AcDbLine
 62
7
  6
BYLAYER
 10
42.399204609
 20
86.4564042897
 11
42.4522437263
 21
86.4257828338
  0
LINE
  5
240
100
AcDbEntity
  8
0
100
AcDbLine
 62
7
  6
BYLAYER
 10
42.4522437263
 20
88.2221090595
 11
40.9319578172
 21
89.0998266818
  0
LINE
  5
241
100
AcDbEntity
  8
0
100
AcDbLine
 62
7
  6
BYLAYER
 10
48.7631980233
 20
85.9257893137
 11
48.7808787103
 21
85.9155815952
  0
LINE
  5
242
100
AcDbEntity
  8
0
100
AcDbLine
 62
7
  6
BYLAYER
 10
49.7354720624
 20
85.3644593344
 11
49.823862611
 21
85.3134281819
  0
LINE
  5
243
100
AcDbEntity
  8
0
100
AcDbLine
 62
7
  6
BYLAYER
 10
50.4425758997
 20
85.7727034883
 11
50.5309664482
 21
85.7216723358
  0
LINE
  5
244
100
AcDbEntity
  8
0
100
AcDbLine
 62
7
  6
BYLAYER
 10
36.0865277283
 20
94.9387452651
 11
38.2979740911
 21
93.6619949962
  0
LINE
  5
245
100
AcDbEntity
  8
0
100
AcDbLine
 62
7
  6
BYLAYER
 10
45.0862274525
 20
89.7428837528
 11
47.348978573
 21
88.4365133383
  0
LINE
  5
246
100
AcDbEntity
  8
0
100
AcDbLine
 62
7
  6
BYLAYER
 10
36.7936315655
 20
95.3469894189
 11
38.2979740911
 21
94.4784765052
  0
LINE
  5
247
100
AcDbEntity
  8
0
100
AcDbLine
 62
7
  6
BYLAYER
 10
45.7933312897
 20
90.1511279066
 11
47.348978573
 21
89.2529948474
  0
LINE
  5
248
100
AcDbEntity
  8
0
100
AcDbLine
 62
7
  6
BYLAYER
 10
47.348978573
 20
90.1919935351
 11
45.0862274525
 21
91.4983639496
  0
LINE
  5
249
100
AcDbEntity
  8
0
100
AcDbLine
 62
7
  6
BYLAYER
 10
38.2979740911
 20
95.417475193
 11
36.0865277283
 21
96.6942254619
  0
LINE
  5
24A
100
AcDbEntity
  8
0
100
AcDbLine
 62
7
  6
BYLAYER
 10
48.7631980233
 20
91.0697545416
 11
49.823862611
 21
90.4573934099
  0
LINE
  5
24B
100
AcDbEntity
  8
0
100
AcDbLine
 62
7
  6
BYLAYER
 10
40.9319578172
 20
96.9382498862
 11
42.4522437263
 21
96.060532264
  0
LINE
  5
24C
100
AcDbEntity
  8
0
100
AcDbLine
 62
7
  6
BYLAYER
 10
41.6390616545
 20
97.3464940401
 11
42.4522437263
 21
96.8770137731
  0
LINE
  5
24D
100
AcDbEntity
  8
0
100
AcDbLine
 62
7
  6
BYLAYER
 10
42.4522437263
 20
98.6733399988
 11
49.823862611
 21
94.4174301329
  0
LINE
  5
24E
100
AcDbEntity
  8
0
100
AcDbLine
 62
7
  6
BYLAYER
 10
42.399204609
 20
99.5204429638
 11
50.5309664482
 21
94.8256742868
  0
LINE
  5
24F
100
AcDbEntity
  8
0
100
AcDbLine
 62
7
  6
BYLAYER
 10
47.331289054
 20
97.4894486094
 11
43.1063084462
 21
99.9286871177
  0
LINE
  5
250
100
AcDbEntity
  8
0
100
AcDbLine
 62
7
  6
BYLAYER
 10
51.9628430338
 20
96.8566839383
 11
51.9274904916
 21
96.8770942763
  0
LINE
  5
251
100
AcDbEntity
  8
0
100
AcDbLine
 62
7
  6
BYLAYER
 10
49.8061789799
 20
111.5741694028
 11
47.6848498045
 21
112.7988916663
  0
LINE
  5
252
100
AcDbEntity
  8
0
100
AcDbLine
 62
7
  6
BYLAYER
 10
51.9274904916
 20
10.7360997232
 11
49.8061789799
 21
9.5113672616
  0
LINE
  5
253
100
AcDbEntity
  8
0
100
AcDbLine
 62
7
  6
BYLAYER
 10
49.8061613161
 20
114.023624128
 11
51.9274904916
 21
112.7989018644
  0
ARC
  5
254
100
AcDbEntity
  8
0
100
AcDbCircle
 62
7
  6
BYLAYER
 10
45.8083694721
 20
96.3383013119
 40
9.0690795125
100
AcDbArc
 50
186.1147271485
 51
186.3267731958
  0
ARC
  5
255
100
AcDbEntity
  8
0
100
AcDbCircle
 62
7
  6
BYLAYER
 10
47.0047533851
 20
94.2657210054
 40
9.0688771611
100
AcDbArc
 50
233.6736855389
 51
233.8857435438
  0
ARC
  5
256
100
AcDbEntity
  8
0
100
AcDbCircle
 62
7
  6
BYLAYER
 10
44.2143157468
 20
96.2544163878
 40
7.4719889392
100
AcDbArc
 50
179.531315959
 51
180.0005116515
  0
ARC
  5
257
100
AcDbEntity
  8
0
100
AcDbCircle
 62
7
  6
BYLAYER
 10
39.2930574157
 20
94.3247298141
 40
6.0488052654
100
AcDbArc
 50
67.2468588544
 51
67.4569249765
  0
ARC
  5
258
100
AcDbEntity
  8
0
100
AcDbCircle
 62
7
  6
BYLAYER
 10
39.3906295576
 20
94.5634950625
 40
5.7908768664
100
AcDbArc
 50
67.4428702315
 51
70.9322452568
  0
ARC
  5
259
100
AcDbEntity
  8
0
100
AcDbCircle
 62
7
  6
BYLAYER
 10
45.3839273721
 20
94.7193060673
 40
5.2399131014
100
AcDbArc
 50
201.7608033999
 51
207.1199286066
  0
ARC
  5
25A
100
AcDbEntity
  8
0
100
AcDbCircle
 62
7
  6
BYLAYER
 10
45.1218066166
 20
94.4975091065
 40
4.8986405803
100
AcDbArc
 50
218.8100185792
 51
221.2291545713
  0
ARC
  5
25B
100
AcDbEntity
  8
0
100
AcDbCircle
 62
7
  6
BYLAYER
 10
43.3811891548
 20
91.4442141579
 40
1.2856751351
100
AcDbArc
 50
270.5253528652
 51
275.0299766955
  0
ARC
  5
25C
100
AcDbEntity
  8
0
100
AcDbCircle
 62
7
  6
BYLAYER
 10
43.3845793242
 20
91.4021715644
 40
1.243497248
100
AcDbArc
 50
275.0442166696
 51
275.3049665608
  0
SPLINE
  5
25D
100
AcDbEntity
  8
0
100
AcDbSpline
 62
7
  6
BYLAYER
 70
0
 71
3
 72
15
 73
11
 74
0
 42
0.0000001
 43
0.0000001
 44
0.0000000001
 40
0.0
 40
0.0
 40
0.0
 40
0.0
 40
0.117457647
 40
0.2412501657
 40
0.3694853556
 40
0.5000009114
 40
0.630516345
 40
0.7587511746
 40
0.882543115
 40
1.0
 40
1.0
 40
1.0
 40
1.0
 10
36.0865277283
 20
94.9387452651
 30
0.0
 10
36.1290599603
 20
94.5520189014
 30
0.0
 10
36.2671300009
 20
93.7627440356
 30
0.0
 10
36.6085416011
 20
92.5853492302
 30
0.0
 10
37.0817869291
 20
91.4077430483
 30
0.0
 10
37.6746170833
 20
90.2606185682
 30
0.0
 10
38.3716454828
 20
89.1736546752
 30
0.0
 10
39.1548626371
 20
88.1750158646
 30
0.0
 10
40.0038119397
 20
87.2906563548
 30
0.0
 10
40.6183092625
 20
86.7764539161
 30
0.0
 10
40.9319578172
 20
86.5462607551
 30
0.0
  0
SPLINE
  5
25E
100
AcDbEntity
  8
0
100
AcDbSpline
 62
7
  6
BYLAYER
 70
0
 71
3
 72
15
 73
11
 74
0
 42
0.0000001
 43
0.0000001
 44
0.0000000001
 40
0.0
 40
0.0
 40
0.0
 40
0.0
 40
0.1485539703
 40
0.2895074528
 40
0.4227308078
 40
0.5486388402
 40
0.6680000974
 40
0.7819384809
 40
0.8919867567
 40
1.0
 40
1.0
 40
1.0
 40
1.0
 10
43.8841409197
 20
91.3146331339
 30
0.0
 10
43.8841409197
 20
91.2339160093
 30
0.0
 10
43.8776168152
 20
91.0765041803
 30
0.0
 10
43.846655243
 20
90.8485442394
 30
0.0
 10
43.7948838552
 20
90.6369494727
 30
0.0
 10
43.722746337
 20
90.4437982872
 30
0.0
 10
43.6308080745
 20
90.2709271498
 30
0.0
 10
43.5197541068
 20
90.1201111638
 30
0.0
 10
43.3906438857
 20
89.9930268138
 30
0.0
 10
43.2929150194
 20
89.9248502675
 30
0.0
 10
43.242088577
 20
89.8955057842
 30
0.0
  0
SPLINE
  5
25F
100
AcDbEntity
  8
0
100
AcDbSpline
 62
7
  6
BYLAYER
 70
0
 71
3
 72
15
 73
11
 74
0
 42
0.0000001
 43
0.0000001
 44
0.0000000001
 40
0.0
 40
0.0
 40
0.0
 40
0.0
 40
0.1120344883
 40
0.2255277477
 40
0.3418481404
 40
0.4621975136
 40
0.5875510284
 40
0.7186620855
 40
0.8560756494
 40
1.0
 40
1.0
 40
1.0
 40
1.0
 10
37.6921200609
 20
99.5083906491
 30
0.0
 10
37.5835322629
 20
99.4456978321
 30
0.0
 10
37.3736025609
 20
99.3037926223
 30
0.0
 10
37.0887270531
 20
99.0467002975
 30
0.0
 10
36.834845411
 20
98.7466788121
 30
0.0
 10
36.6136963539
 20
98.405998068
 30
0.0
 10
36.4265392203
 20
98.0270983152
 30
0.0
 10
36.2744867181
 20
97.6125068599
 30
0.0
 10
36.1584409416
 20
97.1650659713
 30
0.0
 10
36.1066607481
 20
96.8540388291
 30
0.0
 10
36.0865277283
 20
96.6942254619
 30
0.0
  0
SPLINE
  5
260
100
AcDbEntity
  8
0
100
AcDbSpline
 62
7
  6
BYLAYER
 70
0
 71
3
 72
15
 73
11
 74
0
 42
0.0000001
 43
0.0000001
 44
0.0000000001
 40
0.0
 40
0.0
 40
0.0
 40
0.0
 40
0.1120350071
 40
0.2255287156
 40
0.3418494273
 40
0.4621989448
 40
0.5875524018
 40
0.7186631942
 40
0.8560762938
 40
1.0
 40
1.0
 40
1.0
 40
1.0
 10
38.3992238981
 20
99.916634803
 30
0.0
 10
38.507808804
 20
99.9793259503
 30
0.0
 10
38.7356613364
 20
100.0901740522
 30
0.0
 10
39.1007374386
 20
100.2083341809
 30
0.0
 10
39.4874930995
 20
100.2781907847
 30
0.0
 10
39.8930934097
 20
100.2993730198
 30
0.0
 10
40.3147956052
 20
100.2720103755
 30
0.0
 10
40.7498548486
 20
100.1964028085
 30
0.0
 10
41.1953588472
 20
100.073190132
 30
0.0
 10
41.4905972594
 20
99.9625269154
 30
0.0
 10
41.6390616545
 20
99.9000599668
 30
0.0
  0
SPLINE
  5
261
100
AcDbEntity
  8
0
100
AcDbSpline
 62
7
  6
BYLAYER
 70
0
 71
3
 72
11
 73
7
 74
0
 42
0.0000001
 43
0.0000001
 44
0.0000000001
 40
0.0
 40
0.0
 40
0.0
 40
0.0
 40
0.221221992
 40
0.4596862134
 40
0.7189303945
 40
1.0
 40
1.0
 40
1.0
 40
1.0
 10
40.5676838952
 20
95.4365421353
 30
0.0
 10
40.5075670879
 20
95.365694099
 30
0.0
 10
40.4002180852
 20
95.2029819286
 30
0.0
 10
40.2880108985
 20
94.9208558825
 30
0.0
 10
40.2208425546
 20
94.5993419941
 30
0.0
 10
40.207164461
 20
94.3720233381
 30
0.0
 10
40.207164461
 20
94.2539699658
 30
0.0
  0
SPLINE
  5
262
100
AcDbEntity
  8
0
100
AcDbSpline
 62
7
  6
BYLAYER
 70
0
 71
3
 72
25
 73
21
 74
0
 42
0.0000001
 43
0.0000001
 44
0.0000000001
 40
0.0
 40
0.0
 40
0.0
 40
0.0
 40
0.0213325385
 40
0.0428935474
 40
0.0648993283
 40
0.0875443154
 40
0.1353199585
 40
0.187221308
 40
0.2436590533
 40
0.3046065015
 40
0.3696934
 40
0.4382897404
 40
0.5095754934
 40
0.5825994941
 40
0.6563311329
 40
0.7297066676
 40
0.801683634
 40
0.8712732947
 40
0.9376201168
 40
1.0
 40
1.0
 40
1.0
 40
1.0
 10
40.1421129665
 20
95.2648531616
 30
0.0
 10
40.1801994365
 20
95.2868422628
 30
0.0
 10
40.2597012789
 20
95.326202907
 30
0.0
 10
40.3864705521
 20
95.3700082429
 30
0.0
 10
40.5202960778
 20
95.3985569886
 30
0.0
 10
40.7103745083
 20
95.4163932512
 30
0.0
 10
40.9638075665
 20
95.3977915221
 30
0.0
 10
41.2762782285
 20
95.314734224
 30
0.0
 10
41.5966061687
 20
95.173172381
 30
0.0
 10
41.9182972207
 20
94.9763555514
 30
0.0
 10
42.2348541726
 20
94.7285303517
 30
0.0
 10
42.5396946208
 20
94.4349447154
 30
0.0
 10
42.8264069677
 20
94.10182046
 30
0.0
 10
43.0889064448
 20
93.73623681
 30
0.0
 10
43.3215954726
 20
93.3459869646
 30
0.0
 10
43.5195232226
 20
92.9393966921
 30
0.0
 10
43.6784460964
 20
92.5251414577
 30
0.0
 10
43.7950273434
 20
92.111989438
 30
0.0
 10
43.8667087245
 20
91.7087878868
 30
0.0
 10
43.8841409197
 20
91.4432332779
 30
0.0
 10
43.8841409197
 20
91.3146331339
 30
0.0
  0
SPLINE
  5
263
100
AcDbEntity
  8
0
100
AcDbSpline
 62
7
  6
BYLAYER
 70
0
 71
3
 72
23
 73
19
 74
0
 42
0.0000001
 43
0.0000001
 44
0.0000000001
 40
0.0
 40
0.0
 40
0.0
 40
0.0
 40
0.0598940849
 40
0.1232571149
 40
0.1895417357
 40
0.2581375064
 40
0.3283143156
 40
0.3992943582
 40
0.470270435
 40
0.5404335939
 40
0.6090041237
 40
0.6752603686
 40
0.7385705014
 40
0.7984266138
 40
0.8544854934
 40
0.9066190943
 40
0.9549687671
 40
1.0
 40
1.0
 40
1.0
 40
1.0
 10
40.207164461
 20
94.2539699658
 30
0.0
 10
40.207164461
 20
94.1399557771
 30
0.0
 10
40.2208509115
 20
93.9051917969
 30
0.0
 10
40.2776752195
 20
93.5483793384
 30
0.0
 10
40.3705009923
 20
93.1821014845
 30
0.0
 10
40.4976764932
 20
92.8126076059
 30
0.0
 10
40.6571007455
 20
92.4460964143
 30
0.0
 10
40.8460543746
 20
92.0887819895
 30
0.0
 10
41.0613306471
 20
91.746710958
 30
0.0
 10
41.2992880317
 20
91.4256862061
 30
0.0
 10
41.555903143
 20
91.1311506814
 30
0.0
 10
41.8268392794
 20
90.868075998
 30
0.0
 10
42.107548488
 20
90.6408943991
 30
0.0
 10
42.3933705599
 20
90.4534365123
 30
0.0
 10
42.6796099805
 20
90.3088918647
 30
0.0
 10
42.9616924965
 20
90.2097927807
 30
0.0
 10
43.2349716604
 20
90.1580486256
 30
0.0
 10
43.4139857282
 20
90.1560700936
 30
0.0
 10
43.4993412
 20
90.163981264
 30
0.0
  0
SPLINE
  5
264
100
AcDbEntity
  8
0
100
AcDbSpline
 62
7
  6
BYLAYER
 70
0
 71
3
 72
15
 73
11
 74
0
 42
0.0000001
 43
0.0000001
 44
0.0000000001
 40
0.0
 40
0.0
 40
0.0
 40
0.0
 40
0.1485539703
 40
0.2895074528
 40
0.4227308078
 40
0.5486388402
 40
0.6680000974
 40
0.7819384809
 40
0.8919867567
 40
1.0
 40
1.0
 40
1.0
 40
1.0
 10
39.5000606238
 20
93.8457258119
 30
0.0
 10
39.5000606238
 20
93.9264429364
 30
0.0
 10
39.5065847283
 20
94.0838547655
 30
0.0
 10
39.5375463006
 20
94.3118147063
 30
0.0
 10
39.5893176883
 20
94.523409473
 30
0.0
 10
39.6614552066
 20
94.7165606586
 30
0.0
 10
39.7533934691
 20
94.889431796
 30
0.0
 10
39.8644474368
 20
95.040247782
 30
0.0
 10
39.9935576579
 20
95.1673321319
 30
0.0
 10
40.0912865242
 20
95.2355086783
 30
0.0
 10
40.1421129665
 20
95.2648531616
 30
0.0
  0
SPLINE
  5
265
100
AcDbEntity
  8
0
100
AcDbSpline
 62
7
  6
BYLAYER
 70
0
 71
3
 72
25
 73
21
 74
0
 42
0.0000001
 43
0.0000001
 44
0.0000000001
 40
0.0
 40
0.0
 40
0.0
 40
0.0
 40
0.0213325385
 40
0.0428935474
 40
0.0648993283
 40
0.0875443154
 40
0.1353199585
 40
0.187221308
 40
0.2436590533
 40
0.3046065015
 40
0.3696934
 40
0.4382897404
 40
0.5095754934
 40
0.5825994941
 40
0.6563311329
 40
0.7297066676
 40
0.801683634
 40
0.8712732947
 40
0.9376201168
 40
1.0
 40
1.0
 40
1.0
 40
1.0
 10
43.242088577
 20
89.8955057842
 30
0.0
 10
43.204002107
 20
89.873516683
 30
0.0
 10
43.1245002647
 20
89.8341560388
 30
0.0
 10
42.9977309914
 20
89.7903507028
 30
0.0
 10
42.8639054658
 20
89.7618019572
 30
0.0
 10
42.6738270353
 20
89.7439656945
 30
0.0
 10
42.4203939771
 20
89.7625674236
 30
0.0
 10
42.1079233151
 20
89.8456247218
 30
0.0
 10
41.7875953748
 20
89.9871865647
 30
0.0
 10
41.4659043228
 20
90.1840033943
 30
0.0
 10
41.149347371
 20
90.431828594
 30
0.0
 10
40.8445069228
 20
90.7254142303
 30
0.0
 10
40.5577945759
 20
91.0585384857
 30
0.0
 10
40.2952950987
 20
91.4241221357
 30
0.0
 10
40.062606071
 20
91.8143719812
 30
0.0
 10
39.8646783209
 20
92.2209622536
 30
0.0
 10
39.7057554472
 20
92.635217488
 30
0.0
 10
39.5891742002
 20
93.0483695077
 30
0.0
 10
39.517492819
 20
93.451571059
 30
0.0
 10
39.5000606238
 20
93.7171256679
 30
0.0
 10
39.5000606238
 20
93.8457258119
 30
0.0
  0
SPLINE
  5
266
100
AcDbEntity
  8
0
100
AcDbSpline
 62
7
  6
BYLAYER
 70
0
 71
3
 72
15
 73
11
 74
0
 42
0.0000001
 43
0.0000001
 44
0.0000000001
 40
0.0
 40
0.0
 40
0.0
 40
0.0
 40
0.1439237062
 40
0.2813368058
 40
0.4124475982
 40
0.5378010552
 40
0.6581505727
 40
0.7744712844
 40
0.8879649929
 40
1.0
 40
1.0
 40
1.0
 40
1.0
 10
40.9319578172
 20
99.4918158129
 30
0.0
 10
40.7834934222
 20
99.5542827616
 30
0.0
 10
40.48825501
 20
99.6649459781
 30
0.0
 10
40.0427510113
 20
99.7881586546
 30
0.0
 10
39.607691768
 20
99.8637662217
 30
0.0
 10
39.1859895725
 20
99.8911288659
 30
0.0
 10
38.7803892623
 20
99.8699466308
 30
0.0
 10
38.3936336014
 20
99.800090027
 30
0.0
 10
38.0285574992
 20
99.6819298983
 30
0.0
 10
37.8007049668
 20
99.5710817964
 30
0.0
 10
37.6921200609
 20
99.5083906491
 30
0.0
  0
SPLINE
  5
267
100
AcDbEntity
  8
0
100
AcDbSpline
 62
7
  6
BYLAYER
 70
0
 71
3
 72
19
 73
15
 74
0
 42
0.0000001
 43
0.0000001
 44
0.0000000001
 40
0.0
 40
0.0
 40
0.0
 40
0.0
 40
0.0580081964
 40
0.1190931435
 40
0.1828235327
 40
0.2487498075
 40
0.3848614918
 40
0.522674914
 40
0.657146782
 40
0.7216910678
 40
0.7837231583
 40
0.8428245784
 40
0.8986880174
 40
1.0
 40
1.0
 40
1.0
 40
1.0
 10
40.9142682983
 20
94.6622141196
 30
0.0
 10
40.9142682983
 20
94.560093638
 30
0.0
 10
40.9252374457
 20
94.3503349886
 30
0.0
 10
40.9711295101
 20
94.0313996884
 30
0.0
 10
41.0463439022
 20
93.7037578232
 30
0.0
 10
41.1857555179
 20
93.2567557158
 30
0.0
 10
41.4257299837
 20
92.7063558023
 30
0.0
 10
41.7998208499
 20
92.090049604
 30
0.0
 10
42.1747500458
 20
91.6277713571
 30
0.0
 10
42.5029942584
 20
91.3055422051
 30
0.0
 10
42.7541681911
 20
91.0957879561
 30
0.0
 10
43.010387391
 20
90.9175036546
 30
0.0
 10
43.3427207134
 20
90.7313355552
 30
0.0
 10
43.6060270409
 20
90.6345607989
 30
0.0
 10
43.7807830265
 20
90.5989138128
 30
0.0
  0
SPLINE
  5
268
100
AcDbEntity
  8
0
100
AcDbSpline
 62
7
  6
BYLAYER
 70
0
 71
3
 72
15
 73
11
 74
0
 42
0.0000001
 43
0.0000001
 44
0.0000000001
 40
0.0
 40
0.0
 40
0.0
 40
0.0
 40
0.1080133766
 40
0.2180630708
 40
0.3320006918
 40
0.4513589398
 40
0.5772805913
 40
0.7104958517
 40
0.8514076661
 40
1.0
 40
1.0
 40
1.0
 40
1.0
 10
39.1063278144
 20
100.3248788198
 30
0.0
 10
39.2374897121
 20
100.4006047199
 30
0.0
 10
39.5159715824
 20
100.5310092731
 30
0.0
 10
39.9665661197
 20
100.6556049533
 30
0.0
 10
40.446907556
 20
100.7091875538
 30
0.0
 10
40.9518900519
 20
100.691629601
 30
0.0
 10
41.4766316544
 20
100.6035880034
 30
0.0
 10
42.0162613845
 20
100.4462853371
 30
0.0
 10
42.5656818202
 20
100.2214207195
 30
0.0
 10
42.925870301
 20
100.0328607726
 30
0.0
 10
43.1063084462
 20
99.9286871177
 30
0.0
  0
SPLINE
  5
269
100
AcDbEntity
  8
0
100
AcDbSpline
 62
7
  6
BYLAYER
 70
0
 71
3
 72
14
 73
10
 74
0
 42
0.0000001
 43
0.0000001
 44
0.0000000001
 40
0.0
 40
0.0
 40
0.0
 40
0.0
 40
0.108045758
 40
0.2181291408
 40
0.3321091572
 40
0.4514977165
 40
0.5774414204
 40
0.7107250264
 40
1.0
 40
1.0
 40
1.0
 40
1.0
 10
52.4021847172
 20
96.2443177075
 30
0.0
 10
52.4021847191
 20
96.2727144449
 30
0.0
 10
52.3972425511
 20
96.3301571836
 30
0.0
 10
52.3752472589
 20
96.4150103675
 30
0.0
 10
52.3388955384
 20
96.4980224616
 30
0.0
 10
52.2887204028
 20
96.5783762336
 30
0.0
 10
52.2252207007
 20
96.6553351988
 30
0.0
 10
52.1208996064
 20
96.7551828504
 30
0.0
 10
52.0286852857
 20
96.8186707564
 30
0.0
 10
51.9628430338
 20
96.8566839383
 30
0.0
  0
SPLINE
  5
26A
100
AcDbEntity
  8
0
100
AcDbSpline
 62
7
  6
BYLAYER
 70
0
 71
3
 72
14
 73
10
 74
0
 42
0.0000001
 43
0.0000001
 44
0.0000000001
 40
0.0
 40
0.0
 40
0.0
 40
0.0
 40
0.1080460029
 40
0.2181295928
 40
0.3321097481
 40
0.451498358
 40
0.5774420198
 40
0.7107254959
 40
1.0
 40
1.0
 40
1.0
 40
1.0
 10
52.4021847172
 20
83.1802790334
 30
0.0
 10
52.4021847179
 20
83.1518825982
 30
0.0
 10
52.3972426588
 20
83.0944404842
 30
0.0
 10
52.3752478383
 20
83.0095881933
 30
0.0
 10
52.3388968892
 20
82.9265769308
 30
0.0
 10
52.2887228031
 20
82.8462239041
 30
0.0
 10
52.2252244045
 20
82.769265578
 30
0.0
 10
52.1209054324
 20
82.6694186524
 30
0.0
 10
52.0286928867
 20
82.6059310059
 30
0.0
 10
51.9628518657
 20
82.5679179016
 30
0.0
  0
SPLINE
  5
26B
100
AcDbEntity
  8
0
100
AcDbSpline
 62
7
  6
BYLAYER
 70
0
 71
3
 72
9
 73
5
 74
0
 42
0.0000001
 43
0.0000001
 44
0.0000000001
 40
0.0
 40
0.0
 40
0.0
 40
0.0
 40
0.4791729067
 40
1.0
 40
1.0
 40
1.0
 40
1.0
 10
41.011652712
 20
95.3520546052
 30
0.0
 10
40.9780428721
 20
95.2456368365
 30
0.0
 10
40.9286608298
 20
95.0167600598
 30
0.0
 10
40.9142682983
 20
94.7835144742
 30
0.0
 10
40.9142682983
 20
94.6622141196
 30
0.0
  0
SPLINE
  5
26C
100
AcDbEntity
  8
0
100
AcDbSpline
 62
7
  6
BYLAYER
 70
0
 71
3
 72
10
 73
6
 74
0
 42
0.0000001
 43
0.0000001
 44
0.0000000001
 40
0.0
 40
0.0
 40
0.0
 40
0.0
 40
0.524881929
 40
0.771549574
 40
1.0
 40
1.0
 40
1.0
 40
1.0
 10
47.6848501138
 20
97.4049011191
 30
0.0
 10
47.6206545501
 20
97.404900443
 30
0.0
 10
47.5256785289
 20
97.4151961179
 30
0.0
 10
47.4084325419
 20
97.4508349379
 30
0.0
 10
47.3554864402
 20
97.475478558
 30
0.0
 10
47.331289054
 20
97.4894486094
 30
0.0
  0
SPLINE
  5
26D
100
AcDbEntity
  8
0
100
AcDbSpline
 62
7
  6
BYLAYER
 70
0
 71
3
 72
9
 73
5
 74
0
 42
0.0000001
 43
0.0000001
 44
0.0000000001
 40
0.0
 40
0.0
 40
0.0
 40
0.0
 40
0.244178376
 40
1.0
 40
1.0
 40
1.0
 40
1.0
 10
36.7423268078
 20
96.2543496629
 30
0.0
 10
36.7423268078
 20
96.1824262772
 30
0.0
 10
36.746553554
 20
95.8878819944
 30
0.0
 10
36.7671736536
 20
95.5936288151
 30
0.0
 10
36.7908876035
 20
95.3722661391
 30
0.0
  0
SPLINE
  5
26E
100
AcDbEntity
  8
0
100
AcDbSpline
 62
7
  6
BYLAYER
 70
0
 71
3
 72
9
 73
5
 74
0
 42
0.0000001
 43
0.0000001
 44
0.0000000001
 40
0.0
 40
0.0
 40
0.0
 40
0.0
 40
0.2557715293
 40
1.0
 40
1.0
 40
1.0
 40
1.0
 10
41.6595809028
 20
86.9394897711
 30
0.0
 10
41.7204413665
 20
86.895086543
 30
0.0
 10
41.9605459277
 20
86.724469056
 30
0.0
 10
42.2093615638
 20
86.5660077434
 30
0.0
 10
42.399204609
 20
86.4564042897
 30
0.0
  0
SPLINE
  5
26F
100
AcDbEntity
  8
0
100
AcDbSpline
 62
7
  6
BYLAYER
 70
0
 71
3
 72
14
 73
10
 74
0
 42
0.0000001
 43
0.0000001
 44
0.0000000001
 40
0.0
 40
0.0
 40
0.0
 40
0.0
 40
0.2892745128
 40
0.4225579986
 40
0.54850166
 40
0.667890265
 40
0.7818704175
 40
0.891954003
 40
1.0
 40
1.0
 40
1.0
 40
1.0
 10
51.9628518657
 20
95.6319565757
 30
0.0
 10
52.0286928886
 20
95.669969681
 30
0.0
 10
52.1209054371
 20
95.733457332
 30
0.0
 10
52.2252244124
 20
95.8333042608
 30
0.0
 10
52.288722811
 20
95.9102625884
 30
0.0
 10
52.3388968923
 20
95.9906156156
 30
0.0
 10
52.3752478394
 20
96.073626875
 30
0.0
 10
52.3972426603
 20
96.1584791627
 30
0.0
 10
52.4021847153
 20
96.2159212738
 30
0.0
 10
52.4021847172
 20
96.2443177075
 30
0.0
  0
SPLINE
  5
270
100
AcDbEntity
  8
0
100
AcDbSpline
 62
7
  6
BYLAYER
 70
0
 71
3
 72
11
 73
7
 74
0
 42
0.0000001
 43
0.0000001
 44
0.0000000001
 40
0.0
 40
0.0
 40
0.0
 40
0.0
 40
0.2282935934
 40
0.4746715782
 40
0.7339530581
 40
1.0
 40
1.0
 40
1.0
 40
1.0
 10
46.9777400793
 20
96.8770840783
 30
0.0
 10
47.026144049
 20
96.8491386656
 30
0.0
 10
47.1320007624
 20
96.7998525572
 30
0.0
 10
47.3043756074
 20
96.7474524826
 30
0.0
 10
47.4909819393
 20
96.7152181122
 30
0.0
 10
47.6197151381
 20
96.7079902379
 30
0.0
 10
47.6848498414
 20
96.7079904606
 30
0.0
  0
SPLINE
  5
271
100
AcDbEntity
  8
0
100
AcDbSpline
 62
7
  6
BYLAYER
 70
0
 71
3
 72
9
 73
5
 74
0
 42
0.0000001
 43
0.0000001
 44
0.0000000001
 40
0.0
 40
0.0
 40
0.0
 40
0.0
 40
0.2566946752
 40
1.0
 40
1.0
 40
1.0
 40
1.0
 10
42.399204609
 20
99.5204429638
 30
0.0
 10
42.3356937196
 20
99.5571101634
 30
0.0
 10
42.0862093684
 20
99.696319864
 30
0.0
 10
41.8283335155
 20
99.8206847039
 30
0.0
 10
41.6325025294
 20
99.9028156595
 30
0.0
  0
SPLINE
  5
272
100
AcDbEntity
  8
0
100
AcDbSpline
 62
7
  6
BYLAYER
 70
0
 71
3
 72
9
 73
5
 74
0
 42
0.0000001
 43
0.0000001
 44
0.0000000001
 40
0.0
 40
0.0
 40
0.0
 40
0.0
 40
0.2571366239
 40
1.0
 40
1.0
 40
1.0
 40
1.0
 10
41.2824282082
 20
100.0366434022
 30
0.0
 10
41.223065875
 20
100.0571113192
 30
0.0
 10
40.9908674275
 20
100.1327259565
 30
0.0
 10
40.7531924518
 20
100.1918896597
 30
0.0
 10
40.574779765
 20
100.2247010821
 30
0.0
  0
SPLINE
  5
273
100
AcDbEntity
  8
0
100
AcDbSpline
 62
7
  6
BYLAYER
 70
0
 71
3
 72
9
 73
5
 74
0
 42
0.0000001
 43
0.0000001
 44
0.0000000001
 40
0.0
 40
0.0
 40
0.0
 40
0.0
 40
0.2569571435
 40
1.0
 40
1.0
 40
1.0
 40
1.0
 10
40.574779765
 20
100.2247010821
 30
0.0
 10
40.5166058508
 20
100.2353996984
 30
0.0
 10
40.2894083627
 20
100.2724447339
 30
0.0
 10
40.0589655865
 20
100.2904505381
 30
0.0
 10
39.8879253394
 20
100.2913505986
 30
0.0
  0
SPLINE
  5
274
100
AcDbEntity
  8
0
100
AcDbSpline
 62
7
  6
BYLAYER
 70
0
 71
3
 72
9
 73
5
 74
0
 42
0.0000001
 43
0.0000001
 44
0.0000000001
 40
0.0
 40
0.0
 40
0.0
 40
0.0
 40
0.5070901599
 40
1.0
 40
1.0
 40
1.0
 40
1.0
 10
39.8879253394
 20
100.2913505986
 30
0.0
 10
39.7804884217
 20
100.291915961
 30
0.0
 10
39.5684298819
 20
100.2833459952
 30
0.0
 10
39.3582014034
 20
100.2538367458
 30
0.0
 10
39.2556878815
 20
100.2339009625
 30
0.0
  0
SPLINE
  5
275
100
AcDbEntity
  8
0
100
AcDbSpline
 62
7
  6
BYLAYER
 70
0
 71
3
 72
9
 73
5
 74
0
 42
0.0000001
 43
0.0000001
 44
0.0000000001
 40
0.0
 40
0.0
 40
0.0
 40
0.0
 40
0.259514711
 40
1.0
 40
1.0
 40
1.0
 40
1.0
 10
40.3399686717
 20
95.044928908
 30
0.0
 10
40.3515105545
 20
95.0747863159
 30
0.0
 10
40.3993417808
 20
95.1884807636
 30
0.0
 10
40.4612861119
 20
95.2964754285
 30
0.0
 10
40.5152983092
 20
95.3701313834
 30
0.0
  0
SPLINE
  5
276
100
AcDbEntity
  8
0
100
AcDbSpline
 62
7
  6
BYLAYER
 70
0
 71
3
 72
9
 73
5
 74
0
 42
0.0000001
 43
0.0000001
 44
0.0000000001
 40
0.0
 40
0.0
 40
0.0
 40
0.0
 40
0.4789717854
 40
1.0
 40
1.0
 40
1.0
 40
1.0
 10
43.3929775213
 20
90.1585930677
 30
0.0
 10
43.2927388167
 20
90.1575984415
 30
0.0
 10
43.082912508
 20
90.1789778692
 30
0.0
 10
42.8810592267
 20
90.2380865724
 30
0.0
 10
42.7789309705
 20
90.2763064828
 30
0.0
  0
SPLINE
  5
277
100
AcDbEntity
  8
0
100
AcDbSpline
 62
7
  6
BYLAYER
 70
0
 71
3
 72
9
 73
5
 74
0
 42
0.0000001
 43
0.0000001
 44
0.0000000001
 40
0.0
 40
0.0
 40
0.0
 40
0.0
 40
0.241416164
 40
1.0
 40
1.0
 40
1.0
 40
1.0
 10
42.7789309705
 20
90.2763064828
 30
0.0
 10
42.7476769093
 20
90.2880028288
 30
0.0
 10
42.6193235815
 20
90.3393936336
 30
0.0
 10
42.495531155
 20
90.401923752
 30
0.0
 10
42.4046077936
 20
90.4541574821
 30
0.0
  0
SPLINE
  5
278
100
AcDbEntity
  8
0
100
AcDbSpline
 62
7
  6
BYLAYER
 70
0
 71
3
 72
9
 73
5
 74
0
 42
0.0000001
 43
0.0000001
 44
0.0000000001
 40
0.0
 40
0.0
 40
0.0
 40
0.0
 40
0.2424887222
 40
1.0
 40
1.0
 40
1.0
 40
1.0
 10
42.4046077936
 20
90.4541574821
 30
0.0
 10
42.3720113764
 20
90.4728834996
 30
0.0
 10
42.2390928714
 20
90.5527161349
 30
0.0
 10
42.1121832534
 20
90.642422975
 30
0.0
 10
42.0196018183
 20
90.7146703037
 30
0.0
  0
SPLINE
  5
279
100
AcDbEntity
  8
0
100
AcDbSpline
 62
7
  6
BYLAYER
 70
0
 71
3
 72
9
 73
5
 74
0
 42
0.0000001
 43
0.0000001
 44
0.0000000001
 40
0.0
 40
0.0
 40
0.0
 40
0.0
 40
0.2539007731
 40
1.0
 40
1.0
 40
1.0
 40
1.0
 10
40.5174122287
 20
92.7766996559
 30
0.0
 10
40.4998118689
 20
92.8208778467
 30
0.0
 10
40.4329632236
 20
92.9958455789
 30
0.0
 10
40.3760552402
 20
93.1746465869
 30
0.0
 10
40.3399726279
 20
93.309650644
 30
0.0
  0
SPLINE
  5
27A
100
AcDbEntity
  8
0
100
AcDbSpline
 62
7
  6
BYLAYER
 70
0
 71
3
 72
9
 73
5
 74
0
 42
0.0000001
 43
0.0000001
 44
0.0000000001
 40
0.0
 40
0.0
 40
0.0
 40
0.0
 40
0.5175079955
 40
1.0
 40
1.0
 40
1.0
 40
1.0
 10
40.3399726279
 20
93.309650644
 30
0.0
 10
40.2974080555
 20
93.4689071276
 30
0.0
 10
40.232092706
 20
93.7815115456
 30
0.0
 10
40.207164461
 20
94.1002774207
 30
0.0
 10
40.207164461
 20
94.2539699658
 30
0.0
  0
ENDSEC
  0
SECTION
  2
OBJECTS
  0
DICTIONARY
  5
C
100
AcDbDictionary
280
0
281
1
  3
ACAD_GROUP
350
D
  3
ACAD_MLINESTYLE
350
17
  3
ACAD_LAYOUT
350
1A
  3
ACAD_PLOTSETTINGS
350
19
  3
ACAD_PLOTSTYLENAME
350
E
  0
DICTIONARY
  5
D
102
{ACAD_REACTORS
330
C
102
}
100
AcDbDictionary
280
0
281
1
  0
ACDBDICTIONARYWDFLT
  5
E
102
{ACAD_REACTORS
330
C
102
}
100
AcDbDictionary
281
1
  3
Normal
350
F
100
AcDbDictionaryWithDefault
340
F
  0
DICTIONARY
  5
17
102
{ACAD_REACTORS
330
C
102
}
100
AcDbDictionary
280
0
281
1
  3
Standard
350
18
  0
DICTIONARY
  5
19
102
{ACAD_REACTORS
330
C
102
}
100
AcDbDictionary
281
1
  0
DICTIONARY
  5
1A
102
{ACAD_REACTORS
330
C
102
}
100
AcDbDictionary
281
1
  3
Model
350
27B
  3
Layout1
350
27C
  0
ACDBPLACEHOLDER
  5
F
102
{ACAD_REACTORS
330
E
102
}
  0
MLINESTYLE
  5
18
102
{ACAD_REACTORS
330
17
102
}
100
AcDbMlineStyle
  2
STANDARD
 70
0
  3

 62
256
 51
90.0
 52
90.0
 71
2
 49
0.5
 62
256
  6
BYLAYER
 49
-0.5
 62
256
  6
BYLAYER
  0
LAYOUT
  5
27B
102
{ACAD_REACTORS
330
1A
102
}
100
AcDbPlotSettings
  1

  2
none_device
  4

  6

 40
0.0
 41
0.0
 42
0.0
 43
0.0
 44
210.0
 45
297.0
 46
0.0
 47
0.0
 48
0.0
 49
0.0
140
0.0
141
0.0
142
1.0
143
1.0
 70
1024
 72
1
 73
0
 74
0
  7

 75
0
147
1.0
148
0.0
149
0.0
100
AcDbLayout
  1
Model
 70
0
 71
0
 10
0.0
 20
0.0
 11
210.0
 21
297.0
 12
0.0
 22
0.0
 32
0.0
 14
0.0
 24
0.0
 34
0.0
 15
0.0
 25
0.0
 35
0.0
146
0.0
 13
0.0
 23
0.0
 33
0.0
 16
1.0
 26
0.0
 36
0.0
 17
0.0
 27
1.0
 37
0.0
 76
0
330
210
345
0
346
0
  0
LAYOUT
  5
27C
102
{ACAD_REACTORS
330
1A
102
}
100
AcDbPlotSettings
  1

  2
none_device
  4

  6

 40
0.0
 41
0.0
 42
0.0
 43
0.0
 44
210.0
 45
297.0
 46
0.0
 47
0.0
 48
0.0
 49
0.0
140
0.0
141
0.0
142
1.0
143
1.0
 70
0
 72
1
 73
0
 74
0
  7

 75
0
147
1.0
148
0.0
149
0.0
100
AcDbLayout
  1
Layout1
 70
0
 71
1
 10
0.0
 20
0.0
 11
210.0
 21
297.0
 12
0.0
 22
0.0
 32
0.0
 14
0.0
 24
0.0
 34
0.0
 15
0.0
 25
0.0
 35
0.0
146
0.0
 13
0.0
 23
0.0
 33
0.0
 16
1.0
 26
0.0
 36
0.0
 17
0.0
 27
1.0
 37
0.0
 76
0
330
211
345
0
346
0
  0
ENDSEC
  0
EOF
