999
DXF file: C:\Users\sesa63760\Dev\_Creo\CAD\MCADID0005861_3D-CAD\mcadid0005861_3d-simplified_5.dxf
999
Pro/ENGINEER 2019471 by Parametric Technology Corporation
  0
SECTION
  2
HEADER
  9
$ACADVER
  1
AC1024
  9
$DWGCODEPAGE
  3
ANSI_1252
  9
$EXTMAX
 10
92.8813626461
 20
131.3607843137
 30
0.0
  9
$EXTMIN
 10
0.0
 20
0.0
 30
0.0
  9
$LIMMIN
 10
0.0
 20
0.0
  9
$LIMMAX
 10
92.8813626461
 20
131.3607843137
  9
$VIEWCTR
 10
46.440681323
 20
65.6803921569
  9
$VIEWSIZE
 40
131.3607843137
  9
$CLAYER
  8
0
  9
$LTSCALE
 40
8.5627770516
  9
$CELTYPE
  6
BYLAYER
  9
$DIMSCALE
 40
1.0
  9
$DIMASZ
 40
1.1057305077
  9
$DIMEXO
 40
1.0
  9
$DIMDLI
 40
5.9161005084
  9
$DIMEXE
 40
1.0
  9
$DIMCEN
 40
1.4011816993
  9
$DIMLFAC
 40
1.0
  9
$DIMBLK
  1
_FILLED
  9
$DIMALT
 70
0
  9
$DIMALTF
 40
0.0393700787
  9
$DIMTXT
 40
1.5480227108
  9
$DIMTOL
 70
1
  9
$DIMLIM
 70
0
  9
$DIMTFAC
 40
1.0
  9
$DIMTP
 40
0.01
  9
$DIMTM
 40
0.01
  9
$DIMGAP
 40
0.625
  9
$DIMDSEP
 70
46
  9
$AUNITS
 70
0
  9
$PDMODE
 70
3
  9
$PDSIZE
 40
0.3125
  9
$HANDSEED
  5
29A
  9
$TILEMODE
 70
1
  9
$MEASUREMENT
 70
1
  9
$INSUNITS
 70
4
  0
ENDSEC
  0
SECTION
  2
CLASSES
  0
CLASS
  1
ACDBDICTIONARYWDFLT
  2
AcDbDictionaryWithDefault
  3
AutoCAD 2000
 90
0
 91
1
280
0
281
0
  0
CLASS
  1
ACDBPLACEHOLDER
  2
AcDbPlaceHolder
  3
AutoCAD 2000
 90
0
 91
1
280
0
281
0
  0
CLASS
  1
LAYOUT
  2
AcDbLayout
  3
AutoCAD 2000
 90
0
 91
0
280
0
281
0
  0
ENDSEC
  0
SECTION
  2
TABLES
  0
TABLE
  2
VPORT
  5
8
100
AcDbSymbolTable
 70
2
  0
VPORT
  5
1F4
100
AcDbSymbolTableRecord
100
AcDbViewportTableRecord
  2
*ACTIVE
 70
0
 10
0.0
 20
0.0
 11
1.0
 21
1.0
 12
46.440681323
 22
65.6803921569
 13
0.0
 23
0.0
 14
1.0
 24
1.0
 15
0.0
 25
0.0
 16
0.0
 26
0.0
 36
1.0
 17
0.0
 27
0.0
 37
0.0
 40
131.3607843137
 41
0.7070707071
 42
50.0
 43
0.0
 44
0.0
 50
0.0
 51
0.0
 71
0
 72
100
 73
1
 74
1
 75
0
 76
0
 77
0
 78
0
  0
ENDTAB
  0
TABLE
  2
LTYPE
  5
5
100
AcDbSymbolTable
 70
6
  0
LTYPE
  5
14
100
AcDbSymbolTableRecord
100
AcDbLinetypeTableRecord
  2
BYBLOCK
 70
0
  3

 72
65
 73
0
 40
0.0
  0
LTYPE
  5
15
100
AcDbSymbolTableRecord
100
AcDbLinetypeTableRecord
  2
BYLAYER
 70
0
  3

 72
65
 73
0
 40
0.0
  0
LTYPE
  5
16
100
AcDbSymbolTableRecord
100
AcDbLinetypeTableRecord
  2
CONTINUOUS
 70
64
  3
Solid line
 72
65
 73
0
 40
0.0
  0
LTYPE
  5
1F5
100
AcDbSymbolTableRecord
100
AcDbLinetypeTableRecord
  2
CENTER
 70
64
  3
____ _ ____ _ ____ _ ____ _ ____ _ ____ _ ____
 72
65
 73
4
 40
0.6
 49
0.375
 74
0
 49
-0.075
 74
0
 49
0.075
 74
0
 49
-0.075
 74
0
  0
LTYPE
  5
1F6
100
AcDbSymbolTableRecord
100
AcDbLinetypeTableRecord
  2
HIDDEN
 70
64
  3
- - - - - - - - - - - - - - - - - - - -
 72
65
 73
2
 40
0.2
 49
0.1
 74
0
 49
-0.1
 74
0
  0
LTYPE
  5
1F7
100
AcDbSymbolTableRecord
100
AcDbLinetypeTableRecord
  2
PHANTOM
 70
64
  3
_____ _ _ _____ _ _ _____ _ _ _____
 72
65
 73
6
 40
0.8
 49
0.45
 74
0
 49
-0.05
 74
0
 49
0.1
 74
0
 49
-0.05
 74
0
 49
0.1
 74
0
 49
-0.05
 74
0
  0
LTYPE
  5
1F8
100
AcDbSymbolTableRecord
100
AcDbLinetypeTableRecord
  2
DOT
 70
64
  3
. . . . . . . . . . . . . . . . . . . .
 72
65
 73
2
 40
0.2
 49
0.1
 74
0
 49
-0.1
 74
0
  0
LTYPE
  5
1F9
100
AcDbSymbolTableRecord
100
AcDbLinetypeTableRecord
  2
DASHED
 70
64
  3
- - - - - - - - - - - - - - - - - - - -
 72
65
 73
2
 40
0.2
 49
0.1
 74
0
 49
-0.1
 74
0
  0
ENDTAB
  0
TABLE
  2
LAYER
  5
2
100
AcDbSymbolTable
 70
36
  0
LAYER
  5
10
100
AcDbSymbolTableRecord
100
AcDbLayerTableRecord
  2
0
 70
0
 62
7
  6
CONTINUOUS
370
-3
390
F
  0
LAYER
  5
1FA
100
AcDbSymbolTableRecord
100
AcDbLayerTableRecord
  2
DEFAULT_1
 70
0
 62
7
  6
CENTER
370
-3
390
F
  0
LAYER
  5
1FB
100
AcDbSymbolTableRecord
100
AcDbLayerTableRecord
  2
DEFAULT_2
 70
0
 62
7
  6
HIDDEN
370
-3
390
F
  0
LAYER
  5
1FC
100
AcDbSymbolTableRecord
100
AcDbLayerTableRecord
  2
DEFAULT_3
 70
0
 62
7
  6
PHANTOM
370
-3
390
F
  0
LAYER
  5
1FD
100
AcDbSymbolTableRecord
100
AcDbLayerTableRecord
  2
00_COMPONENTS
 70
0
 62
7
  6
CONTINUOUS
370
-3
390
F
  0
LAYER
  5
1FE
100
AcDbSymbolTableRecord
100
AcDbLayerTableRecord
  2
01_1_DEFAULT_DATUMS
 70
0
 62
7
  6
CONTINUOUS
370
-3
390
F
  0
LAYER
  5
1FF
100
AcDbSymbolTableRecord
100
AcDbLayerTableRecord
  2
01_PLANES
 70
0
 62
7
  6
CONTINUOUS
370
-3
390
F
  0
LAYER
  5
200
100
AcDbSymbolTableRecord
100
AcDbLayerTableRecord
  2
02_COORD_SYS
 70
0
 62
7
  6
CONTINUOUS
370
-3
390
F
  0
LAYER
  5
201
100
AcDbSymbolTableRecord
100
AcDbLayerTableRecord
  2
03_AXES
 70
0
 62
7
  6
CONTINUOUS
370
-3
390
F
  0
LAYER
  5
202
100
AcDbSymbolTableRecord
100
AcDbLayerTableRecord
  2
04_POINTS
 70
0
 62
7
  6
CONTINUOUS
370
-3
390
F
  0
LAYER
  5
203
100
AcDbSymbolTableRecord
100
AcDbLayerTableRecord
  2
05_CURVES
 70
0
 62
7
  6
CONTINUOUS
370
-3
390
F
  0
LAYER
  5
204
100
AcDbSymbolTableRecord
100
AcDbLayerTableRecord
  2
06_SURFS
 70
0
 62
7
  6
CONTINUOUS
370
-3
390
F
  0
LAYER
  5
205
100
AcDbSymbolTableRecord
100
AcDbLayerTableRecord
  2
07_COSMETICS
 70
0
 62
7
  6
CONTINUOUS
370
-3
390
F
  0
LAYER
  5
206
100
AcDbSymbolTableRecord
100
AcDbLayerTableRecord
  2
10_NOTES
 70
0
 62
7
  6
CONTINUOUS
370
-3
390
F
  0
LAYER
  5
207
100
AcDbSymbolTableRecord
100
AcDbLayerTableRecord
  2
11_NOTES_PUB
 70
0
 62
7
  6
CONTINUOUS
370
-3
390
F
  0
LAYER
  5
208
100
AcDbSymbolTableRecord
100
AcDbLayerTableRecord
  2
13_REF_GTOL
 70
0
 62
7
  6
CONTINUOUS
370
-3
390
F
  0
LAYER
  5
209
100
AcDbSymbolTableRecord
100
AcDbLayerTableRecord
  2
16_MISC
 70
0
 62
7
  6
CONTINUOUS
370
-3
390
F
  0
LAYER
  5
20A
100
AcDbSymbolTableRecord
100
AcDbLayerTableRecord
  2
17_NO_PRINT
 70
0
 62
7
  6
CONTINUOUS
370
-3
390
F
  0
LAYER
  5
20B
100
AcDbSymbolTableRecord
100
AcDbLayerTableRecord
  2
18_DATUM_CAMS_JOINTS
 70
0
 62
7
  6
CONTINUOUS
370
-3
390
F
  0
LAYER
  5
20C
100
AcDbSymbolTableRecord
100
AcDbLayerTableRecord
  2
19_DATUM_FUNCTIONAL
 70
0
 62
7
  6
CONTINUOUS
370
-3
390
F
  0
LAYER
  5
20D
100
AcDbSymbolTableRecord
100
AcDbLayerTableRecord
  2
20_DATUM_KINEMATIC_SCHEME
 70
0
 62
7
  6
CONTINUOUS
370
-3
390
F
  0
ENDTAB
  0
TABLE
  2
STYLE
  5
3
100
AcDbSymbolTable
 70
1
  0
STYLE
  5
11
100
AcDbSymbolTableRecord
100
AcDbTextStyleTableRecord
  2
STANDARD
 70
0
 40
0.0
 41
1.0
 50
0.0
 71
0
 42
0.2
  3
ARIAL.TTF
  4

  0
STYLE
  5
20E
100
AcDbSymbolTableRecord
100
AcDbTextStyleTableRecord
  2
TEXTSTYLE_1
 70
0
 40
0.0
 41
0.8
 50
0.0
 71
0
 42
0.2
  3
gdt
  4

  0
ENDTAB
  0
TABLE
  2
VIEW
  5
6
100
AcDbSymbolTable
 70
0
  0
ENDTAB
  0
TABLE
  2
UCS
  5
7
100
AcDbSymbolTable
 70
0
  0
ENDTAB
  0
TABLE
  2
APPID
  5
9
100
AcDbSymbolTable
 70
1
  0
APPID
  5
20F
100
AcDbSymbolTableRecord
100
AcDbRegAppTableRecord
  2
ACAD
 70
0
  0
ENDTAB
  0
TABLE
  2
BLOCK_RECORD
  5
1
100
AcDbSymbolTable
 70
0
  0
BLOCK_RECORD
  5
210
100
AcDbSymbolTableRecord
100
AcDbBlockTableRecord
  2
*Model_Space
  0
BLOCK_RECORD
  5
211
100
AcDbSymbolTableRecord
100
AcDbBlockTableRecord
  2
*Paper_Space
  0
BLOCK_RECORD
  5
212
100
AcDbSymbolTableRecord
100
AcDbBlockTableRecord
  2
_FILLED
  0
ENDTAB
  0
TABLE
  2
DIMSTYLE
  5
A
100
AcDbSymbolTable
 70
1
100
AcDbDimStyleTable
 71
0
  0
DIMSTYLE
105
213
100
AcDbSymbolTableRecord
100
AcDbDimStyleTableRecord
  2
STANDARD
 70
0
  3

  4

 40
1.0
 41
1.1057305077
 42
1.0
 43
0.38
 44
1.0
 45
0.0
 46
0.0
 47
0.01
 48
0.01
140
1.5480227108
141
0.09
142
0.0
143
25.4
144
1.0
145
0.0
146
1.0
147
0.625
 71
1
 72
0
 73
0
 74
0
 75
0
 76
0
 77
1
 78
8
 79
2
170
0
171
1
172
0
173
0
174
0
175
0
176
0
177
0
178
0
270
2
179
2
271
2
272
2
273
2
274
2
275
0
280
0
281
0
282
0
283
1
284
8
285
0
286
0
287
3
288
0
340
11
278
46
341
212
342
212
343
212
344
212
  0
ENDTAB
  0
ENDSEC
  0
SECTION
  2
BLOCKS
  0
BLOCK
  5
20
100
AcDbEntity
  8
0
100
AcDbBlockBegin
  2
*Model_Space
 70
0
 10
0.0
 20
0.0
 30
0.0
  3
*Model_Space
  1

  0
ENDBLK
  5
21
100
AcDbEntity
  8
0
100
AcDbBlockEnd
  0
BLOCK
  5
1C
100
AcDbEntity
  8
0
100
AcDbBlockBegin
  2
*Paper_Space
 70
0
 10
0.0
 20
0.0
 30
0.0
  3
*Paper_Space
  1

  0
ENDBLK
  5
1D
100
AcDbEntity
  8
0
100
AcDbBlockEnd
  0
BLOCK
  5
214
100
AcDbEntity
  8
0
100
AcDbBlockBegin
  2
_FILLED
 70
64
 10
0.0
 20
0.0
  3
_FILLED
  1

  0
SOLID
  5
215
100
AcDbEntity
  8
0
  6
BYBLOCK
 62
0
100
AcDbTrace
 10
0.0
 20
0.0
 11
-1.0
 21
0.25
 12
-1.0
 22
-0.25
 13
-1.0
 23
-0.25
  0
ENDBLK
  5
216
100
AcDbEntity
  8
0
  6
BYBLOCK
 62
0
100
AcDbBlockEnd
  0
ENDSEC
  0
SECTION
  2
ENTITIES
  0
LINE
  5
217
100
AcDbEntity
  8
0
100
AcDbLine
 62
7
  6
BYLAYER
 10
10.8946682673
 20
80.0411764706
 11
10.8269558328
 21
79.8911764706
  0
LINE
  5
218
100
AcDbEntity
  8
0
100
AcDbLine
 62
7
  6
BYLAYER
 10
10.8946682673
 20
51.6411764706
 11
10.8269558328
 21
51.7911764706
  0
LINE
  5
219
100
AcDbEntity
  8
0
100
AcDbLine
 62
7
  6
BYLAYER
 10
10.8269558328
 20
51.791183044
 11
10.8269558328
 21
79.8912315617
  0
LINE
  5
21A
100
AcDbEntity
  8
0
100
AcDbLine
 62
7
  6
BYLAYER
 10
11.0269558328
 20
51.6411764706
 11
11.0269558328
 21
80.0411764706
  0
LINE
  5
21B
100
AcDbEntity
  8
0
100
AcDbLine
 62
7
  6
BYLAYER
 10
11.2269558328
 20
51.3409989171
 11
11.2269558328
 21
80.3410302644
  0
LINE
  5
21C
100
AcDbEntity
  8
0
100
AcDbLine
 62
7
  6
BYLAYER
 10
11.7269558328
 20
50.8411764706
 11
11.7269558328
 21
80.8411764706
  0
LINE
  5
21D
100
AcDbEntity
  8
0
100
AcDbLine
 62
7
  6
BYLAYER
 10
15.8269558328
 20
83.8411764706
 11
16.4949379029
 21
86.3341194947
  0
LINE
  5
21E
100
AcDbEntity
  8
0
100
AcDbLine
 62
7
  6
BYLAYER
 10
11.2269558328
 20
80.3411764706
 11
11.7269558328
 21
80.8411764706
  0
LINE
  5
21F
100
AcDbEntity
  8
0
100
AcDbLine
 62
7
  6
BYLAYER
 10
11.2269558328
 20
51.3411764706
 11
11.7269558328
 21
50.8411764706
  0
LINE
  5
220
100
AcDbEntity
  8
0
100
AcDbLine
 62
7
  6
BYLAYER
 10
15.8269558328
 20
47.8411764706
 11
16.4949379029
 21
45.3482334464
  0
LINE
  5
221
100
AcDbEntity
  8
0
100
AcDbLine
 62
7
  6
BYLAYER
 10
15.8269558328
 20
47.8411825431
 11
15.8269558328
 21
83.8411703981
  0
LINE
  5
222
100
AcDbEntity
  8
0
100
AcDbLine
 62
7
  6
BYLAYER
 10
20.8269558328
 20
83.8411703981
 11
20.8269558328
 21
47.8411825431
  0
LINE
  5
223
100
AcDbEntity
  8
0
100
AcDbLine
 62
7
  6
BYLAYER
 10
24.8269558328
 20
83.8411764706
 11
25.4949379029
 21
86.3341194947
  0
LINE
  5
224
100
AcDbEntity
  8
0
100
AcDbLine
 62
7
  6
BYLAYER
 10
24.8269558328
 20
47.8411764706
 11
25.4949379029
 21
45.3482334464
  0
LINE
  5
225
100
AcDbEntity
  8
0
100
AcDbLine
 62
7
  6
BYLAYER
 10
24.8269558328
 20
47.8411825431
 11
24.8269558328
 21
83.8411703981
  0
LINE
  5
226
100
AcDbEntity
  8
0
100
AcDbLine
 62
7
  6
BYLAYER
 10
20.8269558328
 20
47.8411764706
 11
20.1589737628
 21
45.3482334464
  0
LINE
  5
227
100
AcDbEntity
  8
0
100
AcDbLine
 62
7
  6
BYLAYER
 10
20.1465860464
 20
45.3065667798
 11
16.5073256193
 21
45.3065667798
  0
LINE
  5
228
100
AcDbEntity
  8
0
100
AcDbLine
 62
7
  6
BYLAYER
 10
25.5073255905
 20
45.3065667798
 11
29.1465860752
 21
45.3065667798
  0
LINE
  5
229
100
AcDbEntity
  8
0
100
AcDbLine
 62
7
  6
BYLAYER
 10
20.1721952507
 20
45.4065667798
 11
16.4817164149
 21
45.4065667798
  0
LINE
  5
22A
100
AcDbEntity
  8
0
100
AcDbLine
 62
7
  6
BYLAYER
 10
25.4817164232
 20
45.4065667798
 11
29.1721952425
 21
45.4065667798
  0
LINE
  5
22B
100
AcDbEntity
  8
0
100
AcDbLine
 62
7
  6
BYLAYER
 10
20.8269558328
 20
83.8411764706
 11
20.1589737628
 21
86.3341194947
  0
LINE
  5
22C
100
AcDbEntity
  8
0
100
AcDbLine
 62
7
  6
BYLAYER
 10
29.8269558328
 20
83.8411703981
 11
29.8269558328
 21
47.8411825431
  0
LINE
  5
22D
100
AcDbEntity
  8
0
100
AcDbLine
 62
7
  6
BYLAYER
 10
11.7269558329
 20
50.8411764706
 11
15.8269558328
 21
50.8411764706
  0
LINE
  5
22E
100
AcDbEntity
  8
0
100
AcDbLine
 62
7
  6
BYLAYER
 10
20.8269558328
 20
50.8411764706
 11
24.8269558328
 21
50.8411764706
  0
LINE
  5
22F
100
AcDbEntity
  8
0
100
AcDbLine
 62
7
  6
BYLAYER
 10
29.8269558328
 20
50.8411764706
 11
61.8769558328
 21
50.8411764706
  0
LINE
  5
230
100
AcDbEntity
  8
0
100
AcDbLine
 62
7
  6
BYLAYER
 10
62.6269558328
 20
51.5911764706
 11
66.3269558328
 21
51.5911764706
  0
LINE
  5
231
100
AcDbEntity
  8
0
100
AcDbLine
 62
7
  6
BYLAYER
 10
66.4269558328
 20
51.5911764706
 11
69.2269558328
 21
51.5911764706
  0
LINE
  5
232
100
AcDbEntity
  8
0
100
AcDbLine
 62
7
  6
BYLAYER
 10
10.8946394545
 20
51.6411764706
 11
11.2269558328
 21
51.6411764706
  0
LINE
  5
233
100
AcDbEntity
  8
0
100
AcDbLine
 62
7
  6
BYLAYER
 10
66.3269558328
 20
51.6411764706
 11
66.4269558328
 21
51.6411764706
  0
LINE
  5
234
100
AcDbEntity
  8
0
100
AcDbLine
 62
7
  6
BYLAYER
 10
29.8269558328
 20
47.8411764706
 11
29.1589737628
 21
45.3482334464
  0
LINE
  5
235
100
AcDbEntity
  8
0
100
AcDbLine
 62
7
  6
BYLAYER
 10
29.8269558328
 20
83.8411764706
 11
29.1589737628
 21
86.3341194947
  0
LINE
  5
236
100
AcDbEntity
  8
0
100
AcDbLine
 62
7
  6
BYLAYER
 10
72.4616854683
 20
59.6262811845
 11
69.5922261973
 21
59.120318095
  0
LINE
  5
237
100
AcDbEntity
  8
0
100
AcDbLine
 62
7
  6
BYLAYER
 10
20.172195261
 20
55.0988716252
 11
16.4817164047
 21
55.0988716252
  0
LINE
  5
238
100
AcDbEntity
  8
0
100
AcDbLine
 62
7
  6
BYLAYER
 10
25.4817163551
 20
55.0988716252
 11
29.1721953106
 21
55.0988716252
  0
LINE
  5
239
100
AcDbEntity
  8
0
100
AcDbLine
 62
7
  6
BYLAYER
 10
20.1465860554
 20
55.9488716252
 11
16.5073256103
 21
55.9488716252
  0
LINE
  5
23A
100
AcDbEntity
  8
0
100
AcDbLine
 62
7
  6
BYLAYER
 10
25.5073256233
 20
55.9488716252
 11
29.1465860423
 21
55.9488716252
  0
LINE
  5
23B
100
AcDbEntity
  8
0
100
AcDbLine
 62
7
  6
BYLAYER
 10
74.437423024
 20
60.7987523396
 11
72.8164886416
 21
60.7138027683
  0
LINE
  5
23C
100
AcDbEntity
  8
0
100
AcDbLine
 62
7
  6
BYLAYER
 10
84.6269558328
 20
61.2038697357
 11
74.6269558328
 21
61.2038697357
  0
LINE
  5
23D
100
AcDbEntity
  8
0
100
AcDbLine
 62
7
  6
BYLAYER
 10
84.6269558328
 20
63.2038697357
 11
74.6269558328
 21
63.2038697357
  0
LINE
  5
23E
100
AcDbEntity
  8
0
100
AcDbLine
 62
7
  6
BYLAYER
 10
74.437423024
 20
63.6089872097
 11
72.8164886416
 21
63.6939367811
  0
LINE
  5
23F
100
AcDbEntity
  8
0
100
AcDbLine
 62
7
  6
BYLAYER
 10
20.1465860423
 20
75.733481316
 11
16.5073256234
 21
75.733481316
  0
LINE
  5
240
100
AcDbEntity
  8
0
100
AcDbLine
 62
7
  6
BYLAYER
 10
25.5073256102
 20
75.733481316
 11
29.1465860554
 21
75.733481316
  0
LINE
  5
241
100
AcDbEntity
  8
0
100
AcDbLine
 62
7
  6
BYLAYER
 10
20.1721952507
 20
76.583481316
 11
16.4817164149
 21
76.583481316
  0
LINE
  5
242
100
AcDbEntity
  8
0
100
AcDbLine
 62
7
  6
BYLAYER
 10
25.4817164232
 20
76.5834813159
 11
29.1721952425
 21
76.5834813159
  0
LINE
  5
243
100
AcDbEntity
  8
0
100
AcDbLine
 62
7
  6
BYLAYER
 10
72.4616854683
 20
72.0560717567
 11
69.5922261973
 21
72.5620348462
  0
LINE
  5
244
100
AcDbEntity
  8
0
100
AcDbLine
 62
7
  6
BYLAYER
 10
61.8769558328
 20
80.8411764706
 11
61.8769558328
 21
50.8411764706
  0
LINE
  5
245
100
AcDbEntity
  8
0
100
AcDbLine
 62
7
  6
BYLAYER
 10
10.8946394545
 20
80.0411764706
 11
11.2269558328
 21
80.0411764706
  0
LINE
  5
246
100
AcDbEntity
  8
0
100
AcDbLine
 62
7
  6
BYLAYER
 10
66.3269558328
 20
80.0411764706
 11
66.4269558328
 21
80.0411764706
  0
LINE
  5
247
100
AcDbEntity
  8
0
100
AcDbLine
 62
7
  6
BYLAYER
 10
62.6269558328
 20
80.0911764706
 11
66.3269558328
 21
80.0911764706
  0
LINE
  5
248
100
AcDbEntity
  8
0
100
AcDbLine
 62
7
  6
BYLAYER
 10
66.4269558328
 20
80.0911764706
 11
69.2269558328
 21
80.0911764706
  0
LINE
  5
249
100
AcDbEntity
  8
0
100
AcDbLine
 62
7
  6
BYLAYER
 10
62.6269558328
 20
51.5911764706
 11
62.6269558328
 21
80.0911764706
  0
LINE
  5
24A
100
AcDbEntity
  8
0
100
AcDbLine
 62
7
  6
BYLAYER
 10
11.7269558329
 20
80.8411764706
 11
15.8269558328
 21
80.8411764706
  0
LINE
  5
24B
100
AcDbEntity
  8
0
100
AcDbLine
 62
7
  6
BYLAYER
 10
20.8269558328
 20
80.8411764706
 11
24.8269558328
 21
80.8411764706
  0
LINE
  5
24C
100
AcDbEntity
  8
0
100
AcDbLine
 62
7
  6
BYLAYER
 10
29.8269558328
 20
80.8411764706
 11
61.8769558328
 21
80.8411764706
  0
LINE
  5
24D
100
AcDbEntity
  8
0
100
AcDbLine
 62
7
  6
BYLAYER
 10
66.3269558328
 20
80.0911928937
 11
66.3269558328
 21
51.5911600475
  0
LINE
  5
24E
100
AcDbEntity
  8
0
100
AcDbLine
 62
7
  6
BYLAYER
 10
66.4269558328
 20
51.5911584468
 11
66.4269558328
 21
80.0911382439
  0
LINE
  5
24F
100
AcDbEntity
  8
0
100
AcDbLine
 62
7
  6
BYLAYER
 10
69.2269558328
 20
80.0911764706
 11
69.2269558328
 21
51.5911764706
  0
LINE
  5
250
100
AcDbEntity
  8
0
100
AcDbLine
 62
7
  6
BYLAYER
 10
69.4269558328
 20
79.8911927184
 11
69.4269558328
 21
51.7911602228
  0
LINE
  5
251
100
AcDbEntity
  8
0
100
AcDbLine
 62
7
  6
BYLAYER
 10
69.5922261973
 20
59.120318095
 11
69.5922261973
 21
72.5620348462
  0
LINE
  5
252
100
AcDbEntity
  8
0
100
AcDbLine
 62
7
  6
BYLAYER
 10
62.6269558328
 20
51.5911764706
 11
61.8769558328
 21
50.8411764706
  0
LINE
  5
253
100
AcDbEntity
  8
0
100
AcDbLine
 62
7
  6
BYLAYER
 10
20.172195261
 20
86.2757861614
 11
16.4817164047
 21
86.2757861614
  0
LINE
  5
254
100
AcDbEntity
  8
0
100
AcDbLine
 62
7
  6
BYLAYER
 10
25.4817163551
 20
86.2757861614
 11
29.1721953106
 21
86.2757861614
  0
LINE
  5
255
100
AcDbEntity
  8
0
100
AcDbLine
 62
7
  6
BYLAYER
 10
20.1465860446
 20
86.3757861614
 11
16.5073256211
 21
86.3757861614
  0
LINE
  5
256
100
AcDbEntity
  8
0
100
AcDbLine
 62
7
  6
BYLAYER
 10
25.5073256264
 20
86.3757861614
 11
29.1465860393
 21
86.3757861614
  0
LINE
  5
257
100
AcDbEntity
  8
0
100
AcDbLine
 62
7
  6
BYLAYER
 10
62.6269558328
 20
80.0911764706
 11
61.8769558328
 21
80.8411764706
  0
LINE
  5
258
100
AcDbEntity
  8
0
100
AcDbLine
 62
7
  6
BYLAYER
 10
72.4616854683
 20
72.0560717567
 11
72.4616854683
 21
59.6262811845
  0
LINE
  5
259
100
AcDbEntity
  8
0
100
AcDbLine
 62
7
  6
BYLAYER
 10
72.6269558328
 20
71.8589588695
 11
72.6269558328
 21
59.8235476759
  0
LINE
  5
25A
100
AcDbEntity
  8
0
100
AcDbLine
 62
7
  6
BYLAYER
 10
72.8164886416
 20
60.7138027683
 11
72.8164886416
 21
63.6939367811
  0
LINE
  5
25B
100
AcDbEntity
  8
0
100
AcDbLine
 62
7
  6
BYLAYER
 10
74.437423024
 20
63.6089872097
 11
74.437423024
 21
60.7987523396
  0
LINE
  5
25C
100
AcDbEntity
  8
0
100
AcDbLine
 62
7
  6
BYLAYER
 10
74.6269558328
 20
63.4091083906
 11
74.6269558328
 21
60.9986271732
  0
LINE
  5
25D
100
AcDbEntity
  8
0
100
AcDbLine
 62
7
  6
BYLAYER
 10
84.6269558328
 20
63.2038577847
 11
84.6269558328
 21
61.2038816867
  0
ARC
  5
25E
100
AcDbEntity
  8
0
100
AcDbCircle
 62
7
  6
BYLAYER
 10
-31.0068726686
 20
77.7000422952
 40
51.1912463368
100
AcDbArc
 50
357.7983857604
 51
358.7501905129
  0
ARC
  5
25F
100
AcDbEntity
  8
0
100
AcDbCircle
 62
7
  6
BYLAYER
 10
67.6607843343
 20
77.7000422952
 40
51.1912463368
100
AcDbArc
 50
181.2498094871
 51
182.2016142396
  0
ARC
  5
260
100
AcDbEntity
  8
0
100
AcDbCircle
 62
7
  6
BYLAYER
 10
76.6607843343
 20
77.7000422928
 40
51.1912463367
100
AcDbArc
 50
181.2498094844
 51
182.2016142369
  0
ARC
  5
261
100
AcDbEntity
  8
0
100
AcDbCircle
 62
7
  6
BYLAYER
 10
-22.0068726687
 20
77.7000422928
 40
51.1912463369
100
AcDbArc
 50
357.7983857631
 51
358.7501905156
  0
ARC
  5
262
100
AcDbEntity
  8
0
100
AcDbCircle
 62
7
  6
BYLAYER
 10
-31.006855294
 20
53.9823075645
 40
51.1912290934
100
AcDbArc
 50
1.2498133579
 51
2.201618433
  0
ARC
  5
263
100
AcDbEntity
  8
0
100
AcDbCircle
 62
7
  6
BYLAYER
 10
67.6607669596
 20
53.9823075645
 40
51.1912290933
100
AcDbArc
 50
177.798381567
 51
178.7501866421
  0
ARC
  5
264
100
AcDbEntity
  8
0
100
AcDbCircle
 62
7
  6
BYLAYER
 10
76.6607669597
 20
53.9823075687
 40
51.1912290933
100
AcDbArc
 50
177.7983815717
 51
178.7501866468
  0
ARC
  5
265
100
AcDbEntity
  8
0
100
AcDbCircle
 62
7
  6
BYLAYER
 10
-22.0068552939
 20
53.9823075687
 40
51.1912290931
100
AcDbArc
 50
1.2498133532
 51
2.2016184283
  0
ARC
  5
266
100
AcDbEntity
  8
0
100
AcDbCircle
 62
7
  6
BYLAYER
 10
17.2744078904
 20
86.1250525016
 40
0.8070208028
100
AcDbArc
 50
161.8991546133
 51
164.985693276
  0
ARC
  5
267
100
AcDbEntity
  8
0
100
AcDbCircle
 62
7
  6
BYLAYER
 10
19.3795037752
 20
86.1250525016
 40
0.8070208028
100
AcDbArc
 50
15.014306724
 51
18.1008453867
  0
ARC
  5
268
100
AcDbEntity
  8
0
100
AcDbCircle
 62
7
  6
BYLAYER
 10
19.379515797
 20
45.5572961603
 40
0.8070080756
100
AcDbArc
 50
341.8991788939
 51
344.985765474
  0
ARC
  5
269
100
AcDbEntity
  8
0
100
AcDbCircle
 62
7
  6
BYLAYER
 10
17.2743958687
 20
45.5572961603
 40
0.8070080756
100
AcDbArc
 50
195.014234526
 51
198.1008211062
  0
ARC
  5
26A
100
AcDbEntity
  8
0
100
AcDbCircle
 62
7
  6
BYLAYER
 10
28.3806112525
 20
86.1253716588
 40
0.8058689752
100
AcDbArc
 50
15.01277833
 51
18.1037405131
  0
ARC
  5
26B
100
AcDbEntity
  8
0
100
AcDbCircle
 62
7
  6
BYLAYER
 10
26.2733004132
 20
86.1253716588
 40
0.8058689752
100
AcDbArc
 50
161.896259487
 51
164.98722167
  0
ARC
  5
26C
100
AcDbEntity
  8
0
100
AcDbCircle
 62
7
  6
BYLAYER
 10
26.2732884289
 20
45.556977015
 40
0.8058562873
100
AcDbArc
 50
195.0127061284
 51
198.1037162164
  0
ARC
  5
26D
100
AcDbEntity
  8
0
100
AcDbCircle
 62
7
  6
BYLAYER
 10
28.3806232367
 20
45.556977015
 40
0.8058562873
100
AcDbArc
 50
341.8962837836
 51
344.9872938716
  0
ARC
  5
26E
100
AcDbEntity
  8
0
100
AcDbCircle
 62
7
  6
BYLAYER
 10
26.2356905175
 20
86.13556684
 40
0.7669018813
100
AcDbArc
 50
164.9950618848
 51
169.4648517367
  0
ARC
  5
26F
100
AcDbEntity
  8
0
100
AcDbCircle
 62
7
  6
BYLAYER
 10
28.41822303
 20
45.5467849968
 40
0.7668997706
100
AcDbArc
 50
344.9951050363
 51
349.4649063309
  0
ARC
  5
270
100
AcDbEntity
  8
0
100
AcDbCircle
 62
7
  6
BYLAYER
 10
19.4202600625
 20
86.1360220997
 40
0.7648141018
100
AcDbArc
 50
10.5295451768
 51
15.0115516804
  0
ARC
  5
271
100
AcDbEntity
  8
0
100
AcDbCircle
 62
7
  6
BYLAYER
 10
17.2336497174
 20
45.546329737
 40
0.764811987
100
AcDbArc
 50
190.5294904665
 51
195.0115084996
  0
ARC
  5
272
100
AcDbEntity
  8
0
100
AcDbCircle
 62
7
  6
BYLAYER
 10
26.2273575525
 20
45.5448968088
 40
0.7583639647
100
AcDbArc
 50
190.5099256442
 51
195.0300629886
  0
ARC
  5
273
100
AcDbEntity
  8
0
100
AcDbCircle
 62
7
  6
BYLAYER
 10
28.4265620124
 20
86.1374572523
 40
0.7583560526
100
AcDbArc
 50
10.5099504869
 51
15.0301358916
  0
ARC
  5
274
100
AcDbEntity
  8
0
100
AcDbCircle
 62
7
  6
BYLAYER
 10
19.4278153392
 20
45.5446177381
 40
0.7570729951
100
AcDbArc
 50
344.9655714693
 51
349.4934295645
  0
ARC
  5
275
100
AcDbEntity
  8
0
100
AcDbCircle
 62
7
  6
BYLAYER
 10
17.2260884432
 20
86.1377363196
 40
0.7570650992
100
AcDbArc
 50
164.9654984603
 51
169.4934046824
  0
ARC
  5
276
100
AcDbEntity
  8
0
100
AcDbCircle
 62
7
  6
BYLAYER
 10
74.4269558328
 20
60.9984782466
 40
0.2
100
AcDbArc
 50
273.0
 51
359.9999999984
  0
ARC
  5
277
100
AcDbEntity
  8
0
100
AcDbCircle
 62
7
  6
BYLAYER
 10
74.4269558328
 20
63.4092613028
 40
0.2
100
AcDbArc
 50
0.0
 51
87.0
  0
ARC
  5
278
100
AcDbEntity
  8
0
100
AcDbCircle
 62
7
  6
BYLAYER
 10
72.8269558328
 20
63.893662688
 40
0.2
100
AcDbArc
 50
180.0
 51
267.0
  0
ARC
  5
279
100
AcDbEntity
  8
0
100
AcDbCircle
 62
7
  6
BYLAYER
 10
72.8269558328
 20
60.5140768614
 40
0.2
100
AcDbArc
 50
93.0
 51
180.0
  0
ARC
  5
27A
100
AcDbEntity
  8
0
100
AcDbCircle
 62
7
  6
BYLAYER
 10
72.4269558328
 20
59.8232427351
 40
0.2
100
AcDbArc
 50
280.0
 51
360.0
  0
ARC
  5
27B
100
AcDbEntity
  8
0
100
AcDbCircle
 62
7
  6
BYLAYER
 10
72.4269558328
 20
71.8591102061
 40
0.2
100
AcDbArc
 50
0.0
 51
80.0
  0
ARC
  5
27C
100
AcDbEntity
  8
0
100
AcDbCircle
 62
7
  6
BYLAYER
 10
69.6269558328
 20
58.9233565443
 40
0.2
100
AcDbArc
 50
100.0
 51
180.0
  0
ARC
  5
27D
100
AcDbEntity
  8
0
100
AcDbCircle
 62
7
  6
BYLAYER
 10
69.6269558328
 20
72.7589963968
 40
0.2
100
AcDbArc
 50
180.0
 51
260.0
  0
ARC
  5
27E
100
AcDbEntity
  8
0
100
AcDbCircle
 62
7
  6
BYLAYER
 10
69.2269558328
 20
51.7911764706
 40
0.2
100
AcDbArc
 50
270.0
 51
360.0
  0
ARC
  5
27F
100
AcDbEntity
  8
0
100
AcDbCircle
 62
7
  6
BYLAYER
 10
69.2269558328
 20
79.8911764706
 40
0.2
100
AcDbArc
 50
0.0
 51
90.0
  0
SPLINE
  5
280
100
AcDbEntity
  8
0
100
AcDbSpline
 62
7
  6
BYLAYER
 70
0
 71
3
 72
10
 73
6
 74
0
 42
0.0000001
 43
0.0000001
 44
0.0000000001
 40
0.0
 40
0.0
 40
0.0
 40
0.0
 40
0.5030296258
 40
0.7519752992
 40
1.0
 40
1.0
 40
1.0
 40
1.0
 10
20.172195261
 20
86.2757861614
 30
0.0
 10
20.3745715937
 20
85.4792461506
 30
0.0
 10
20.6230733032
 20
84.2726035117
 30
0.0
 10
20.7973548969
 20
82.647122305
 30
0.0
 10
20.8269558846
 20
81.8348525194
 30
0.0
 10
20.8269558068
 20
81.429631242
 30
0.0
  0
SPLINE
  5
281
100
AcDbEntity
  8
0
100
AcDbSpline
 62
7
  6
BYLAYER
 70
0
 71
3
 72
10
 73
6
 74
0
 42
0.0000001
 43
0.0000001
 44
0.0000000001
 40
0.0
 40
0.0
 40
0.0
 40
0.0
 40
0.2480246942
 40
0.4969703782
 40
1.0
 40
1.0
 40
1.0
 40
1.0
 10
20.8269558068
 20
81.429631242
 30
0.0
 10
20.8269557641
 20
81.02441038
 30
0.0
 10
20.7973563084
 20
80.2121413289
 30
0.0
 10
20.6230722387
 20
78.586661974
 30
0.0
 10
20.3745713774
 20
77.3800205231
 30
0.0
 10
20.1721952425
 20
76.5834813159
 30
0.0
  0
SPLINE
  5
282
100
AcDbEntity
  8
0
100
AcDbSpline
 62
7
  6
BYLAYER
 70
0
 71
3
 72
10
 73
6
 74
0
 42
0.0000001
 43
0.0000001
 44
0.0000000001
 40
0.0
 40
0.0
 40
0.0
 40
0.0
 40
0.4999744402
 40
0.7499873586
 40
1.0
 40
1.0
 40
1.0
 40
1.0
 10
20.1465860423
 20
75.733481316
 30
0.0
 10
20.3582234527
 20
74.0935506547
 30
0.0
 10
20.6159333887
 20
71.6247362691
 30
0.0
 10
20.7962494419
 20
68.3218993359
 30
0.0
 10
20.8269558328
 20
66.6680257725
 30
0.0
 10
20.8269558328
 20
65.8411764706
 30
0.0
  0
SPLINE
  5
283
100
AcDbEntity
  8
0
100
AcDbSpline
 62
7
  6
BYLAYER
 70
0
 71
3
 72
10
 73
6
 74
0
 42
0.0000001
 43
0.0000001
 44
0.0000000001
 40
0.0
 40
0.0
 40
0.0
 40
0.0
 40
0.2500126433
 40
0.5000255624
 40
1.0
 40
1.0
 40
1.0
 40
1.0
 10
20.8269558328
 20
65.8411764706
 30
0.0
 10
20.8269558328
 20
65.0143271626
 30
0.0
 10
20.7962494465
 20
63.3604535903
 30
0.0
 10
20.6159333854
 20
60.0576166574
 30
0.0
 10
20.3582234516
 20
57.5888022778
 30
0.0
 10
20.1465860423
 20
55.9488716252
 30
0.0
  0
SPLINE
  5
284
100
AcDbEntity
  8
0
100
AcDbSpline
 62
7
  6
BYLAYER
 70
0
 71
3
 72
10
 73
6
 74
0
 42
0.0000001
 43
0.0000001
 44
0.0000000001
 40
0.0
 40
0.0
 40
0.0
 40
0.0
 40
0.5030296258
 40
0.7519752992
 40
1.0
 40
1.0
 40
1.0
 40
1.0
 10
20.172195261
 20
55.0988716252
 30
0.0
 10
20.3745715937
 20
54.3023316145
 30
0.0
 10
20.6230733032
 20
53.0956889755
 30
0.0
 10
20.7973548969
 20
51.4702077688
 30
0.0
 10
20.8269558846
 20
50.6579379832
 30
0.0
 10
20.8269558068
 20
50.2527167057
 30
0.0
  0
SPLINE
  5
285
100
AcDbEntity
  8
0
100
AcDbSpline
 62
7
  6
BYLAYER
 70
0
 71
3
 72
10
 73
6
 74
0
 42
0.0000001
 43
0.0000001
 44
0.0000000001
 40
0.0
 40
0.0
 40
0.0
 40
0.0
 40
0.4999744402
 40
0.7499873586
 40
1.0
 40
1.0
 40
1.0
 40
1.0
 10
16.5073256234
 20
55.9488716252
 30
0.0
 10
16.2956882129
 20
57.5888022865
 30
0.0
 10
16.037978277
 20
60.0576166721
 30
0.0
 10
15.8576622238
 20
63.3604536053
 30
0.0
 10
15.8269558328
 20
65.0143271687
 30
0.0
 10
15.8269558328
 20
65.8411764706
 30
0.0
  0
SPLINE
  5
286
100
AcDbEntity
  8
0
100
AcDbSpline
 62
7
  6
BYLAYER
 70
0
 71
3
 72
10
 73
6
 74
0
 42
0.0000001
 43
0.0000001
 44
0.0000000001
 40
0.0
 40
0.0
 40
0.0
 40
0.0
 40
0.2480247023
 40
0.4969703765
 40
1.0
 40
1.0
 40
1.0
 40
1.0
 10
15.8269558588
 20
50.2527167057
 30
0.0
 10
15.8269557811
 20
50.6579379858
 30
0.0
 10
15.8565567649
 20
51.4702077755
 30
0.0
 10
16.0308383652
 20
53.0956889817
 30
0.0
 10
16.2793400729
 20
54.3023316181
 30
0.0
 10
16.4817164047
 20
55.0988716252
 30
0.0
  0
SPLINE
  5
287
100
AcDbEntity
  8
0
100
AcDbSpline
 62
7
  6
BYLAYER
 70
0
 71
3
 72
10
 73
6
 74
0
 42
0.0000001
 43
0.0000001
 44
0.0000000001
 40
0.0
 40
0.0
 40
0.0
 40
0.0
 40
0.2500126433
 40
0.5000255624
 40
1.0
 40
1.0
 40
1.0
 40
1.0
 10
15.8269558328
 20
65.8411764706
 30
0.0
 10
15.8269558328
 20
66.6680257786
 30
0.0
 10
15.8576622192
 20
68.3218993509
 30
0.0
 10
16.0379782803
 20
71.6247362838
 30
0.0
 10
16.2956882141
 20
74.0935506633
 30
0.0
 10
16.5073256234
 20
75.733481316
 30
0.0
  0
SPLINE
  5
288
100
AcDbEntity
  8
0
100
AcDbSpline
 62
7
  6
BYLAYER
 70
0
 71
3
 72
10
 73
6
 74
0
 42
0.0000001
 43
0.0000001
 44
0.0000000001
 40
0.0
 40
0.0
 40
0.0
 40
0.0
 40
0.5030296241
 40
0.7519753073
 40
1.0
 40
1.0
 40
1.0
 40
1.0
 10
16.4817164232
 20
76.5834813159
 30
0.0
 10
16.2793402874
 20
77.3800205267
 30
0.0
 10
16.0308394248
 20
78.5866619801
 30
0.0
 10
15.8565553608
 20
80.2121413354
 30
0.0
 10
15.8269559016
 20
81.0244103825
 30
0.0
 10
15.8269558588
 20
81.4296312419
 30
0.0
  0
SPLINE
  5
289
100
AcDbEntity
  8
0
100
AcDbSpline
 62
7
  6
BYLAYER
 70
0
 71
3
 72
10
 73
6
 74
0
 42
0.0000001
 43
0.0000001
 44
0.0000000001
 40
0.0
 40
0.0
 40
0.0
 40
0.0
 40
0.2480247023
 40
0.4969703765
 40
1.0
 40
1.0
 40
1.0
 40
1.0
 10
15.8269558588
 20
81.4296312419
 30
0.0
 10
15.8269557811
 20
81.834852522
 30
0.0
 10
15.8565567649
 20
82.6471223117
 30
0.0
 10
16.0308383652
 20
84.2726035178
 30
0.0
 10
16.2793400729
 20
85.4792461543
 30
0.0
 10
16.4817164047
 20
86.2757861614
 30
0.0
  0
SPLINE
  5
28A
100
AcDbEntity
  8
0
100
AcDbSpline
 62
7
  6
BYLAYER
 70
0
 71
3
 72
10
 73
6
 74
0
 42
0.0000001
 43
0.0000001
 44
0.0000000001
 40
0.0
 40
0.0
 40
0.0
 40
0.0
 40
0.2480246942
 40
0.4969703782
 40
1.0
 40
1.0
 40
1.0
 40
1.0
 10
20.8269558068
 20
50.2527167057
 30
0.0
 10
20.8269557641
 20
49.8474958438
 30
0.0
 10
20.7973563084
 20
49.0352267927
 30
0.0
 10
20.6230722387
 20
47.4097474378
 30
0.0
 10
20.3745713774
 20
46.2031059869
 30
0.0
 10
20.1721952425
 20
45.4065667798
 30
0.0
  0
SPLINE
  5
28B
100
AcDbEntity
  8
0
100
AcDbSpline
 62
7
  6
BYLAYER
 70
0
 71
3
 72
10
 73
6
 74
0
 42
0.0000001
 43
0.0000001
 44
0.0000000001
 40
0.0
 40
0.0
 40
0.0
 40
0.0
 40
0.5030296241
 40
0.7519753073
 40
1.0
 40
1.0
 40
1.0
 40
1.0
 10
16.4817164232
 20
45.4065667798
 30
0.0
 10
16.2793402873
 20
46.2031059905
 30
0.0
 10
16.0308394248
 20
47.409747444
 30
0.0
 10
15.8565553608
 20
49.0352267992
 30
0.0
 10
15.8269559016
 20
49.8474958463
 30
0.0
 10
15.8269558588
 20
50.2527167057
 30
0.0
  0
SPLINE
  5
28C
100
AcDbEntity
  8
0
100
AcDbSpline
 62
7
  6
BYLAYER
 70
0
 71
3
 72
10
 73
6
 74
0
 42
0.0000001
 43
0.0000001
 44
0.0000000001
 40
0.0
 40
0.0
 40
0.0
 40
0.0
 40
0.5030296258
 40
0.7519752992
 40
1.0
 40
1.0
 40
1.0
 40
1.0
 10
29.172195261
 20
86.2757861614
 30
0.0
 10
29.3745715936
 20
85.4792461506
 30
0.0
 10
29.6230733032
 20
84.2726035117
 30
0.0
 10
29.797354897
 20
82.647122305
 30
0.0
 10
29.8269558845
 20
81.8348525194
 30
0.0
 10
29.8269558068
 20
81.4296312419
 30
0.0
  0
SPLINE
  5
28D
100
AcDbEntity
  8
0
100
AcDbSpline
 62
7
  6
BYLAYER
 70
0
 71
3
 72
10
 73
6
 74
0
 42
0.0000001
 43
0.0000001
 44
0.0000000001
 40
0.0
 40
0.0
 40
0.0
 40
0.0
 40
0.4999744402
 40
0.7499873586
 40
1.0
 40
1.0
 40
1.0
 40
1.0
 10
29.1465860423
 20
75.733481316
 30
0.0
 10
29.3582234528
 20
74.0935506547
 30
0.0
 10
29.6159333887
 20
71.6247362691
 30
0.0
 10
29.7962494419
 20
68.3218993359
 30
0.0
 10
29.8269558328
 20
66.6680257725
 30
0.0
 10
29.8269558328
 20
65.8411764706
 30
0.0
  0
SPLINE
  5
28E
100
AcDbEntity
  8
0
100
AcDbSpline
 62
7
  6
BYLAYER
 70
0
 71
3
 72
10
 73
6
 74
0
 42
0.0000001
 43
0.0000001
 44
0.0000000001
 40
0.0
 40
0.0
 40
0.0
 40
0.0
 40
0.2480246942
 40
0.4969703782
 40
1.0
 40
1.0
 40
1.0
 40
1.0
 10
29.8269558068
 20
81.4296312419
 30
0.0
 10
29.826955764
 20
81.02441038
 30
0.0
 10
29.7973563084
 20
80.2121413289
 30
0.0
 10
29.6230722387
 20
78.586661974
 30
0.0
 10
29.3745713774
 20
77.3800205231
 30
0.0
 10
29.1721952425
 20
76.5834813159
 30
0.0
  0
SPLINE
  5
28F
100
AcDbEntity
  8
0
100
AcDbSpline
 62
7
  6
BYLAYER
 70
0
 71
3
 72
10
 73
6
 74
0
 42
0.0000001
 43
0.0000001
 44
0.0000000001
 40
0.0
 40
0.0
 40
0.0
 40
0.0
 40
0.5030296241
 40
0.7519753073
 40
1.0
 40
1.0
 40
1.0
 40
1.0
 10
25.4817164232
 20
45.4065667798
 30
0.0
 10
25.2793402873
 20
46.2031059905
 30
0.0
 10
25.0308394248
 20
47.409747444
 30
0.0
 10
24.8565553608
 20
49.0352267992
 30
0.0
 10
24.8269559016
 20
49.8474958463
 30
0.0
 10
24.8269558589
 20
50.2527167057
 30
0.0
  0
SPLINE
  5
290
100
AcDbEntity
  8
0
100
AcDbSpline
 62
7
  6
BYLAYER
 70
0
 71
3
 72
10
 73
6
 74
0
 42
0.0000001
 43
0.0000001
 44
0.0000000001
 40
0.0
 40
0.0
 40
0.0
 40
0.0
 40
0.2480246942
 40
0.4969703782
 40
1.0
 40
1.0
 40
1.0
 40
1.0
 10
29.8269558068
 20
50.2527167057
 30
0.0
 10
29.8269557641
 20
49.8474958438
 30
0.0
 10
29.7973563084
 20
49.0352267927
 30
0.0
 10
29.6230722387
 20
47.4097474378
 30
0.0
 10
29.3745713774
 20
46.2031059869
 30
0.0
 10
29.1721952425
 20
45.4065667798
 30
0.0
  0
SPLINE
  5
291
100
AcDbEntity
  8
0
100
AcDbSpline
 62
7
  6
BYLAYER
 70
0
 71
3
 72
10
 73
6
 74
0
 42
0.0000001
 43
0.0000001
 44
0.0000000001
 40
0.0
 40
0.0
 40
0.0
 40
0.0
 40
0.2480247023
 40
0.4969703765
 40
1.0
 40
1.0
 40
1.0
 40
1.0
 10
24.8269558589
 20
81.429631242
 30
0.0
 10
24.8269557811
 20
81.834852522
 30
0.0
 10
24.8565567649
 20
82.6471223117
 30
0.0
 10
25.0308383652
 20
84.2726035179
 30
0.0
 10
25.279340073
 20
85.4792461543
 30
0.0
 10
25.4817164047
 20
86.2757861614
 30
0.0
  0
SPLINE
  5
292
100
AcDbEntity
  8
0
100
AcDbSpline
 62
7
  6
BYLAYER
 70
0
 71
3
 72
10
 73
6
 74
0
 42
0.0000001
 43
0.0000001
 44
0.0000000001
 40
0.0
 40
0.0
 40
0.0
 40
0.0
 40
0.5030296241
 40
0.7519753073
 40
1.0
 40
1.0
 40
1.0
 40
1.0
 10
25.4817164232
 20
76.5834813159
 30
0.0
 10
25.2793402874
 20
77.3800205267
 30
0.0
 10
25.0308394249
 20
78.5866619802
 30
0.0
 10
24.8565553608
 20
80.2121413354
 30
0.0
 10
24.8269559016
 20
81.0244103826
 30
0.0
 10
24.8269558589
 20
81.429631242
 30
0.0
  0
SPLINE
  5
293
100
AcDbEntity
  8
0
100
AcDbSpline
 62
7
  6
BYLAYER
 70
0
 71
3
 72
10
 73
6
 74
0
 42
0.0000001
 43
0.0000001
 44
0.0000000001
 40
0.0
 40
0.0
 40
0.0
 40
0.0
 40
0.2500126433
 40
0.5000255624
 40
1.0
 40
1.0
 40
1.0
 40
1.0
 10
24.8269558328
 20
65.8411764706
 30
0.0
 10
24.8269558328
 20
66.6680257786
 30
0.0
 10
24.8576622192
 20
68.3218993509
 30
0.0
 10
25.0379782803
 20
71.6247362838
 30
0.0
 10
25.295688214
 20
74.0935506633
 30
0.0
 10
25.5073256233
 20
75.733481316
 30
0.0
  0
SPLINE
  5
294
100
AcDbEntity
  8
0
100
AcDbSpline
 62
7
  6
BYLAYER
 70
0
 71
3
 72
10
 73
6
 74
0
 42
0.0000001
 43
0.0000001
 44
0.0000000001
 40
0.0
 40
0.0
 40
0.0
 40
0.0
 40
0.4999744402
 40
0.7499873586
 40
1.0
 40
1.0
 40
1.0
 40
1.0
 10
25.5073256233
 20
55.9488716252
 30
0.0
 10
25.2956882129
 20
57.5888022865
 30
0.0
 10
25.037978277
 20
60.0576166721
 30
0.0
 10
24.8576622238
 20
63.3604536053
 30
0.0
 10
24.8269558328
 20
65.0143271687
 30
0.0
 10
24.8269558328
 20
65.8411764706
 30
0.0
  0
SPLINE
  5
295
100
AcDbEntity
  8
0
100
AcDbSpline
 62
7
  6
BYLAYER
 70
0
 71
3
 72
10
 73
6
 74
0
 42
0.0000001
 43
0.0000001
 44
0.0000000001
 40
0.0
 40
0.0
 40
0.0
 40
0.0
 40
0.2480247023
 40
0.4969703765
 40
1.0
 40
1.0
 40
1.0
 40
1.0
 10
24.8269558589
 20
50.2527167057
 30
0.0
 10
24.8269557811
 20
50.6579379858
 30
0.0
 10
24.8565567649
 20
51.4702077755
 30
0.0
 10
25.0308383652
 20
53.0956889817
 30
0.0
 10
25.279340073
 20
54.3023316181
 30
0.0
 10
25.4817164047
 20
55.0988716252
 30
0.0
  0
SPLINE
  5
296
100
AcDbEntity
  8
0
100
AcDbSpline
 62
7
  6
BYLAYER
 70
0
 71
3
 72
10
 73
6
 74
0
 42
0.0000001
 43
0.0000001
 44
0.0000000001
 40
0.0
 40
0.0
 40
0.0
 40
0.0
 40
0.2500126433
 40
0.5000255624
 40
1.0
 40
1.0
 40
1.0
 40
1.0
 10
29.8269558328
 20
65.8411764706
 30
0.0
 10
29.8269558328
 20
65.0143271626
 30
0.0
 10
29.7962494465
 20
63.3604535903
 30
0.0
 10
29.6159333854
 20
60.0576166574
 30
0.0
 10
29.3582234517
 20
57.5888022778
 30
0.0
 10
29.1465860423
 20
55.9488716252
 30
0.0
  0
SPLINE
  5
297
100
AcDbEntity
  8
0
100
AcDbSpline
 62
7
  6
BYLAYER
 70
0
 71
3
 72
10
 73
6
 74
0
 42
0.0000001
 43
0.0000001
 44
0.0000000001
 40
0.0
 40
0.0
 40
0.0
 40
0.0
 40
0.5030296258
 40
0.7519752992
 40
1.0
 40
1.0
 40
1.0
 40
1.0
 10
29.172195261
 20
55.0988716252
 30
0.0
 10
29.3745715936
 20
54.3023316145
 30
0.0
 10
29.6230733032
 20
53.0956889755
 30
0.0
 10
29.7973548969
 20
51.4702077688
 30
0.0
 10
29.8269558845
 20
50.6579379832
 30
0.0
 10
29.8269558068
 20
50.2527167057
 30
0.0
  0
ENDSEC
  0
SECTION
  2
OBJECTS
  0
DICTIONARY
  5
C
100
AcDbDictionary
280
0
281
1
  3
ACAD_GROUP
350
D
  3
ACAD_MLINESTYLE
350
17
  3
ACAD_LAYOUT
350
1A
  3
ACAD_PLOTSETTINGS
350
19
  3
ACAD_PLOTSTYLENAME
350
E
  0
DICTIONARY
  5
D
102
{ACAD_REACTORS
330
C
102
}
100
AcDbDictionary
280
0
281
1
  0
ACDBDICTIONARYWDFLT
  5
E
102
{ACAD_REACTORS
330
C
102
}
100
AcDbDictionary
281
1
  3
Normal
350
F
100
AcDbDictionaryWithDefault
340
F
  0
DICTIONARY
  5
17
102
{ACAD_REACTORS
330
C
102
}
100
AcDbDictionary
280
0
281
1
  3
Standard
350
18
  0
DICTIONARY
  5
19
102
{ACAD_REACTORS
330
C
102
}
100
AcDbDictionary
281
1
  0
DICTIONARY
  5
1A
102
{ACAD_REACTORS
330
C
102
}
100
AcDbDictionary
281
1
  3
Model
350
298
  3
Layout1
350
299
  0
ACDBPLACEHOLDER
  5
F
102
{ACAD_REACTORS
330
E
102
}
  0
MLINESTYLE
  5
18
102
{ACAD_REACTORS
330
17
102
}
100
AcDbMlineStyle
  2
STANDARD
 70
0
  3

 62
256
 51
90.0
 52
90.0
 71
2
 49
0.5
 62
256
  6
BYLAYER
 49
-0.5
 62
256
  6
BYLAYER
  0
LAYOUT
  5
298
102
{ACAD_REACTORS
330
1A
102
}
100
AcDbPlotSettings
  1

  2
none_device
  4

  6

 40
0.0
 41
0.0
 42
0.0
 43
0.0
 44
210.0
 45
297.0
 46
0.0
 47
0.0
 48
0.0
 49
0.0
140
0.0
141
0.0
142
1.0
143
1.0
 70
1024
 72
1
 73
0
 74
0
  7

 75
0
147
1.0
148
0.0
149
0.0
100
AcDbLayout
  1
Model
 70
0
 71
0
 10
0.0
 20
0.0
 11
210.0
 21
297.0
 12
0.0
 22
0.0
 32
0.0
 14
0.0
 24
0.0
 34
0.0
 15
0.0
 25
0.0
 35
0.0
146
0.0
 13
0.0
 23
0.0
 33
0.0
 16
1.0
 26
0.0
 36
0.0
 17
0.0
 27
1.0
 37
0.0
 76
0
330
210
345
0
346
0
  0
LAYOUT
  5
299
102
{ACAD_REACTORS
330
1A
102
}
100
AcDbPlotSettings
  1

  2
none_device
  4

  6

 40
0.0
 41
0.0
 42
0.0
 43
0.0
 44
210.0
 45
297.0
 46
0.0
 47
0.0
 48
0.0
 49
0.0
140
0.0
141
0.0
142
1.0
143
1.0
 70
0
 72
1
 73
0
 74
0
  7

 75
0
147
1.0
148
0.0
149
0.0
100
AcDbLayout
  1
Layout1
 70
0
 71
1
 10
0.0
 20
0.0
 11
210.0
 21
297.0
 12
0.0
 22
0.0
 32
0.0
 14
0.0
 24
0.0
 34
0.0
 15
0.0
 25
0.0
 35
0.0
146
0.0
 13
0.0
 23
0.0
 33
0.0
 16
1.0
 26
0.0
 36
0.0
 17
0.0
 27
1.0
 37
0.0
 76
0
330
211
345
0
346
0
  0
ENDSEC
  0
EOF
