999
DXF file: C:\Users\sesa63760\Dev\_Creo\CAD\MCADID0004556_3D-CAD\drw0001_7.dxf
999
Pro/ENGINEER 2019471 by Parametric Technology Corporation
  0
SECTION
  2
HEADER
  9
$ACADVER
  1
AC1024
  9
$DWGCODEPAGE
  3
ANSI_1252
  9
$EXTMAX
 10
22.7531330814
 20
32.1794310722
 30
0.0
  9
$EXTMIN
 10
0.0
 20
0.0
 30
0.0
  9
$LIMMIN
 10
0.0
 20
0.0
  9
$LIMMAX
 10
22.7531330814
 20
32.1794310722
  9
$VIEWCTR
 10
11.3765665407
 20
16.0897155361
  9
$VIEWSIZE
 40
32.1794310722
  9
$CLAYER
  8
0
  9
$LTSCALE
 40
2.0976221736
  9
$CELTYPE
  6
BYLAYER
  9
$DIMSCALE
 40
1.0
  9
$DIMASZ
 40
0.2708706319
  9
$DIMEXO
 40
1.0
  9
$DIMDLI
 40
1.449266229
  9
$DIMEXE
 40
1.0
  9
$DIMCEN
 40
0.3432472648
  9
$DIMLFAC
 40
1.0
  9
$DIMBLK
  1
_FILLED
  9
$DIMALT
 70
0
  9
$DIMALTF
 40
0.0393700787
  9
$DIMTXT
 40
0.3792188847
  9
$DIMTOL
 70
1
  9
$DIMLIM
 70
0
  9
$DIMTFAC
 40
1.0
  9
$DIMTP
 40
0.01
  9
$DIMTM
 40
0.01
  9
$DIMGAP
 40
0.625
  9
$DIMDSEP
 70
46
  9
$AUNITS
 70
0
  9
$PDMODE
 70
3
  9
$PDSIZE
 40
0.3125
  9
$HANDSEED
  5
249
  9
$TILEMODE
 70
1
  9
$MEASUREMENT
 70
1
  9
$INSUNITS
 70
4
  0
ENDSEC
  0
SECTION
  2
CLASSES
  0
CLASS
  1
ACDBDICTIONARYWDFLT
  2
AcDbDictionaryWithDefault
  3
AutoCAD 2000
 90
0
 91
1
280
0
281
0
  0
CLASS
  1
ACDBPLACEHOLDER
  2
AcDbPlaceHolder
  3
AutoCAD 2000
 90
0
 91
1
280
0
281
0
  0
CLASS
  1
LAYOUT
  2
AcDbLayout
  3
AutoCAD 2000
 90
0
 91
0
280
0
281
0
  0
ENDSEC
  0
SECTION
  2
TABLES
  0
TABLE
  2
VPORT
  5
8
100
AcDbSymbolTable
 70
2
  0
VPORT
  5
1F4
100
AcDbSymbolTableRecord
100
AcDbViewportTableRecord
  2
*ACTIVE
 70
0
 10
0.0
 20
0.0
 11
1.0
 21
1.0
 12
11.3765665407
 22
16.0897155361
 13
0.0
 23
0.0
 14
1.0
 24
1.0
 15
0.0
 25
0.0
 16
0.0
 26
0.0
 36
1.0
 17
0.0
 27
0.0
 37
0.0
 40
32.1794310722
 41
0.7070707071
 42
50.0
 43
0.0
 44
0.0
 50
0.0
 51
0.0
 71
0
 72
100
 73
1
 74
1
 75
0
 76
0
 77
0
 78
0
  0
ENDTAB
  0
TABLE
  2
LTYPE
  5
5
100
AcDbSymbolTable
 70
6
  0
LTYPE
  5
14
100
AcDbSymbolTableRecord
100
AcDbLinetypeTableRecord
  2
BYBLOCK
 70
0
  3

 72
65
 73
0
 40
0.0
  0
LTYPE
  5
15
100
AcDbSymbolTableRecord
100
AcDbLinetypeTableRecord
  2
BYLAYER
 70
0
  3

 72
65
 73
0
 40
0.0
  0
LTYPE
  5
16
100
AcDbSymbolTableRecord
100
AcDbLinetypeTableRecord
  2
CONTINUOUS
 70
64
  3
Solid line
 72
65
 73
0
 40
0.0
  0
LTYPE
  5
1F5
100
AcDbSymbolTableRecord
100
AcDbLinetypeTableRecord
  2
CENTER
 70
64
  3
____ _ ____ _ ____ _ ____ _ ____ _ ____ _ ____
 72
65
 73
4
 40
0.6
 49
0.375
 74
0
 49
-0.075
 74
0
 49
0.075
 74
0
 49
-0.075
 74
0
  0
LTYPE
  5
1F6
100
AcDbSymbolTableRecord
100
AcDbLinetypeTableRecord
  2
HIDDEN
 70
64
  3
- - - - - - - - - - - - - - - - - - - -
 72
65
 73
2
 40
0.2
 49
0.1
 74
0
 49
-0.1
 74
0
  0
LTYPE
  5
1F7
100
AcDbSymbolTableRecord
100
AcDbLinetypeTableRecord
  2
PHANTOM
 70
64
  3
_____ _ _ _____ _ _ _____ _ _ _____
 72
65
 73
6
 40
0.8
 49
0.45
 74
0
 49
-0.05
 74
0
 49
0.1
 74
0
 49
-0.05
 74
0
 49
0.1
 74
0
 49
-0.05
 74
0
  0
LTYPE
  5
1F8
100
AcDbSymbolTableRecord
100
AcDbLinetypeTableRecord
  2
DOT
 70
64
  3
. . . . . . . . . . . . . . . . . . . .
 72
65
 73
2
 40
0.2
 49
0.1
 74
0
 49
-0.1
 74
0
  0
LTYPE
  5
1F9
100
AcDbSymbolTableRecord
100
AcDbLinetypeTableRecord
  2
DASHED
 70
64
  3
- - - - - - - - - - - - - - - - - - - -
 72
65
 73
2
 40
0.2
 49
0.1
 74
0
 49
-0.1
 74
0
  0
ENDTAB
  0
TABLE
  2
LAYER
  5
2
100
AcDbSymbolTable
 70
36
  0
LAYER
  5
10
100
AcDbSymbolTableRecord
100
AcDbLayerTableRecord
  2
0
 70
0
 62
7
  6
CONTINUOUS
370
-3
390
F
  0
LAYER
  5
1FA
100
AcDbSymbolTableRecord
100
AcDbLayerTableRecord
  2
DEFAULT_1
 70
0
 62
7
  6
CENTER
370
-3
390
F
  0
LAYER
  5
1FB
100
AcDbSymbolTableRecord
100
AcDbLayerTableRecord
  2
DEFAULT_2
 70
0
 62
7
  6
HIDDEN
370
-3
390
F
  0
LAYER
  5
1FC
100
AcDbSymbolTableRecord
100
AcDbLayerTableRecord
  2
DEFAULT_3
 70
0
 62
7
  6
PHANTOM
370
-3
390
F
  0
LAYER
  5
1FD
100
AcDbSymbolTableRecord
100
AcDbLayerTableRecord
  2
00_COMPONENTS
 70
0
 62
7
  6
CONTINUOUS
370
-3
390
F
  0
LAYER
  5
1FE
100
AcDbSymbolTableRecord
100
AcDbLayerTableRecord
  2
01_1_DEFAULT_DATUMS
 70
0
 62
7
  6
CONTINUOUS
370
-3
390
F
  0
LAYER
  5
1FF
100
AcDbSymbolTableRecord
100
AcDbLayerTableRecord
  2
01_PLANES
 70
0
 62
7
  6
CONTINUOUS
370
-3
390
F
  0
LAYER
  5
200
100
AcDbSymbolTableRecord
100
AcDbLayerTableRecord
  2
02_COORD_SYS
 70
0
 62
7
  6
CONTINUOUS
370
-3
390
F
  0
LAYER
  5
201
100
AcDbSymbolTableRecord
100
AcDbLayerTableRecord
  2
03_AXES
 70
0
 62
7
  6
CONTINUOUS
370
-3
390
F
  0
LAYER
  5
202
100
AcDbSymbolTableRecord
100
AcDbLayerTableRecord
  2
04_POINTS
 70
0
 62
7
  6
CONTINUOUS
370
-3
390
F
  0
LAYER
  5
203
100
AcDbSymbolTableRecord
100
AcDbLayerTableRecord
  2
05_CURVES
 70
0
 62
7
  6
CONTINUOUS
370
-3
390
F
  0
LAYER
  5
204
100
AcDbSymbolTableRecord
100
AcDbLayerTableRecord
  2
06_SURFS
 70
0
 62
7
  6
CONTINUOUS
370
-3
390
F
  0
LAYER
  5
205
100
AcDbSymbolTableRecord
100
AcDbLayerTableRecord
  2
07_COSMETICS
 70
0
 62
7
  6
CONTINUOUS
370
-3
390
F
  0
LAYER
  5
206
100
AcDbSymbolTableRecord
100
AcDbLayerTableRecord
  2
10_NOTES
 70
0
 62
7
  6
CONTINUOUS
370
-3
390
F
  0
LAYER
  5
207
100
AcDbSymbolTableRecord
100
AcDbLayerTableRecord
  2
11_NOTES_PUB
 70
0
 62
7
  6
CONTINUOUS
370
-3
390
F
  0
LAYER
  5
208
100
AcDbSymbolTableRecord
100
AcDbLayerTableRecord
  2
13_REF_GTOL
 70
0
 62
7
  6
CONTINUOUS
370
-3
390
F
  0
LAYER
  5
209
100
AcDbSymbolTableRecord
100
AcDbLayerTableRecord
  2
16_MISC
 70
0
 62
7
  6
CONTINUOUS
370
-3
390
F
  0
LAYER
  5
20A
100
AcDbSymbolTableRecord
100
AcDbLayerTableRecord
  2
17_NO_PRINT
 70
0
 62
7
  6
CONTINUOUS
370
-3
390
F
  0
LAYER
  5
20B
100
AcDbSymbolTableRecord
100
AcDbLayerTableRecord
  2
18_DATUM_CAMS_JOINTS
 70
0
 62
7
  6
CONTINUOUS
370
-3
390
F
  0
LAYER
  5
20C
100
AcDbSymbolTableRecord
100
AcDbLayerTableRecord
  2
19_DATUM_FUNCTIONAL
 70
0
 62
7
  6
CONTINUOUS
370
-3
390
F
  0
LAYER
  5
20D
100
AcDbSymbolTableRecord
100
AcDbLayerTableRecord
  2
20_DATUM_KINEMATIC_SCHEME
 70
0
 62
7
  6
CONTINUOUS
370
-3
390
F
  0
ENDTAB
  0
TABLE
  2
STYLE
  5
3
100
AcDbSymbolTable
 70
1
  0
STYLE
  5
11
100
AcDbSymbolTableRecord
100
AcDbTextStyleTableRecord
  2
STANDARD
 70
0
 40
0.0
 41
1.0
 50
0.0
 71
0
 42
0.2
  3
ARIAL.TTF
  4

  0
STYLE
  5
20E
100
AcDbSymbolTableRecord
100
AcDbTextStyleTableRecord
  2
TEXTSTYLE_1
 70
0
 40
0.0
 41
0.8
 50
0.0
 71
0
 42
0.2
  3
gdt
  4

  0
ENDTAB
  0
TABLE
  2
VIEW
  5
6
100
AcDbSymbolTable
 70
0
  0
ENDTAB
  0
TABLE
  2
UCS
  5
7
100
AcDbSymbolTable
 70
0
  0
ENDTAB
  0
TABLE
  2
APPID
  5
9
100
AcDbSymbolTable
 70
1
  0
APPID
  5
20F
100
AcDbSymbolTableRecord
100
AcDbRegAppTableRecord
  2
ACAD
 70
0
  0
ENDTAB
  0
TABLE
  2
BLOCK_RECORD
  5
1
100
AcDbSymbolTable
 70
0
  0
BLOCK_RECORD
  5
210
100
AcDbSymbolTableRecord
100
AcDbBlockTableRecord
  2
*Model_Space
  0
BLOCK_RECORD
  5
211
100
AcDbSymbolTableRecord
100
AcDbBlockTableRecord
  2
*Paper_Space
  0
BLOCK_RECORD
  5
212
100
AcDbSymbolTableRecord
100
AcDbBlockTableRecord
  2
_FILLED
  0
ENDTAB
  0
TABLE
  2
DIMSTYLE
  5
A
100
AcDbSymbolTable
 70
1
100
AcDbDimStyleTable
 71
0
  0
DIMSTYLE
105
213
100
AcDbSymbolTableRecord
100
AcDbDimStyleTableRecord
  2
STANDARD
 70
0
  3

  4

 40
1.0
 41
0.2708706319
 42
1.0
 43
0.38
 44
1.0
 45
0.0
 46
0.0
 47
0.01
 48
0.01
140
0.3792188847
141
0.09
142
0.0
143
25.4
144
1.0
145
0.0
146
1.0
147
0.625
 71
1
 72
0
 73
0
 74
0
 75
0
 76
0
 77
1
 78
8
 79
2
170
0
171
1
172
0
173
0
174
0
175
0
176
0
177
0
178
0
270
2
179
2
271
2
272
2
273
2
274
2
275
0
280
0
281
0
282
0
283
1
284
8
285
0
286
0
287
3
288
0
340
11
278
46
341
212
342
212
343
212
344
212
  0
ENDTAB
  0
ENDSEC
  0
SECTION
  2
BLOCKS
  0
BLOCK
  5
20
100
AcDbEntity
  8
0
100
AcDbBlockBegin
  2
*Model_Space
 70
0
 10
0.0
 20
0.0
 30
0.0
  3
*Model_Space
  1

  0
ENDBLK
  5
21
100
AcDbEntity
  8
0
100
AcDbBlockEnd
  0
BLOCK
  5
1C
100
AcDbEntity
  8
0
100
AcDbBlockBegin
  2
*Paper_Space
 70
0
 10
0.0
 20
0.0
 30
0.0
  3
*Paper_Space
  1

  0
ENDBLK
  5
1D
100
AcDbEntity
  8
0
100
AcDbBlockEnd
  0
BLOCK
  5
214
100
AcDbEntity
  8
0
100
AcDbBlockBegin
  2
_FILLED
 70
64
 10
0.0
 20
0.0
  3
_FILLED
  1

  0
SOLID
  5
215
100
AcDbEntity
  8
0
  6
BYBLOCK
 62
0
100
AcDbTrace
 10
0.0
 20
0.0
 11
-1.0
 21
0.25
 12
-1.0
 22
-0.25
 13
-1.0
 23
-0.25
  0
ENDBLK
  5
216
100
AcDbEntity
  8
0
  6
BYBLOCK
 62
0
100
AcDbBlockEnd
  0
ENDSEC
  0
SECTION
  2
ENTITIES
  0
LINE
  5
217
100
AcDbEntity
  8
0
100
AcDbLine
 62
7
  6
BYLAYER
 10
7.8534538492
 20
18.7434856548
 11
7.8534538492
 21
18.6987175504
  0
LINE
  5
218
100
AcDbEntity
  8
0
100
AcDbLine
 62
7
  6
BYLAYER
 10
7.8534538492
 20
17.6382537592
 11
7.8534538492
 21
17.5934856548
  0
LINE
  5
219
100
AcDbEntity
  8
0
100
AcDbLine
 62
7
  6
BYLAYER
 10
10.8609432858
 20
12.7380721306
 11
12.9962338735
 21
12.9437206719
  0
LINE
  5
21A
100
AcDbEntity
  8
0
100
AcDbLine
 62
7
  6
BYLAYER
 10
8.8018086569
 20
13.3768985543
 11
10.8609432858
 21
12.7380721306
  0
LINE
  5
21B
100
AcDbEntity
  8
0
100
AcDbLine
 62
7
  6
BYLAYER
 10
8.0374453994
 20
14.0183811001
 11
8.8018086569
 21
13.3768985543
  0
LINE
  5
21C
100
AcDbEntity
  8
0
100
AcDbLine
 62
7
  6
BYLAYER
 10
14.4156539081
 20
23.3641705242
 11
14.2957360417
 21
23.1564656514
  0
LINE
  5
21D
100
AcDbEntity
  8
0
100
AcDbLine
 62
7
  6
BYLAYER
 10
8.6896338734
 20
7.7777355481
 11
8.8216721337
 21
8.1841075282
  0
LINE
  5
21E
100
AcDbEntity
  8
0
100
AcDbLine
 62
7
  6
BYLAYER
 10
7.8534538492
 20
17.5934856548
 11
7.2681193238
 21
17.5934856548
  0
LINE
  5
21F
100
AcDbEntity
  8
0
100
AcDbLine
 62
7
  6
BYLAYER
 10
7.8534538492
 20
17.6382537592
 11
7.1944700297
 21
17.6382537592
  0
LINE
  5
220
100
AcDbEntity
  8
0
100
AcDbLine
 62
7
  6
BYLAYER
 10
7.1944700297
 20
18.6987175504
 11
7.8534538492
 21
18.6987175504
  0
LINE
  5
221
100
AcDbEntity
  8
0
100
AcDbLine
 62
7
  6
BYLAYER
 10
7.2681193238
 20
18.7434856548
 11
7.8534538492
 21
18.7434856548
  0
LWPOLYLINE
  5
222
100
AcDbEntity
  8
0
100
AcDbPolyline
 62
7
  6
BYLAYER
 90
3
 70
0
 10
12.9962338735
 20
12.9437206719
 10
14.8905563405
 20
13.9588957683
 10
15.6488057098
 20
14.7219204649
  0
CIRCLE
  5
223
100
AcDbEntity
  8
0
100
AcDbCircle
 62
7
  6
BYLAYER
 10
9.4159538492
 20
10.9684856548
 40
0.9825462644
  0
CIRCLE
  5
224
100
AcDbEntity
  8
0
100
AcDbCircle
 62
7
  6
BYLAYER
 10
9.4159538492
 20
10.9684856548
 40
0.0825457434
  0
CIRCLE
  5
225
100
AcDbEntity
  8
0
100
AcDbCircle
 62
7
  6
BYLAYER
 10
9.9159538492
 20
16.6684856548
 40
0.5
  0
ARC
  5
226
100
AcDbEntity
  8
0
100
AcDbCircle
 62
7
  6
BYLAYER
 10
11.4159538492
 20
16.1684856548
 40
9.0
100
AcDbArc
 50
274.6603214665
 51
269.9999999996
  0
ARC
  5
227
100
AcDbEntity
  8
0
100
AcDbCircle
 62
7
  6
BYLAYER
 10
11.4159538492
 20
16.1684856548
 40
8.05
100
AcDbArc
 50
87.195393789
 51
85.0379628662
  0
ARC
  5
228
100
AcDbEntity
  8
0
100
AcDbCircle
 62
7
  6
BYLAYER
 10
11.4159538492
 20
16.1684856548
 40
7.8464785214
100
AcDbArc
 50
107.7140462503
 51
72.2290140876
  0
CIRCLE
  5
229
100
AcDbEntity
  8
0
100
AcDbCircle
 62
7
  6
BYLAYER
 10
12.9159538492
 20
16.6684856548
 40
0.5
  0
ARC
  5
22A
100
AcDbEntity
  8
0
100
AcDbCircle
 62
7
  6
BYLAYER
 10
11.4159538492
 20
18.1684856548
 40
6.0
100
AcDbArc
 50
298.5226815289
 51
283.499999998
  0
ARC
  5
22B
100
AcDbEntity
  8
0
100
AcDbCircle
 62
7
  6
BYLAYER
 10
11.043521316
 20
18.2442808551
 40
5.8807037307
100
AcDbArc
 50
241.9817895293
 51
273.6311268815
  0
CIRCLE
  5
22C
100
AcDbEntity
  8
0
100
AcDbCircle
 62
7
  6
BYLAYER
 10
11.4159538492
 20
18.1684856548
 40
5.175
  0
CIRCLE
  5
22D
100
AcDbEntity
  8
0
100
AcDbCircle
 62
7
  6
BYLAYER
 10
11.4159538492
 20
18.1684856548
 40
4.975
  0
CIRCLE
  5
22E
100
AcDbEntity
  8
0
100
AcDbCircle
 62
7
  6
BYLAYER
 10
11.4159538492
 20
18.1684856548
 40
4.2566164595
  0
ARC
  5
22F
100
AcDbEntity
  8
0
100
AcDbCircle
 62
7
  6
BYLAYER
 10
11.4159538492
 20
18.1684856548
 40
4.1875
100
AcDbArc
 50
187.8924158583
 51
172.1075841417
  0
ARC
  5
230
100
AcDbEntity
  8
0
100
AcDbCircle
 62
7
  6
BYLAYER
 10
7.8534538492
 20
18.1684856548
 40
0.575
100
AcDbArc
 50
270.0
 51
90.0
  0
ARC
  5
231
100
AcDbEntity
  8
0
100
AcDbCircle
 62
7
  6
BYLAYER
 10
7.8534538492
 20
18.1684856548
 40
0.5302318956
100
AcDbArc
 50
270.0000000002
 51
89.9999999998
  0
CIRCLE
  5
232
100
AcDbEntity
  8
0
100
AcDbCircle
 62
7
  6
BYLAYER
 10
12.9159538492
 20
19.6684856548
 40
0.5
  0
CIRCLE
  5
233
100
AcDbEntity
  8
0
100
AcDbCircle
 62
7
  6
BYLAYER
 10
9.9159538492
 20
19.6684856548
 40
0.5
  0
CIRCLE
  5
234
100
AcDbEntity
  8
0
100
AcDbCircle
 62
7
  6
BYLAYER
 10
11.4159538492
 20
18.1684856548
 40
0.5
  0
ARC
  5
235
100
AcDbEntity
  8
0
100
AcDbCircle
 62
7
  6
BYLAYER
 10
18.0578732728
 20
0.9099862627
 40
20.8435239546
100
AcDbArc
 50
121.1750831524
 51
121.4120019318
  0
CIRCLE
  5
236
100
AcDbEntity
  8
0
100
AcDbCircle
 62
7
  6
BYLAYER
 10
13.4159538492
 20
10.9684856548
 40
0.9738193966
  0
CIRCLE
  5
237
100
AcDbEntity
  8
0
100
AcDbCircle
 62
7
  6
BYLAYER
 10
13.4159538492
 20
10.9684856548
 40
0.0738189307
  0
ARC
  5
238
100
AcDbEntity
  8
0
100
AcDbCircle
 62
7
  6
BYLAYER
 10
18.0126658148
 20
35.3526129597
 40
20.7564901158
100
AcDbArc
 50
238.5875013566
 51
238.8254135592
  0
SPLINE
  5
239
100
AcDbEntity
  8
0
100
AcDbSpline
 62
7
  6
BYLAYER
 70
0
 71
3
 72
18
 73
14
 74
0
 42
0.0000001
 43
0.0000001
 44
0.0000000001
 40
0.0
 40
0.0
 40
0.0
 40
0.0
 40
0.1249530861
 40
0.2499528969
 40
0.3124650039
 40
0.3749791553
 40
0.4375017285
 40
0.5000290562
 40
0.625010176
 40
0.7499736105
 40
0.8124986049
 40
0.8750430201
 40
1.0
 40
1.0
 40
1.0
 40
1.0
 10
14.2957584494
 20
23.1564527144
 30
0.0
 10
14.5174621971
 20
23.0337069384
 30
0.0
 10
14.9449904002
 20
22.7581453073
 30
0.0
 10
15.4294456473
 20
22.3467036782
 30
0.0
 10
15.7819453431
 20
21.9817540228
 30
0.0
 10
16.027698113
 20
21.6910669255
 30
0.0
 10
16.2538284014
 20
21.3848331181
 30
0.0
 10
16.5279908917
 20
20.9579017376
 30
0.0
 10
16.8178326576
 20
20.3922051588
 30
0.0
 10
17.0316747839
 20
19.7936415985
 30
0.0
 10
17.154898992
 20
19.3014137021
 30
0.0
 10
17.2457226367
 20
18.8022820387
 30
0.0
 10
17.2770671402
 20
18.4218740968
 30
0.0
 10
17.281235694
 20
18.1684856541
 30
0.0
  0
SPLINE
  5
23A
100
AcDbEntity
  8
0
100
AcDbSpline
 62
7
  6
BYLAYER
 70
0
 71
3
 72
20
 73
16
 74
0
 42
0.0000001
 43
0.0000001
 44
0.0000000001
 40
0.0
 40
0.0
 40
0.0
 40
0.0
 40
0.1249239761
 40
0.1874674924
 40
0.2499846057
 40
0.3124970134
 40
0.375020575
 40
0.4375453863
 40
0.5000634127
 40
0.5625811275
 40
0.625099936
 40
0.6876147207
 40
0.7501226405
 40
0.8750720664
 40
1.0
 40
1.0
 40
1.0
 40
1.0
 10
17.281235694
 20
18.1684856541
 30
0.0
 10
17.2866584111
 20
17.8388620277
 30
0.0
 10
17.2524726195
 20
17.3422439629
 30
0.0
 10
17.1256592274
 20
16.6943462247
 30
0.0
 10
16.9903057123
 20
16.2175575419
 30
0.0
 10
16.8152857876
 20
15.7539735144
 30
0.0
 10
16.6016906348
 20
15.3068160932
 30
0.0
 10
16.3513782738
 20
14.879121477
 30
0.0
 10
16.0660924222
 20
14.4739413199
 30
0.0
 10
15.7482036067
 20
14.0938339491
 30
0.0
 10
15.3999777642
 20
13.7413341972
 30
0.0
 10
15.0238199655
 20
13.4187995099
 30
0.0
 10
14.4885141776
 20
13.032185605
 30
0.0
 10
13.761893122
 20
12.6345610929
 30
0.0
 10
13.1358912575
 20
12.4164716234
 30
0.0
 10
12.8166260322
 20
12.3342661324
 30
0.0
  0
SPLINE
  5
23B
100
AcDbEntity
  8
0
100
AcDbSpline
 62
7
  6
BYLAYER
 70
0
 71
3
 72
23
 73
19
 74
0
 42
0.0000001
 43
0.0000001
 44
0.0000000001
 40
0.0
 40
0.0
 40
0.0
 40
0.0
 40
0.0624804419
 40
0.1250066568
 40
0.1875094495
 40
0.2500068415
 40
0.3125088426
 40
0.375007441
 40
0.4375059692
 40
0.5000058409
 40
0.5625046255
 40
0.6250043675
 40
0.6875067832
 40
0.7500075188
 40
0.812500245
 40
0.8749992171
 40
0.9375211532
 40
1.0
 40
1.0
 40
1.0
 40
1.0
 10
20.2574602002
 20
16.1684856548
 30
0.0
 10
20.2608281957
 20
15.8767671799
 30
0.0
 10
20.2384701156
 20
15.2923751874
 30
0.0
 10
20.1186695452
 20
14.4237053634
 30
0.0
 10
19.9134890102
 20
13.5709851909
 30
0.0
 10
19.6254664293
 20
12.7427316469
 30
0.0
 10
19.2574814125
 20
11.9467782212
 30
0.0
 10
18.8127493374
 20
11.1910128136
 30
0.0
 10
18.2958648555
 20
10.4826667879
 30
0.0
 10
17.7121374432
 20
9.8283196337
 30
0.0
 10
17.067155813
 20
9.2342307633
 30
0.0
 10
16.3668490976
 20
8.7064736682
 30
0.0
 10
15.6183697944
 20
8.2496173707
 30
0.0
 10
14.8289336354
 20
7.8679325524
 30
0.0
 10
14.0060141253
 20
7.5651772187
 30
0.0
 10
13.1573508011
 20
7.3441851083
 30
0.0
 10
12.2913573869
 20
7.2069448151
 30
0.0
 10
11.7076654287
 20
7.1718054104
 30
0.0
 10
11.4159538492
 20
7.1684856548
 30
0.0
  0
SPLINE
  5
23C
100
AcDbEntity
  8
0
100
AcDbSpline
 62
7
  6
BYLAYER
 70
0
 71
3
 72
39
 73
35
 74
0
 42
0.0000001
 43
0.0000001
 44
0.0000000001
 40
0.0
 40
0.0
 40
0.0
 40
0.0
 40
0.0312401092
 40
0.0625022365
 40
0.0937527253
 40
0.1250007066
 40
0.1562508192
 40
0.1875001516
 40
0.2187497303
 40
0.2499996467
 40
0.2812497322
 40
0.3125003032
 40
0.3437504221
 40
0.3750002226
 40
0.4062497137
 40
0.4374989737
 40
0.4687486963
 40
0.4999999676
 40
0.53125115
 40
0.5625007399
 40
0.5937504903
 40
0.625000765
 40
0.6562502786
 40
0.687499394
 40
0.7187500648
 40
0.750000883
 40
0.7812502388
 40
0.812499116
 40
0.8437493164
 40
0.8749998649
 40
0.9062471663
 40
0.9374979286
 40
0.9687600548
 40
1.0
 40
1.0
 40
1.0
 40
1.0
 10
2.8914347964
 20
16.1684856548
 30
0.0
 10
2.8880748016
 20
16.4524286006
 30
0.0
 10
2.9098465917
 20
17.0212540785
 30
0.0
 10
3.0272209134
 20
17.8666795482
 30
0.0
 10
3.2285509328
 20
18.6962914832
 30
0.0
 10
3.511229854
 20
19.5016622245
 30
0.0
 10
3.8723446114
 20
20.2750537024
 30
0.0
 10
4.3086571135
 20
21.0086706329
 30
0.0
 10
4.8155624636
 20
21.6953940886
 30
0.0
 10
5.3879541185
 20
22.3285690116
 30
0.0
 10
6.0200878765
 20
22.9021262063
 30
0.0
 10
6.7058888465
 20
23.4102993819
 30
0.0
 10
7.4384724002
 20
23.8483260992
 30
0.0
 10
8.2106657074
 20
24.2119785098
 30
0.0
 10
9.0148690977
 20
24.4979044183
 30
0.0
 10
9.8432801708
 20
24.7034399841
 30
0.0
 10
10.6879326491
 20
24.8262907251
 30
0.0
 10
11.5405588716
 20
24.8658119216
 30
0.0
 10
12.3929616882
 20
24.8217352965
 30
0.0
 10
13.2369455717
 20
24.6943915224
 30
0.0
 10
14.0643339314
 20
24.484807656
 30
0.0
 10
14.8673527104
 20
24.1956313594
 30
0.0
 10
15.6384304146
 20
23.8296865673
 30
0.0
 10
16.3699956127
 20
23.390030913
 30
0.0
 10
17.0552838127
 20
22.8812498163
 30
0.0
 10
17.6879503025
 20
22.3083575741
 30
0.0
 10
18.2620643659
 20
21.6768108842
 30
0.0
 10
18.7719586077
 20
20.9923743147
 30
0.0
 10
19.2131780534
 20
20.2617814775
 30
0.0
 10
19.5816741692
 20
19.4919562252
 30
0.0
 10
19.8740124544
 20
18.6901129442
 30
0.0
 10
20.0875419854
 20
17.8636498499
 30
0.0
 10
20.2201531222
 20
17.020571998
 30
0.0
 10
20.2541819821
 20
16.4524280655
 30
0.0
 10
20.2574602002
 20
16.1684856548
 30
0.0
  0
SPLINE
  5
23D
100
AcDbEntity
  8
0
100
AcDbSpline
 62
7
  6
BYLAYER
 70
0
 71
3
 72
21
 73
17
 74
0
 42
0.0000001
 43
0.0000001
 44
0.0000000001
 40
0.0
 40
0.0
 40
0.0
 40
0.0
 40
0.1249190444
 40
0.187444962
 40
0.2499556863
 40
0.3124648703
 40
0.3749779401
 40
0.4374913026
 40
0.5000027287
 40
0.5625129999
 40
0.6250238998
 40
0.6875349028
 40
0.7500408818
 40
0.8125492525
 40
0.8750771928
 40
1.0
 40
1.0
 40
1.0
 40
1.0
 10
8.8211695158
 20
8.1825606294
 30
0.0
 10
8.3986777412
 20
8.3143253763
 30
0.0
 10
7.7786814027
 20
8.5621928674
 30
0.0
 10
7.0007631045
 20
8.9866434673
 30
0.0
 10
6.4439305322
 20
9.3505296581
 30
0.0
 10
5.9176220751
 20
9.7571098226
 30
0.0
 10
5.4248809081
 20
10.2038157755
 30
0.0
 10
4.9686623739
 20
10.6877691516
 30
0.0
 10
4.5519131067
 20
11.2060865801
 30
0.0
 10
4.1770559761
 20
11.7554554703
 30
0.0
 10
3.8466315322
 20
12.3326383484
 30
0.0
 10
3.5623790365
 20
12.9338840904
 30
0.0
 10
3.3259655563
 20
13.5554674007
 30
0.0
 10
3.1387558657
 20
14.1937381777
 30
0.0
 10
2.9565578821
 20
15.0609673004
 30
0.0
 10
2.8966715779
 20
15.7259411667
 30
0.0
 10
2.8914347964
 20
16.1684856548
 30
0.0
  0
SPLINE
  5
23E
100
AcDbEntity
  8
0
100
AcDbSpline
 62
7
  6
BYLAYER
 70
0
 71
3
 72
15
 73
11
 74
0
 42
0.0000001
 43
0.0000001
 44
0.0000000001
 40
0.0
 40
0.0
 40
0.0
 40
0.0
 40
0.1249651513
 40
0.2500023289
 40
0.3749887591
 40
0.4999873271
 40
0.624981462
 40
0.7499762797
 40
0.8750302214
 40
1.0
 40
1.0
 40
1.0
 40
1.0
 10
7.9684472539
 20
13.9361658511
 30
0.0
 10
7.8085892715
 20
14.0617664971
 30
0.0
 10
7.5027714264
 20
14.3314238295
 30
0.0
 10
7.0920400916
 20
14.7840881803
 30
0.0
 10
6.7336967798
 20
15.2794104588
 30
0.0
 10
6.4319703582
 20
15.8110094084
 30
0.0
 10
6.1905574927
 20
16.3726095154
 30
0.0
 10
6.0128494451
 20
16.9576166273
 30
0.0
 10
5.900833588
 20
17.5585418228
 30
0.0
 10
5.8710199723
 20
17.9652079128
 30
0.0
 10
5.867655899
 20
18.1684856555
 30
0.0
  0
SPLINE
  5
23F
100
AcDbEntity
  8
0
100
AcDbSpline
 62
7
  6
BYLAYER
 70
0
 71
3
 72
15
 73
11
 74
0
 42
0.0000001
 43
0.0000001
 44
0.0000000001
 40
0.0
 40
0.0
 40
0.0
 40
0.0
 40
0.1249964935
 40
0.2499859501
 40
0.3749813542
 40
0.4999801377
 40
0.6249820907
 40
0.7499822794
 40
0.8749887092
 40
1.0
 40
1.0
 40
1.0
 40
1.0
 10
5.867655899
 20
18.1684856555
 30
0.0
 10
5.8615713969
 20
18.5361482307
 30
0.0
 10
5.9242059976
 20
19.2745608876
 30
0.0
 10
6.2293093351
 20
20.3415150352
 30
0.0
 10
6.7380921833
 20
21.3287170661
 30
0.0
 10
7.4332553609
 20
22.1946497194
 30
0.0
 10
8.2835410136
 20
22.9082995843
 30
0.0
 10
9.2551446543
 20
23.4454696386
 30
0.0
 10
10.3120540286
 20
23.7843188297
 30
0.0
 10
11.0482459194
 20
23.8693874732
 30
0.0
 10
11.4159538492
 20
23.8753610828
 30
0.0
  0
SPLINE
  5
240
100
AcDbEntity
  8
0
100
AcDbSpline
 62
7
  6
BYLAYER
 70
0
 71
3
 72
13
 73
9
 74
0
 42
0.0000001
 43
0.0000001
 44
0.0000000001
 40
0.0
 40
0.0
 40
0.0
 40
0.0
 40
0.2499070609
 40
0.3749916712
 40
0.5000193581
 40
0.6250362509
 40
0.750100603
 40
1.0
 40
1.0
 40
1.0
 40
1.0
 10
11.4159538492
 20
23.8753833181
 30
0.0
 10
11.6658631166
 20
23.8794432261
 30
0.0
 10
12.0418464929
 20
23.8601642309
 30
0.0
 10
12.5366939236
 20
23.7864509648
 30
0.0
 10
12.903759082
 20
23.7075077482
 30
0.0
 10
13.2649531147
 20
23.6050568857
 30
0.0
 10
13.7363454216
 20
23.4374959325
 30
0.0
 10
14.0770452751
 20
23.2774148598
 30
0.0
 10
14.2957584494
 20
23.1564527144
 30
0.0
  0
SPLINE
  5
241
100
AcDbEntity
  8
0
100
AcDbSpline
 62
7
  6
BYLAYER
 70
0
 71
3
 72
12
 73
8
 74
0
 42
0.0000001
 43
0.0000001
 44
0.0000000001
 40
0.0
 40
0.0
 40
0.0
 40
0.0
 40
0.1250597945
 40
0.2501233559
 40
0.5000931958
 40
0.7500495966
 40
1.0
 40
1.0
 40
1.0
 40
1.0
 10
11.4159538492
 20
12.7632829776
 30
0.0
 10
11.5407093301
 20
12.7650730899
 30
0.0
 10
11.7901848864
 20
12.777077154
 30
0.0
 10
12.2862049402
 20
12.8333774486
 30
0.0
 10
12.897470336
 20
12.9668156169
 30
0.0
 10
13.602052988
 20
13.2247919499
 30
0.0
 10
14.043902756
 20
13.4600727498
 30
0.0
 10
14.2556919241
 20
13.5917149754
 30
0.0
  0
SPLINE
  5
242
100
AcDbEntity
  8
0
100
AcDbSpline
 62
7
  6
BYLAYER
 70
0
 71
3
 72
11
 73
7
 74
0
 42
0.0000001
 43
0.0000001
 44
0.0000000001
 40
0.0
 40
0.0
 40
0.0
 40
0.0
 40
0.2500127674
 40
0.5000205971
 40
0.7500168998
 40
1.0
 40
1.0
 40
1.0
 40
1.0
 10
11.4159538492
 20
12.763133565
 30
0.0
 10
11.1070291646
 20
12.7595190135
 30
0.0
 10
10.4873282666
 20
12.8061379307
 30
0.0
 10
9.5839506516
 20
13.0314970672
 30
0.0
 10
8.7313043791
 20
13.4052554921
 30
0.0
 10
8.2116286703
 20
13.7456726131
 30
0.0
 10
7.9684472539
 20
13.9361658511
 30
0.0
  0
SPLINE
  5
243
100
AcDbEntity
  8
0
100
AcDbSpline
 62
7
  6
BYLAYER
 70
0
 71
3
 72
62
 73
58
 74
0
 42
0.0000001
 43
0.0000001
 44
0.0000000001
 40
0.0
 40
0.0
 40
0.0
 40
0.0
 40
0.1252768172
 40
0.1879193117
 40
0.2505613271
 40
0.3132027367
 40
0.3758433596
 40
0.4384828189
 40
0.5011208098
 40
0.5324395578
 40
0.5637576423
 40
0.5950750962
 40
0.6263915535
 40
0.6577067019
 40
0.6890204042
 40
0.7203320603
 40
0.7516399478
 40
0.7829443543
 40
0.8142470816
 40
0.8298964352
 40
0.8455430083
 40
0.8611847736
 40
0.8768171678
 40
0.8846263484
 40
0.8924254432
 40
0.8963178853
 40
0.9002017735
 40
0.902147215
 40
0.9040535533
 40
0.9049875987
 40
0.9059389643
 40
0.9069480061
 40
0.9079233756
 40
0.9083302091
 40
0.9086624447
 40
0.9089488297
 40
0.9092746354
 40
0.9096807953
 40
0.9101568102
 40
0.9112005549
 40
0.9121840322
 40
0.913098891
 40
0.9149303208
 40
0.9168474955
 40
0.9187674225
 40
0.9206789677
 40
0.9225996322
 40
0.9264520436
 40
0.9303109367
 40
0.9341758291
 40
0.9380443179
 40
0.9457889884
 40
0.9535397573
 40
0.9612933711
 40
0.9690472898
 40
0.984545268
 40
1.0
 40
1.0
 40
1.0
 40
1.0
 10
14.2556919241
 20
13.5917149754
 30
0.0
 10
14.3332410343
 20
13.639917334
 30
0.0
 10
14.4478219274
 20
13.7150876927
 30
0.0
 10
14.5968020008
 20
13.8207309608
 30
0.0
 10
14.7066129283
 20
13.9026250243
 30
0.0
 10
14.8144196706
 20
13.987135219
 30
0.0
 10
14.9201876317
 20
14.0741803125
 30
0.0
 10
15.0239050726
 20
14.1636542463
 30
0.0
 10
15.108565174
 20
14.2402199052
 30
0.0
 10
15.1752406021
 20
14.3026035977
 30
0.0
 10
15.2247194241
 20
14.3499478704
 30
0.0
 10
15.2736461321
 20
14.3978598818
 30
0.0
 10
15.3220535941
 20
14.4462931707
 30
0.0
 10
15.3699535302
 20
14.4952246219
 30
0.0
 10
15.4173307129
 20
14.5446576549
 30
0.0
 10
15.4641940512
 20
14.5945702925
 30
0.0
 10
15.5106721753
 20
14.6448320476
 30
0.0
 10
15.5567116309
 20
14.6954884857
 30
0.0
 10
15.5945352941
 20
14.7381829721
 30
0.0
 10
15.6246166307
 20
14.772487444
 30
0.0
 10
15.6471193689
 20
14.7982559681
 30
0.0
 10
15.669618661
 20
14.8240108256
 30
0.0
 10
15.6884376954
 20
14.8453963429
 30
0.0
 10
15.7036455741
 20
14.8623429522
 30
0.0
 10
15.7132532382
 20
14.8728191061
 30
0.0
 10
15.7210895918
 20
14.8810321074
 30
0.0
 10
15.7260477615
 20
14.8860976857
 30
0.0
 10
15.730179907
 20
14.8899345868
 30
0.0
 10
15.7327370385
 20
14.8923068449
 30
0.0
 10
15.7347620299
 20
14.8941876584
 30
0.0
 10
15.7364283601
 20
14.8954914923
 30
0.0
 10
15.7382912959
 20
14.8965528004
 30
0.0
 10
15.7399358644
 20
14.8971873175
 30
0.0
 10
15.7411759029
 20
14.8973596331
 30
0.0
 10
15.7419415074
 20
14.8972762034
 30
0.0
 10
15.7425124254
 20
14.8968137227
 30
0.0
 10
15.7427020346
 20
14.8960644298
 30
0.0
 10
15.7426949454
 20
14.895185001
 30
0.0
 10
15.7424856304
 20
14.8937920377
 30
0.0
 10
15.7420092678
 20
14.8920290511
 30
0.0
 10
15.7413911716
 20
14.8899757736
 30
0.0
 10
15.7405157602
 20
14.8874014154
 30
0.0
 10
15.7392760875
 20
14.8842351359
 30
0.0
 10
15.7376458349
 20
14.880438484
 30
0.0
 10
15.7359103281
 20
14.8766245707
 30
0.0
 10
15.7341112715
 20
14.8728375596
 30
0.0
 10
15.7316468162
 20
14.8678077708
 30
0.0
 10
15.7284651299
 20
14.861549408
 30
0.0
 10
15.7245397189
 20
14.8540805651
 30
0.0
 10
15.7205335121
 20
14.8466414849
 30
0.0
 10
15.7151058877
 20
14.8367515633
 30
0.0
 10
15.7081995121
 20
14.8244429272
 30
0.0
 10
15.6997839619
 20
14.8097349679
 30
0.0
 10
15.6912814468
 20
14.7950693912
 30
0.0
 10
15.6798838755
 20
14.7755554342
 30
0.0
 10
15.6655961883
 20
14.751229578
 30
0.0
 10
15.6544161692
 20
14.7316323121
 30
0.0
 10
15.648968516
 20
14.7217729213
 30
0.0
  0
SPLINE
  5
244
100
AcDbEntity
  8
0
100
AcDbSpline
 62
7
  6
BYLAYER
 70
0
 71
3
 72
11
 73
7
 74
0
 42
0.0000001
 43
0.0000001
 44
0.0000000001
 40
0.0
 40
0.0
 40
0.0
 40
0.0
 40
0.2499872835
 40
0.5000324651
 40
0.7500159812
 40
1.0
 40
1.0
 40
1.0
 40
1.0
 10
11.4159538492
 20
12.3755142023
 30
0.0
 10
11.682313965
 20
12.3923321385
 30
0.0
 10
12.2133956269
 20
12.464314097
 30
0.0
 10
12.9865724585
 20
12.6820230213
 30
0.0
 10
13.7216280391
 20
13.0060607484
 30
0.0
 10
14.1763467575
 20
13.2897087013
 30
0.0
 10
14.3920234927
 20
13.4469099725
 30
0.0
  0
SPLINE
  5
245
100
AcDbEntity
  8
0
100
AcDbSpline
 62
7
  6
BYLAYER
 70
0
 71
3
 72
9
 73
5
 74
0
 42
0.0000001
 43
0.0000001
 44
0.0000000001
 40
0.0
 40
0.0
 40
0.0
 40
0.0
 40
0.5000633719
 40
1.0
 40
1.0
 40
1.0
 40
1.0
 10
14.3920234927
 20
13.4469099725
 30
0.0
 10
14.6339931824
 20
13.6232755077
 30
0.0
 10
15.0901110235
 20
14.0156430168
 30
0.0
 10
15.476918419
 20
14.476808728
 30
0.0
 10
15.648968516
 20
14.7217729213
 30
0.0
  0
SPLINE
  5
246
100
AcDbEntity
  8
0
100
AcDbSpline
 62
7
  6
BYLAYER
 70
0
 71
3
 72
13
 73
9
 74
0
 42
0.0000001
 43
0.0000001
 44
0.0000000001
 40
0.0
 40
0.0
 40
0.0
 40
0.0
 40
0.2499284388
 40
0.374981154
 40
0.4999964926
 40
0.6250190856
 40
0.7500860041
 40
1.0
 40
1.0
 40
1.0
 40
1.0
 10
5.0513478514
 20
9.8051696567
 30
0.0
 10
5.3090122996
 20
9.5681421402
 30
0.0
 10
5.7168518554
 20
9.2345935706
 30
0.0
 10
6.2962690553
 20
8.8405940013
 30
0.0
 10
6.747813366
 20
8.5712781057
 30
0.0
 10
7.2144437643
 20
8.3290027664
 30
0.0
 10
7.8541186564
 20
8.0430709641
 30
0.0
 10
8.3522822254
 20
7.8713074373
 30
0.0
 10
8.689603517
 20
7.7776421207
 30
0.0
  0
ENDSEC
  0
SECTION
  2
OBJECTS
  0
DICTIONARY
  5
C
100
AcDbDictionary
280
0
281
1
  3
ACAD_GROUP
350
D
  3
ACAD_MLINESTYLE
350
17
  3
ACAD_LAYOUT
350
1A
  3
ACAD_PLOTSETTINGS
350
19
  3
ACAD_PLOTSTYLENAME
350
E
  0
DICTIONARY
  5
D
102
{ACAD_REACTORS
330
C
102
}
100
AcDbDictionary
280
0
281
1
  0
ACDBDICTIONARYWDFLT
  5
E
102
{ACAD_REACTORS
330
C
102
}
100
AcDbDictionary
281
1
  3
Normal
350
F
100
AcDbDictionaryWithDefault
340
F
  0
DICTIONARY
  5
17
102
{ACAD_REACTORS
330
C
102
}
100
AcDbDictionary
280
0
281
1
  3
Standard
350
18
  0
DICTIONARY
  5
19
102
{ACAD_REACTORS
330
C
102
}
100
AcDbDictionary
281
1
  0
DICTIONARY
  5
1A
102
{ACAD_REACTORS
330
C
102
}
100
AcDbDictionary
281
1
  3
Model
350
247
  3
Layout1
350
248
  0
ACDBPLACEHOLDER
  5
F
102
{ACAD_REACTORS
330
E
102
}
  0
MLINESTYLE
  5
18
102
{ACAD_REACTORS
330
17
102
}
100
AcDbMlineStyle
  2
STANDARD
 70
0
  3

 62
256
 51
90.0
 52
90.0
 71
2
 49
0.5
 62
256
  6
BYLAYER
 49
-0.5
 62
256
  6
BYLAYER
  0
LAYOUT
  5
247
102
{ACAD_REACTORS
330
1A
102
}
100
AcDbPlotSettings
  1

  2
none_device
  4

  6

 40
0.0
 41
0.0
 42
0.0
 43
0.0
 44
210.0
 45
297.0
 46
0.0
 47
0.0
 48
0.0
 49
0.0
140
0.0
141
0.0
142
1.0
143
1.0
 70
1024
 72
1
 73
0
 74
0
  7

 75
0
147
1.0
148
0.0
149
0.0
100
AcDbLayout
  1
Model
 70
0
 71
0
 10
0.0
 20
0.0
 11
210.0
 21
297.0
 12
0.0
 22
0.0
 32
0.0
 14
0.0
 24
0.0
 34
0.0
 15
0.0
 25
0.0
 35
0.0
146
0.0
 13
0.0
 23
0.0
 33
0.0
 16
1.0
 26
0.0
 36
0.0
 17
0.0
 27
1.0
 37
0.0
 76
0
330
210
345
0
346
0
  0
LAYOUT
  5
248
102
{ACAD_REACTORS
330
1A
102
}
100
AcDbPlotSettings
  1

  2
none_device
  4

  6

 40
0.0
 41
0.0
 42
0.0
 43
0.0
 44
210.0
 45
297.0
 46
0.0
 47
0.0
 48
0.0
 49
0.0
140
0.0
141
0.0
142
1.0
143
1.0
 70
0
 72
1
 73
0
 74
0
  7

 75
0
147
1.0
148
0.0
149
0.0
100
AcDbLayout
  1
Layout1
 70
0
 71
1
 10
0.0
 20
0.0
 11
210.0
 21
297.0
 12
0.0
 22
0.0
 32
0.0
 14
0.0
 24
0.0
 34
0.0
 15
0.0
 25
0.0
 35
0.0
146
0.0
 13
0.0
 23
0.0
 33
0.0
 16
1.0
 26
0.0
 36
0.0
 17
0.0
 27
1.0
 37
0.0
 76
0
330
211
345
0
346
0
  0
ENDSEC
  0
EOF
