999
DXF file: C:\Users\sesa63760\Dev\_Creo\CAD\MCADID0003882_3D-CAD\drw0001_7.dxf
999
Pro/ENGINEER 2019471 by Parametric Technology Corporation
  0
SECTION
  2
HEADER
  9
$ACADVER
  1
AC1024
  9
$DWGCODEPAGE
  3
ANSI_1252
  9
$EXTMAX
 10
33.0101010101
 20
46.6857142857
 30
0.0
  9
$EXTMIN
 10
0.0
 20
0.0
 30
0.0
  9
$LIMMIN
 10
0.0
 20
0.0
  9
$LIMMAX
 10
33.0101010101
 20
46.6857142857
  9
$VIEWCTR
 10
16.5050505051
 20
23.3428571429
  9
$VIEWSIZE
 40
46.6857142857
  9
$CLAYER
  8
0
  9
$LTSCALE
 40
3.0432169312
  9
$CELTYPE
  6
BYLAYER
  9
$DIMSCALE
 40
1.0
  9
$DIMASZ
 40
0.392977393
  9
$DIMEXO
 40
1.0
  9
$DIMDLI
 40
2.1025862434
  9
$DIMEXE
 40
1.0
  9
$DIMCEN
 40
0.4979809524
  9
$DIMLFAC
 40
1.0
  9
$DIMBLK
  1
_FILLED
  9
$DIMALT
 70
0
  9
$DIMALTF
 40
0.0393700787
  9
$DIMTXT
 40
0.5501683502
  9
$DIMTOL
 70
1
  9
$DIMLIM
 70
0
  9
$DIMTFAC
 40
1.0
  9
$DIMTP
 40
0.01
  9
$DIMTM
 40
0.01
  9
$DIMGAP
 40
0.625
  9
$DIMDSEP
 70
46
  9
$AUNITS
 70
0
  9
$PDMODE
 70
3
  9
$PDSIZE
 40
0.3125
  9
$HANDSEED
  5
26B
  9
$TILEMODE
 70
1
  9
$MEASUREMENT
 70
1
  9
$INSUNITS
 70
4
  0
ENDSEC
  0
SECTION
  2
CLASSES
  0
CLASS
  1
ACDBDICTIONARYWDFLT
  2
AcDbDictionaryWithDefault
  3
AutoCAD 2000
 90
0
 91
1
280
0
281
0
  0
CLASS
  1
ACDBPLACEHOLDER
  2
AcDbPlaceHolder
  3
AutoCAD 2000
 90
0
 91
1
280
0
281
0
  0
CLASS
  1
LAYOUT
  2
AcDbLayout
  3
AutoCAD 2000
 90
0
 91
0
280
0
281
0
  0
ENDSEC
  0
SECTION
  2
TABLES
  0
TABLE
  2
VPORT
  5
8
100
AcDbSymbolTable
 70
2
  0
VPORT
  5
1F4
100
AcDbSymbolTableRecord
100
AcDbViewportTableRecord
  2
*ACTIVE
 70
0
 10
0.0
 20
0.0
 11
1.0
 21
1.0
 12
16.5050505051
 22
23.3428571429
 13
0.0
 23
0.0
 14
1.0
 24
1.0
 15
0.0
 25
0.0
 16
0.0
 26
0.0
 36
1.0
 17
0.0
 27
0.0
 37
0.0
 40
46.6857142857
 41
0.7070707071
 42
50.0
 43
0.0
 44
0.0
 50
0.0
 51
0.0
 71
0
 72
100
 73
1
 74
1
 75
0
 76
0
 77
0
 78
0
  0
ENDTAB
  0
TABLE
  2
LTYPE
  5
5
100
AcDbSymbolTable
 70
6
  0
LTYPE
  5
14
100
AcDbSymbolTableRecord
100
AcDbLinetypeTableRecord
  2
BYBLOCK
 70
0
  3

 72
65
 73
0
 40
0.0
  0
LTYPE
  5
15
100
AcDbSymbolTableRecord
100
AcDbLinetypeTableRecord
  2
BYLAYER
 70
0
  3

 72
65
 73
0
 40
0.0
  0
LTYPE
  5
16
100
AcDbSymbolTableRecord
100
AcDbLinetypeTableRecord
  2
CONTINUOUS
 70
64
  3
Solid line
 72
65
 73
0
 40
0.0
  0
LTYPE
  5
1F5
100
AcDbSymbolTableRecord
100
AcDbLinetypeTableRecord
  2
CENTER
 70
64
  3
____ _ ____ _ ____ _ ____ _ ____ _ ____ _ ____
 72
65
 73
4
 40
0.6
 49
0.375
 74
0
 49
-0.075
 74
0
 49
0.075
 74
0
 49
-0.075
 74
0
  0
LTYPE
  5
1F6
100
AcDbSymbolTableRecord
100
AcDbLinetypeTableRecord
  2
HIDDEN
 70
64
  3
- - - - - - - - - - - - - - - - - - - -
 72
65
 73
2
 40
0.2
 49
0.1
 74
0
 49
-0.1
 74
0
  0
LTYPE
  5
1F7
100
AcDbSymbolTableRecord
100
AcDbLinetypeTableRecord
  2
PHANTOM
 70
64
  3
_____ _ _ _____ _ _ _____ _ _ _____
 72
65
 73
6
 40
0.8
 49
0.45
 74
0
 49
-0.05
 74
0
 49
0.1
 74
0
 49
-0.05
 74
0
 49
0.1
 74
0
 49
-0.05
 74
0
  0
LTYPE
  5
1F8
100
AcDbSymbolTableRecord
100
AcDbLinetypeTableRecord
  2
DOT
 70
64
  3
. . . . . . . . . . . . . . . . . . . .
 72
65
 73
2
 40
0.2
 49
0.1
 74
0
 49
-0.1
 74
0
  0
LTYPE
  5
1F9
100
AcDbSymbolTableRecord
100
AcDbLinetypeTableRecord
  2
DASHED
 70
64
  3
- - - - - - - - - - - - - - - - - - - -
 72
65
 73
2
 40
0.2
 49
0.1
 74
0
 49
-0.1
 74
0
  0
ENDTAB
  0
TABLE
  2
LAYER
  5
2
100
AcDbSymbolTable
 70
36
  0
LAYER
  5
10
100
AcDbSymbolTableRecord
100
AcDbLayerTableRecord
  2
0
 70
0
 62
7
  6
CONTINUOUS
370
-3
390
F
  0
LAYER
  5
1FA
100
AcDbSymbolTableRecord
100
AcDbLayerTableRecord
  2
DEFAULT_1
 70
0
 62
7
  6
CENTER
370
-3
390
F
  0
LAYER
  5
1FB
100
AcDbSymbolTableRecord
100
AcDbLayerTableRecord
  2
DEFAULT_2
 70
0
 62
7
  6
HIDDEN
370
-3
390
F
  0
LAYER
  5
1FC
100
AcDbSymbolTableRecord
100
AcDbLayerTableRecord
  2
DEFAULT_3
 70
0
 62
7
  6
PHANTOM
370
-3
390
F
  0
LAYER
  5
1FD
100
AcDbSymbolTableRecord
100
AcDbLayerTableRecord
  2
00_COMPONENTS
 70
0
 62
7
  6
CONTINUOUS
370
-3
390
F
  0
LAYER
  5
1FE
100
AcDbSymbolTableRecord
100
AcDbLayerTableRecord
  2
01_1_DEFAULT_DATUMS
 70
0
 62
7
  6
CONTINUOUS
370
-3
390
F
  0
LAYER
  5
1FF
100
AcDbSymbolTableRecord
100
AcDbLayerTableRecord
  2
01_PLANES
 70
0
 62
7
  6
CONTINUOUS
370
-3
390
F
  0
LAYER
  5
200
100
AcDbSymbolTableRecord
100
AcDbLayerTableRecord
  2
02_COORD_SYS
 70
0
 62
7
  6
CONTINUOUS
370
-3
390
F
  0
LAYER
  5
201
100
AcDbSymbolTableRecord
100
AcDbLayerTableRecord
  2
03_AXES
 70
0
 62
7
  6
CONTINUOUS
370
-3
390
F
  0
LAYER
  5
202
100
AcDbSymbolTableRecord
100
AcDbLayerTableRecord
  2
04_POINTS
 70
0
 62
7
  6
CONTINUOUS
370
-3
390
F
  0
LAYER
  5
203
100
AcDbSymbolTableRecord
100
AcDbLayerTableRecord
  2
05_CURVES
 70
0
 62
7
  6
CONTINUOUS
370
-3
390
F
  0
LAYER
  5
204
100
AcDbSymbolTableRecord
100
AcDbLayerTableRecord
  2
06_SURFS
 70
0
 62
7
  6
CONTINUOUS
370
-3
390
F
  0
LAYER
  5
205
100
AcDbSymbolTableRecord
100
AcDbLayerTableRecord
  2
07_COSMETICS
 70
0
 62
7
  6
CONTINUOUS
370
-3
390
F
  0
LAYER
  5
206
100
AcDbSymbolTableRecord
100
AcDbLayerTableRecord
  2
10_NOTES
 70
0
 62
7
  6
CONTINUOUS
370
-3
390
F
  0
LAYER
  5
207
100
AcDbSymbolTableRecord
100
AcDbLayerTableRecord
  2
11_NOTES_PUB
 70
0
 62
7
  6
CONTINUOUS
370
-3
390
F
  0
LAYER
  5
208
100
AcDbSymbolTableRecord
100
AcDbLayerTableRecord
  2
13_REF_GTOL
 70
0
 62
7
  6
CONTINUOUS
370
-3
390
F
  0
LAYER
  5
209
100
AcDbSymbolTableRecord
100
AcDbLayerTableRecord
  2
16_MISC
 70
0
 62
7
  6
CONTINUOUS
370
-3
390
F
  0
LAYER
  5
20A
100
AcDbSymbolTableRecord
100
AcDbLayerTableRecord
  2
17_NO_PRINT
 70
0
 62
7
  6
CONTINUOUS
370
-3
390
F
  0
LAYER
  5
20B
100
AcDbSymbolTableRecord
100
AcDbLayerTableRecord
  2
18_DATUM_CAMS_JOINTS
 70
0
 62
7
  6
CONTINUOUS
370
-3
390
F
  0
LAYER
  5
20C
100
AcDbSymbolTableRecord
100
AcDbLayerTableRecord
  2
19_DATUM_FUNCTIONAL
 70
0
 62
7
  6
CONTINUOUS
370
-3
390
F
  0
LAYER
  5
20D
100
AcDbSymbolTableRecord
100
AcDbLayerTableRecord
  2
20_DATUM_KINEMATIC_SCHEME
 70
0
 62
7
  6
CONTINUOUS
370
-3
390
F
  0
ENDTAB
  0
TABLE
  2
STYLE
  5
3
100
AcDbSymbolTable
 70
1
  0
STYLE
  5
11
100
AcDbSymbolTableRecord
100
AcDbTextStyleTableRecord
  2
STANDARD
 70
0
 40
0.0
 41
1.0
 50
0.0
 71
0
 42
0.2
  3
ARIAL.TTF
  4

  0
STYLE
  5
20E
100
AcDbSymbolTableRecord
100
AcDbTextStyleTableRecord
  2
TEXTSTYLE_1
 70
0
 40
0.0
 41
0.8
 50
0.0
 71
0
 42
0.2
  3
gdt
  4

  0
ENDTAB
  0
TABLE
  2
VIEW
  5
6
100
AcDbSymbolTable
 70
0
  0
ENDTAB
  0
TABLE
  2
UCS
  5
7
100
AcDbSymbolTable
 70
0
  0
ENDTAB
  0
TABLE
  2
APPID
  5
9
100
AcDbSymbolTable
 70
1
  0
APPID
  5
20F
100
AcDbSymbolTableRecord
100
AcDbRegAppTableRecord
  2
ACAD
 70
0
  0
ENDTAB
  0
TABLE
  2
BLOCK_RECORD
  5
1
100
AcDbSymbolTable
 70
0
  0
BLOCK_RECORD
  5
210
100
AcDbSymbolTableRecord
100
AcDbBlockTableRecord
  2
*Model_Space
  0
BLOCK_RECORD
  5
211
100
AcDbSymbolTableRecord
100
AcDbBlockTableRecord
  2
*Paper_Space
  0
BLOCK_RECORD
  5
212
100
AcDbSymbolTableRecord
100
AcDbBlockTableRecord
  2
_FILLED
  0
ENDTAB
  0
TABLE
  2
DIMSTYLE
  5
A
100
AcDbSymbolTable
 70
1
100
AcDbDimStyleTable
 71
0
  0
DIMSTYLE
105
213
100
AcDbSymbolTableRecord
100
AcDbDimStyleTableRecord
  2
STANDARD
 70
0
  3

  4

 40
1.0
 41
0.392977393
 42
1.0
 43
0.38
 44
1.0
 45
0.0
 46
0.0
 47
0.01
 48
0.01
140
0.5501683502
141
0.09
142
0.0
143
25.4
144
1.0
145
0.0
146
1.0
147
0.625
 71
1
 72
0
 73
0
 74
0
 75
0
 76
0
 77
1
 78
8
 79
2
170
0
171
1
172
0
173
0
174
0
175
0
176
0
177
0
178
0
270
2
179
2
271
2
272
2
273
2
274
2
275
0
280
0
281
0
282
0
283
1
284
8
285
0
286
0
287
3
288
0
340
11
278
46
341
212
342
212
343
212
344
212
  0
ENDTAB
  0
ENDSEC
  0
SECTION
  2
BLOCKS
  0
BLOCK
  5
20
100
AcDbEntity
  8
0
100
AcDbBlockBegin
  2
*Model_Space
 70
0
 10
0.0
 20
0.0
 30
0.0
  3
*Model_Space
  1

  0
ENDBLK
  5
21
100
AcDbEntity
  8
0
100
AcDbBlockEnd
  0
BLOCK
  5
1C
100
AcDbEntity
  8
0
100
AcDbBlockBegin
  2
*Paper_Space
 70
0
 10
0.0
 20
0.0
 30
0.0
  3
*Paper_Space
  1

  0
ENDBLK
  5
1D
100
AcDbEntity
  8
0
100
AcDbBlockEnd
  0
BLOCK
  5
214
100
AcDbEntity
  8
0
100
AcDbBlockBegin
  2
_FILLED
 70
64
 10
0.0
 20
0.0
  3
_FILLED
  1

  0
SOLID
  5
215
100
AcDbEntity
  8
0
  6
BYBLOCK
 62
0
100
AcDbTrace
 10
0.0
 20
0.0
 11
-1.0
 21
0.25
 12
-1.0
 22
-0.25
 13
-1.0
 23
-0.25
  0
ENDBLK
  5
216
100
AcDbEntity
  8
0
  6
BYBLOCK
 62
0
100
AcDbBlockEnd
  0
ENDSEC
  0
SECTION
  2
ENTITIES
  0
LINE
  5
217
100
AcDbEntity
  8
0
100
AcDbLine
 62
7
  6
BYLAYER
 10
18.1621502912
 20
3.4571428571
 11
14.9621549109
 21
3.4571428571
  0
LINE
  5
218
100
AcDbEntity
  8
0
100
AcDbLine
 62
7
  6
BYLAYER
 10
14.2621549109
 20
43.0571428571
 11
14.0621549109
 21
42.8571428571
  0
LINE
  5
219
100
AcDbEntity
  8
0
100
AcDbLine
 62
7
  6
BYLAYER
 10
18.622079537
 20
15.4571428571
 11
14.5022302847
 21
15.4571428571
  0
LINE
  5
21A
100
AcDbEntity
  8
0
100
AcDbLine
 62
7
  6
BYLAYER
 10
12.5621549109
 20
34.4571428571
 11
12.5621549109
 21
30.4571428571
  0
LINE
  5
21B
100
AcDbEntity
  8
0
100
AcDbLine
 62
7
  6
BYLAYER
 10
12.5621549109
 20
36.4571428571
 11
12.5621549109
 21
40.4571428571
  0
LINE
  5
21C
100
AcDbEntity
  8
0
100
AcDbLine
 62
7
  6
BYLAYER
 10
18.862079509
 20
19.5571428571
 11
14.2622303128
 21
19.5571428571
  0
LINE
  5
21D
100
AcDbEntity
  8
0
100
AcDbLine
 62
7
  6
BYLAYER
 10
14.2621549109
 20
19.5571428571
 11
14.0621549109
 21
19.7571428571
  0
LINE
  5
21E
100
AcDbEntity
  8
0
100
AcDbLine
 62
7
  6
BYLAYER
 10
12.9951676128
 20
34.2318558867
 11
12.9951676128
 21
30.6824298275
  0
LINE
  5
21F
100
AcDbEntity
  8
0
100
AcDbLine
 62
7
  6
BYLAYER
 10
12.9951676128
 20
36.6824294369
 11
12.9951676128
 21
40.2318562774
  0
LINE
  5
220
100
AcDbEntity
  8
0
100
AcDbLine
 62
7
  6
BYLAYER
 10
13.9121549109
 20
26.2571428571
 11
13.9121549109
 21
25.2571428571
  0
LINE
  5
221
100
AcDbEntity
  8
0
100
AcDbLine
 62
7
  6
BYLAYER
 10
19.0621549109
 20
19.7571428571
 11
14.0621549109
 21
19.7571428571
  0
LINE
  5
222
100
AcDbEntity
  8
0
100
AcDbLine
 62
7
  6
BYLAYER
 10
14.0621549109
 20
42.8571428571
 11
14.0621549109
 21
40.4571428571
  0
LINE
  5
223
100
AcDbEntity
  8
0
100
AcDbLine
 62
7
  6
BYLAYER
 10
14.0621549109
 20
36.4571428571
 11
14.0621549109
 21
34.4571428571
  0
LINE
  5
224
100
AcDbEntity
  8
0
100
AcDbLine
 62
7
  6
BYLAYER
 10
14.0621549109
 20
30.4571428571
 11
14.0621549109
 21
26.2571428571
  0
LINE
  5
225
100
AcDbEntity
  8
0
100
AcDbLine
 62
7
  6
BYLAYER
 10
14.0621549109
 20
25.2571428571
 11
14.0621549109
 21
19.7571428571
  0
LINE
  5
226
100
AcDbEntity
  8
0
100
AcDbLine
 62
7
  6
BYLAYER
 10
14.5021549109
 20
19.5571428571
 11
14.5021549109
 21
15.4571428571
  0
LINE
  5
227
100
AcDbEntity
  8
0
100
AcDbLine
 62
7
  6
BYLAYER
 10
14.5621549109
 20
43.2571428571
 11
14.5621549109
 21
43.0571428571
  0
LINE
  5
228
100
AcDbEntity
  8
0
100
AcDbLine
 62
7
  6
BYLAYER
 10
14.9621549109
 20
3.4571428571
 11
14.9621549109
 21
15.4571428571
  0
LINE
  5
229
100
AcDbEntity
  8
0
100
AcDbLine
 62
7
  6
BYLAYER
 10
15.9376551111
 20
43.0571428571
 11
15.9376551111
 21
43.2571428571
  0
LINE
  5
22A
100
AcDbEntity
  8
0
100
AcDbLine
 62
7
  6
BYLAYER
 10
16.129142209
 20
34.2318562594
 11
16.129142209
 21
30.6824294549
  0
LINE
  5
22B
100
AcDbEntity
  8
0
100
AcDbLine
 62
7
  6
BYLAYER
 10
16.129142209
 20
36.6824298387
 11
16.129142209
 21
40.2318558756
  0
LINE
  5
22C
100
AcDbEntity
  8
0
100
AcDbLine
 62
7
  6
BYLAYER
 10
16.821962532
 20
34.1821231473
 11
16.821962532
 21
30.7321625669
  0
LINE
  5
22D
100
AcDbEntity
  8
0
100
AcDbLine
 62
7
  6
BYLAYER
 10
16.821962532
 20
36.7321623039
 11
16.821962532
 21
40.1821234104
  0
LINE
  5
22E
100
AcDbEntity
  8
0
100
AcDbLine
 62
7
  6
BYLAYER
 10
17.1866547107
 20
43.2571428571
 11
17.1866547107
 21
43.0571428571
  0
LINE
  5
22F
100
AcDbEntity
  8
0
100
AcDbLine
 62
7
  6
BYLAYER
 10
18.1621549109
 20
3.4571428571
 11
18.1621549109
 21
15.4571428571
  0
LINE
  5
230
100
AcDbEntity
  8
0
100
AcDbLine
 62
7
  6
BYLAYER
 10
18.5621549109
 20
43.2571428571
 11
18.5621549109
 21
43.0571428571
  0
LINE
  5
231
100
AcDbEntity
  8
0
100
AcDbLine
 62
7
  6
BYLAYER
 10
18.6221549109
 20
19.5571428571
 11
18.6221549109
 21
15.4571428571
  0
LINE
  5
232
100
AcDbEntity
  8
0
100
AcDbLine
 62
7
  6
BYLAYER
 10
19.0621549109
 20
42.8571428571
 11
19.0621549109
 21
40.4571428571
  0
LINE
  5
233
100
AcDbEntity
  8
0
100
AcDbLine
 62
7
  6
BYLAYER
 10
19.0621549109
 20
36.4571428571
 11
19.0621549109
 21
34.4571428571
  0
LINE
  5
234
100
AcDbEntity
  8
0
100
AcDbLine
 62
7
  6
BYLAYER
 10
19.0621549109
 20
30.4571428571
 11
19.0621549109
 21
19.7571428571
  0
LINE
  5
235
100
AcDbEntity
  8
0
100
AcDbLine
 62
7
  6
BYLAYER
 10
14.0621549109
 20
25.2571428571
 11
13.9121549109
 21
25.2571428571
  0
LINE
  5
236
100
AcDbEntity
  8
0
100
AcDbLine
 62
7
  6
BYLAYER
 10
14.0621549109
 20
26.2571428571
 11
13.9121549109
 21
26.2571428571
  0
LINE
  5
237
100
AcDbEntity
  8
0
100
AcDbLine
 62
7
  6
BYLAYER
 10
20.3023472898
 20
34.1821234029
 11
20.3023472898
 21
30.7321623114
  0
LINE
  5
238
100
AcDbEntity
  8
0
100
AcDbLine
 62
7
  6
BYLAYER
 10
20.3023472898
 20
36.7321625717
 11
20.3023472898
 21
40.1821231425
  0
LINE
  5
239
100
AcDbEntity
  8
0
100
AcDbLine
 62
7
  6
BYLAYER
 10
20.5621549109
 20
30.4571428571
 11
20.5621549109
 21
34.4571428571
  0
LINE
  5
23A
100
AcDbEntity
  8
0
100
AcDbLine
 62
7
  6
BYLAYER
 10
20.5621549109
 20
36.4571428571
 11
20.5621549109
 21
40.4571428571
  0
LINE
  5
23B
100
AcDbEntity
  8
0
100
AcDbLine
 62
7
  6
BYLAYER
 10
18.8621549109
 20
19.5571428571
 11
19.0621549109
 21
19.7571428571
  0
LINE
  5
23C
100
AcDbEntity
  8
0
100
AcDbLine
 62
7
  6
BYLAYER
 10
20.5621549109
 20
30.4571428571
 11
12.5621549109
 21
30.4571428571
  0
LINE
  5
23D
100
AcDbEntity
  8
0
100
AcDbLine
 62
7
  6
BYLAYER
 10
12.5621549109
 20
34.4571428571
 11
20.5621549109
 21
34.4571428571
  0
LINE
  5
23E
100
AcDbEntity
  8
0
100
AcDbLine
 62
7
  6
BYLAYER
 10
20.5621549109
 20
36.4571428571
 11
12.5621549109
 21
36.4571428571
  0
LINE
  5
23F
100
AcDbEntity
  8
0
100
AcDbLine
 62
7
  6
BYLAYER
 10
18.8621549109
 20
43.0571428571
 11
19.0621549109
 21
42.8571428571
  0
LINE
  5
240
100
AcDbEntity
  8
0
100
AcDbLine
 62
7
  6
BYLAYER
 10
12.5621549109
 20
40.4571428571
 11
20.5621549109
 21
40.4571428571
  0
LINE
  5
241
100
AcDbEntity
  8
0
100
AcDbLine
 62
7
  6
BYLAYER
 10
14.0621549109
 20
42.8571428571
 11
19.0621549109
 21
42.8571428571
  0
LINE
  5
242
100
AcDbEntity
  8
0
100
AcDbLine
 62
7
  6
BYLAYER
 10
14.2621549109
 20
43.0571428571
 11
18.8620564071
 21
43.0571428571
  0
LINE
  5
243
100
AcDbEntity
  8
0
100
AcDbLine
 62
7
  6
BYLAYER
 10
14.5621549109
 20
43.2571428571
 11
15.9376551111
 21
43.2571428571
  0
LINE
  5
244
100
AcDbEntity
  8
0
100
AcDbLine
 62
7
  6
BYLAYER
 10
17.1866547107
 20
43.2571428571
 11
18.5621549109
 21
43.2571428571
  0
LINE
  5
245
100
AcDbEntity
  8
0
100
AcDbLine
 62
7
  6
BYLAYER
 10
14.7621549109
 20
43.4571428571
 11
18.3621389206
 21
43.4571428571
  0
ARC
  5
246
100
AcDbEntity
  8
0
100
AcDbCircle
 62
7
  6
BYLAYER
 10
15.9222688803
 20
32.5000908715
 40
7.7345466833
100
AcDbArc
 50
83.3201422837
 51
88.4673433891
  0
ARC
  5
247
100
AcDbEntity
  8
0
100
AcDbCircle
 62
7
  6
BYLAYER
 10
15.925260058
 20
38.3720574584
 40
7.6923336582
100
AcDbArc
 50
271.5187796579
 51
276.6942377489
  0
ARC
  5
248
100
AcDbEntity
  8
0
100
AcDbCircle
 62
7
  6
BYLAYER
 10
15.925260058
 20
26.5422282599
 40
7.6923336542
100
AcDbArc
 50
83.3057622481
 51
88.4812203419
  0
ARC
  5
249
100
AcDbEntity
  8
0
100
AcDbCircle
 62
7
  6
BYLAYER
 10
15.9253866223
 20
44.3697693192
 40
7.6900377601
100
AcDbArc
 50
271.5182888562
 51
276.6952885036
  0
ARC
  5
24A
100
AcDbEntity
  8
0
100
AcDbCircle
 62
7
  6
BYLAYER
 10
18.3621549109
 20
43.2571428571
 40
0.2
100
AcDbArc
 50
0.0
 51
90.0
  0
ARC
  5
24B
100
AcDbEntity
  8
0
100
AcDbCircle
 62
7
  6
BYLAYER
 10
14.7621549109
 20
43.2571428571
 40
0.2
100
AcDbArc
 50
90.0
 51
180.0
  0
SPLINE
  5
24C
100
AcDbEntity
  8
0
100
AcDbSpline
 62
7
  6
BYLAYER
 70
0
 71
3
 72
50
 73
46
 74
0
 42
0.0000001
 43
0.0000001
 44
0.0000000001
 40
0.0
 40
0.0
 40
0.0
 40
0.0
 40
0.0156397712
 40
0.0234814912
 40
0.0313141856
 40
0.0391564772
 40
0.0469853788
 40
0.0626184974
 40
0.0782446985
 40
0.0938788786
 40
0.125113146
 40
0.1407364485
 40
0.156359596
 40
0.1875991865
 40
0.218839288
 40
0.2500793512
 40
0.281319232
 40
0.3125590172
 40
0.343798764
 40
0.3750384907
 40
0.4062780805
 40
0.4375176893
 40
0.4687572219
 40
0.4999967784
 40
0.5312362968
 40
0.5624758892
 40
0.6249531944
 40
0.6561928693
 40
0.6874327167
 40
0.7186724854
 40
0.7499124249
 40
0.7811524126
 40
0.8123926332
 40
0.8436326296
 40
0.8748725261
 40
0.8904967787
 40
0.906121552
 40
0.9217517279
 40
0.9373801692
 40
0.9530164404
 40
0.9608424388
 40
0.9686827581
 40
0.9765169178
 40
0.9843612361
 40
1.0
 40
1.0
 40
1.0
 40
1.0
 10
17.1866547107
 20
43.2571428571
 30
0.0
 10
17.1866547107
 20
43.2642726959
 30
0.0
 10
17.1847170282
 20
43.2750572533
 30
0.0
 10
17.1790925307
 20
43.2882060095
 30
0.0
 10
17.1735768208
 20
43.2974353961
 30
0.0
 10
17.1671082722
 20
43.3059964555
 30
0.0
 10
17.1575462068
 20
43.3166097811
 30
0.0
 10
17.1441104125
 20
43.3284139904
 30
0.0
 10
17.1264183141
 20
43.3404784181
 30
0.0
 10
17.1015393375
 20
43.3544093084
 30
0.0
 10
17.0754014856
 20
43.3659114229
 30
0.0
 10
17.0485951817
 20
43.3755512068
 30
0.0
 10
17.021438208
 20
43.3841721239
 30
0.0
 10
16.9869974926
 20
43.3932899672
 30
0.0
 10
16.9451714429
 20
43.4020802181
 30
0.0
 10
16.9030146911
 20
43.4090836097
 30
0.0
 10
16.860667788
 20
43.4147919039
 30
0.0
 10
16.8181891941
 20
43.4194101495
 30
0.0
 10
16.7756171388
 20
43.4230562649
 30
0.0
 10
16.7329808172
 20
43.42583914
 30
0.0
 10
16.6903037414
 20
43.4278868944
 30
0.0
 10
16.6476021413
 20
43.4293221806
 30
0.0
 10
16.6048848987
 20
43.4301719847
 30
0.0
 10
16.5621601953
 20
43.4304434
 30
0.0
 10
16.5194355337
 20
43.4301498518
 30
0.0
 10
16.462480533
 20
43.4290492236
 30
0.0
 10
16.4055486157
 20
43.4268029449
 30
0.0
 10
16.3487049919
 20
43.4230393497
 30
0.0
 10
16.3061334403
 20
43.4193895504
 30
0.0
 10
16.2636530423
 20
43.4147878046
 30
0.0
 10
16.2213073269
 20
43.4090654392
 30
0.0
 10
16.17915971
 20
43.4020124963
 30
0.0
 10
16.1373250309
 20
43.393259592
 30
0.0
 10
16.0959943987
 20
43.3823498218
 30
0.0
 10
16.062197849
 20
43.3710178341
 30
0.0
 10
16.0358481676
 20
43.3601616106
 30
0.0
 10
16.0165561019
 20
43.3509374107
 30
0.0
 10
15.9979160884
 20
43.3404359514
 30
0.0
 10
15.9802581691
 20
43.3283290553
 30
0.0
 10
15.9667593554
 20
43.3165999988
 30
0.0
 10
15.9571587403
 20
43.3060203438
 30
0.0
 10
15.9506939149
 20
43.2974569977
 30
0.0
 10
15.945198992
 20
43.2882137618
 30
0.0
 10
15.9395971879
 20
43.2750549681
 30
0.0
 10
15.9376551111
 20
43.2642722367
 30
0.0
 10
15.9376551111
 20
43.2571428571
 30
0.0
  0
SPLINE
  5
24D
100
AcDbEntity
  8
0
100
AcDbSpline
 62
7
  6
BYLAYER
 70
0
 71
3
 72
11
 73
7
 74
0
 42
0.0000001
 43
0.0000001
 44
0.0000000001
 40
0.0
 40
0.0
 40
0.0
 40
0.0
 40
0.2509833123
 40
0.5011812377
 40
0.7507630403
 40
1.0
 40
1.0
 40
1.0
 40
1.0
 10
12.9951676128
 20
40.2318558867
 30
0.0
 10
13.1232448014
 20
40.2670467377
 30
0.0
 10
13.380900988
 20
40.3306648782
 30
0.0
 10
13.7719718773
 20
40.4023582553
 30
0.0
 10
14.1661679246
 20
40.4469953607
 30
0.0
 10
14.4302554087
 20
40.4571425179
 30
0.0
 10
14.5621550164
 20
40.457141785
 30
0.0
  0
SPLINE
  5
24E
100
AcDbEntity
  8
0
100
AcDbSpline
 62
7
  6
BYLAYER
 70
0
 71
3
 72
10
 73
6
 74
0
 42
0.0000001
 43
0.0000001
 44
0.0000000001
 40
0.0
 40
0.0
 40
0.0
 40
0.0
 40
0.2539651969
 40
0.504879415
 40
1.0
 40
1.0
 40
1.0
 40
1.0
 10
20.3023472898
 20
40.1821234029
 30
0.0
 10
20.3237698765
 20
40.1887902495
 30
0.0
 10
20.3667174467
 20
40.2009353473
 30
0.0
 10
20.4529741243
 20
40.2201474803
 30
0.0
 10
20.5185191779
 20
40.22883244
 30
0.0
 10
20.5621549109
 20
40.2318557679
 30
0.0
  0
SPLINE
  5
24F
100
AcDbEntity
  8
0
100
AcDbSpline
 62
7
  6
BYLAYER
 70
0
 71
3
 72
10
 73
6
 74
0
 42
0.0000001
 43
0.0000001
 44
0.0000000001
 40
0.0
 40
0.0
 40
0.0
 40
0.0
 40
0.495120585
 40
0.7460348031
 40
1.0
 40
1.0
 40
1.0
 40
1.0
 10
20.5621549109
 20
36.6824299464
 30
0.0
 10
20.5185191779
 20
36.6854532742
 30
0.0
 10
20.4529741243
 20
36.694138234
 30
0.0
 10
20.3667174467
 20
36.713350367
 30
0.0
 10
20.3237698765
 20
36.7254954648
 30
0.0
 10
20.3023472898
 20
36.7321623114
 30
0.0
  0
SPLINE
  5
250
100
AcDbEntity
  8
0
100
AcDbSpline
 62
7
  6
BYLAYER
 70
0
 71
3
 72
11
 73
7
 74
0
 42
0.0000001
 43
0.0000001
 44
0.0000000001
 40
0.0
 40
0.0
 40
0.0
 40
0.0
 40
0.2492369839
 40
0.4988187976
 40
0.7490167077
 40
1.0
 40
1.0
 40
1.0
 40
1.0
 10
14.5621550164
 20
40.457141785
 30
0.0
 10
14.6940546197
 20
40.4571425123
 30
0.0
 10
14.9581420883
 20
40.4469953694
 30
0.0
 10
15.3523380934
 20
40.402358245
 30
0.0
 10
15.7434089119
 20
40.3306648433
 30
0.0
 10
16.0010650475
 20
40.2670467196
 30
0.0
 10
16.129142209
 20
40.2318558756
 30
0.0
  0
SPLINE
  5
251
100
AcDbEntity
  8
0
100
AcDbSpline
 62
7
  6
BYLAYER
 70
0
 71
3
 72
11
 73
7
 74
0
 42
0.0000001
 43
0.0000001
 44
0.0000000001
 40
0.0
 40
0.0
 40
0.0
 40
0.0
 40
0.2511548903
 40
0.5014023136
 40
0.7509121937
 40
1.0
 40
1.0
 40
1.0
 40
1.0
 10
20.3023472898
 20
36.7321625717
 30
0.0
 10
20.1605661467
 20
36.6897328832
 30
0.0
 10
19.8751581364
 20
36.6125963665
 30
0.0
 10
19.441127575
 20
36.5247540612
 30
0.0
 10
19.0028766472
 20
36.4696787102
 30
0.0
 10
18.7089308013
 20
36.457143197
 30
0.0
 10
18.5621550164
 20
36.457143929
 30
0.0
  0
SPLINE
  5
252
100
AcDbEntity
  8
0
100
AcDbSpline
 62
7
  6
BYLAYER
 70
0
 71
3
 72
11
 73
7
 74
0
 42
0.0000001
 43
0.0000001
 44
0.0000000001
 40
0.0
 40
0.0
 40
0.0
 40
0.0
 40
0.2490878497
 40
0.4985977472
 40
0.7488451431
 40
1.0
 40
1.0
 40
1.0
 40
1.0
 10
18.5621550164
 20
36.457143929
 30
0.0
 10
18.4153791885
 20
36.4571431914
 30
0.0
 10
18.121433273
 20
36.4696787239
 30
0.0
 10
17.6831822691
 20
36.5247540432
 30
0.0
 10
17.2491516831
 20
36.6125963664
 30
0.0
 10
16.963743673
 20
36.6897328792
 30
0.0
 10
16.821962532
 20
36.7321625669
 30
0.0
  0
SPLINE
  5
253
100
AcDbEntity
  8
0
100
AcDbSpline
 62
7
  6
BYLAYER
 70
0
 71
3
 72
11
 73
7
 74
0
 42
0.0000001
 43
0.0000001
 44
0.0000000001
 40
0.0
 40
0.0
 40
0.0
 40
0.0
 40
0.2509833123
 40
0.5011812379
 40
0.7507630406
 40
1.0
 40
1.0
 40
1.0
 40
1.0
 10
16.129142209
 20
36.6824298387
 30
0.0
 10
16.0010650373
 20
36.6472389919
 30
0.0
 10
15.7434088847
 20
36.5836208583
 30
0.0
 10
15.3523380506
 20
36.5119274691
 30
0.0
 10
14.9581420565
 20
36.4672903465
 30
0.0
 10
14.6940546067
 20
36.4571432017
 30
0.0
 10
14.5621550164
 20
36.4571439293
 30
0.0
  0
SPLINE
  5
254
100
AcDbEntity
  8
0
100
AcDbSpline
 62
7
  6
BYLAYER
 70
0
 71
3
 72
10
 73
6
 74
0
 42
0.0000001
 43
0.0000001
 44
0.0000000001
 40
0.0
 40
0.0
 40
0.0
 40
0.0
 40
0.498697797
 40
0.7489432563
 40
1.0
 40
1.0
 40
1.0
 40
1.0
 10
12.9951676128
 20
36.6824294369
 30
0.0
 10
12.9227239888
 20
36.6854409862
 30
0.0
 10
12.8140452667
 20
36.6940406865
 30
0.0
 10
12.6699144529
 20
36.7132785816
 30
0.0
 10
12.5980361581
 20
36.7254630073
 30
0.0
 10
12.5621549109
 20
36.7321628921
 30
0.0
  0
SPLINE
  5
255
100
AcDbEntity
  8
0
100
AcDbSpline
 62
7
  6
BYLAYER
 70
0
 71
3
 72
11
 73
7
 74
0
 42
0.0000001
 43
0.0000001
 44
0.0000000001
 40
0.0
 40
0.0
 40
0.0
 40
0.0
 40
0.2492369842
 40
0.4988187978
 40
0.7490167077
 40
1.0
 40
1.0
 40
1.0
 40
1.0
 10
14.5621550164
 20
36.4571439293
 30
0.0
 10
14.4302553957
 20
36.4571431966
 30
0.0
 10
14.1661678928
 20
36.467290352
 30
0.0
 10
13.7719718345
 20
36.5119274591
 30
0.0
 10
13.3809009607
 20
36.5836208488
 30
0.0
 10
13.1232447911
 20
36.6472389794
 30
0.0
 10
12.9951676128
 20
36.6824298276
 30
0.0
  0
SPLINE
  5
256
100
AcDbEntity
  8
0
100
AcDbSpline
 62
7
  6
BYLAYER
 70
0
 71
3
 72
11
 73
7
 74
0
 42
0.0000001
 43
0.0000001
 44
0.0000000001
 40
0.0
 40
0.0
 40
0.0
 40
0.0
 40
0.2511548908
 40
0.5014023137
 40
0.7509121935
 40
1.0
 40
1.0
 40
1.0
 40
1.0
 10
16.821962532
 20
40.1821231473
 30
0.0
 10
16.9637436921
 20
40.2245528408
 30
0.0
 10
17.2491517322
 20
40.3016893816
 30
0.0
 10
17.6831823516
 20
40.3895316701
 30
0.0
 10
18.1214333344
 20
40.4446069872
 30
0.0
 10
18.415379214
 20
40.4571425233
 30
0.0
 10
18.5621550164
 20
40.4571417853
 30
0.0
  0
SPLINE
  5
257
100
AcDbEntity
  8
0
100
AcDbSpline
 62
7
  6
BYLAYER
 70
0
 71
3
 72
11
 73
7
 74
0
 42
0.0000001
 43
0.0000001
 44
0.0000000001
 40
0.0
 40
0.0
 40
0.0
 40
0.0
 40
0.2490878495
 40
0.4985977472
 40
0.7488451436
 40
1.0
 40
1.0
 40
1.0
 40
1.0
 10
18.5621550164
 20
40.4571417853
 30
0.0
 10
18.7089308268
 20
40.4571425169
 30
0.0
 10
19.0028767086
 20
40.4446070073
 30
0.0
 10
19.4411276576
 20
40.389531654
 30
0.0
 10
19.8751581855
 20
40.3016893141
 30
0.0
 10
20.1605661658
 20
40.2245528253
 30
0.0
 10
20.3023472898
 20
40.1821231425
 30
0.0
  0
SPLINE
  5
258
100
AcDbEntity
  8
0
100
AcDbSpline
 62
7
  6
BYLAYER
 70
0
 71
3
 72
10
 73
6
 74
0
 42
0.0000001
 43
0.0000001
 44
0.0000000001
 40
0.0
 40
0.0
 40
0.0
 40
0.0
 40
0.2510567437
 40
0.501302203
 40
1.0
 40
1.0
 40
1.0
 40
1.0
 10
12.5621549109
 20
40.1821228222
 30
0.0
 10
12.5980361581
 20
40.1888227069
 30
0.0
 10
12.6699144529
 20
40.2010071326
 30
0.0
 10
12.8140452667
 20
40.2202450278
 30
0.0
 10
12.9227239888
 20
40.2288447281
 30
0.0
 10
12.9951676128
 20
40.2318562774
 30
0.0
  0
SPLINE
  5
259
100
AcDbEntity
  8
0
100
AcDbSpline
 62
7
  6
BYLAYER
 70
0
 71
3
 72
11
 73
7
 74
0
 42
0.0000001
 43
0.0000001
 44
0.0000000001
 40
0.0
 40
0.0
 40
0.0
 40
0.0
 40
0.2511548903
 40
0.5014023136
 40
0.7509121937
 40
1.0
 40
1.0
 40
1.0
 40
1.0
 10
20.3023472898
 20
30.7321625717
 30
0.0
 10
20.1605661467
 20
30.6897328832
 30
0.0
 10
19.8751581364
 20
30.6125963665
 30
0.0
 10
19.441127575
 20
30.5247540612
 30
0.0
 10
19.0028766472
 20
30.4696787102
 30
0.0
 10
18.7089308013
 20
30.4571431969
 30
0.0
 10
18.5621550164
 20
30.457143929
 30
0.0
  0
SPLINE
  5
25A
100
AcDbEntity
  8
0
100
AcDbSpline
 62
7
  6
BYLAYER
 70
0
 71
3
 72
11
 73
7
 74
0
 42
0.0000001
 43
0.0000001
 44
0.0000000001
 40
0.0
 40
0.0
 40
0.0
 40
0.0
 40
0.2467836492
 40
0.4952318265
 40
0.74607373
 40
1.0
 40
1.0
 40
1.0
 40
1.0
 10
20.5621549109
 20
34.2318557679
 30
0.0
 10
20.5404006375
 20
34.2303485101
 30
0.0
 10
20.496832868
 20
34.2259203109
 30
0.0
 10
20.4317155329
 20
34.2154097139
 30
0.0
 10
20.3667066106
 20
34.2009676702
 30
0.0
 10
20.3237713729
 20
34.1887907151
 30
0.0
 10
20.3023472898
 20
34.1821234029
 30
0.0
  0
SPLINE
  5
25B
100
AcDbEntity
  8
0
100
AcDbSpline
 62
7
  6
BYLAYER
 70
0
 71
3
 72
11
 73
7
 74
0
 42
0.0000001
 43
0.0000001
 44
0.0000000001
 40
0.0
 40
0.0
 40
0.0
 40
0.0
 40
0.25392627
 40
0.5047681735
 40
0.7532163507
 40
1.0
 40
1.0
 40
1.0
 40
1.0
 10
20.3023472898
 20
30.7321623114
 30
0.0
 10
20.3237713729
 20
30.7254949991
 30
0.0
 10
20.3667066106
 20
30.7133180441
 30
0.0
 10
20.4317155329
 20
30.6988760004
 30
0.0
 10
20.496832868
 20
30.6883654034
 30
0.0
 10
20.5404006375
 20
30.6839372042
 30
0.0
 10
20.5621549109
 20
30.6824299463
 30
0.0
  0
SPLINE
  5
25C
100
AcDbEntity
  8
0
100
AcDbSpline
 62
7
  6
BYLAYER
 70
0
 71
3
 72
11
 73
7
 74
0
 42
0.0000001
 43
0.0000001
 44
0.0000000001
 40
0.0
 40
0.0
 40
0.0
 40
0.0
 40
0.2509833123
 40
0.5011812379
 40
0.7507630406
 40
1.0
 40
1.0
 40
1.0
 40
1.0
 10
16.129142209
 20
30.6824298387
 30
0.0
 10
16.0010650373
 20
30.6472389918
 30
0.0
 10
15.7434088847
 20
30.5836208583
 30
0.0
 10
15.3523380506
 20
30.5119274691
 30
0.0
 10
14.9581420565
 20
30.4672903465
 30
0.0
 10
14.6940546067
 20
30.4571432017
 30
0.0
 10
14.5621550164
 20
30.4571439292
 30
0.0
  0
SPLINE
  5
25D
100
AcDbEntity
  8
0
100
AcDbSpline
 62
7
  6
BYLAYER
 70
0
 71
3
 72
11
 73
7
 74
0
 42
0.0000001
 43
0.0000001
 44
0.0000000001
 40
0.0
 40
0.0
 40
0.0
 40
0.0
 40
0.2490878497
 40
0.4985977472
 40
0.7488451431
 40
1.0
 40
1.0
 40
1.0
 40
1.0
 10
18.5621550164
 20
30.457143929
 30
0.0
 10
18.4153791885
 20
30.4571431914
 30
0.0
 10
18.121433273
 20
30.4696787239
 30
0.0
 10
17.6831822691
 20
30.5247540432
 30
0.0
 10
17.2491516831
 20
30.6125963664
 30
0.0
 10
16.963743673
 20
30.6897328792
 30
0.0
 10
16.821962532
 20
30.7321625669
 30
0.0
  0
SPLINE
  5
25E
100
AcDbEntity
  8
0
100
AcDbSpline
 62
7
  6
BYLAYER
 70
0
 71
3
 72
11
 73
7
 74
0
 42
0.0000001
 43
0.0000001
 44
0.0000000001
 40
0.0
 40
0.0
 40
0.0
 40
0.0
 40
0.2492369839
 40
0.4988187976
 40
0.7490167077
 40
1.0
 40
1.0
 40
1.0
 40
1.0
 10
14.5621550164
 20
34.457141785
 30
0.0
 10
14.6940546197
 20
34.4571425123
 30
0.0
 10
14.9581420883
 20
34.4469953694
 30
0.0
 10
15.3523380934
 20
34.402358245
 30
0.0
 10
15.7434089119
 20
34.3306648433
 30
0.0
 10
16.0010650475
 20
34.2670467196
 30
0.0
 10
16.129142209
 20
34.2318558756
 30
0.0
  0
SPLINE
  5
25F
100
AcDbEntity
  8
0
100
AcDbSpline
 62
7
  6
BYLAYER
 70
0
 71
3
 72
11
 73
7
 74
0
 42
0.0000001
 43
0.0000001
 44
0.0000000001
 40
0.0
 40
0.0
 40
0.0
 40
0.0
 40
0.2511548908
 40
0.5014023137
 40
0.7509121935
 40
1.0
 40
1.0
 40
1.0
 40
1.0
 10
16.821962532
 20
34.1821231473
 30
0.0
 10
16.9637436921
 20
34.2245528408
 30
0.0
 10
17.2491517322
 20
34.3016893816
 30
0.0
 10
17.6831823516
 20
34.3895316701
 30
0.0
 10
18.1214333344
 20
34.4446069872
 30
0.0
 10
18.415379214
 20
34.4571425233
 30
0.0
 10
18.5621550164
 20
34.4571417853
 30
0.0
  0
SPLINE
  5
260
100
AcDbEntity
  8
0
100
AcDbSpline
 62
7
  6
BYLAYER
 70
0
 71
3
 72
11
 73
7
 74
0
 42
0.0000001
 43
0.0000001
 44
0.0000000001
 40
0.0
 40
0.0
 40
0.0
 40
0.0
 40
0.2492369842
 40
0.4988187978
 40
0.7490167077
 40
1.0
 40
1.0
 40
1.0
 40
1.0
 10
14.5621550164
 20
30.4571439292
 30
0.0
 10
14.4302553957
 20
30.4571431966
 30
0.0
 10
14.1661678928
 20
30.467290352
 30
0.0
 10
13.7719718345
 20
30.5119274591
 30
0.0
 10
13.3809009607
 20
30.5836208488
 30
0.0
 10
13.1232447911
 20
30.6472389793
 30
0.0
 10
12.9951676128
 20
30.6824298275
 30
0.0
  0
SPLINE
  5
261
100
AcDbEntity
  8
0
100
AcDbSpline
 62
7
  6
BYLAYER
 70
0
 71
3
 72
11
 73
7
 74
0
 42
0.0000001
 43
0.0000001
 44
0.0000000001
 40
0.0
 40
0.0
 40
0.0
 40
0.0
 40
0.2510409406
 40
0.501260718
 40
0.7508501777
 40
1.0
 40
1.0
 40
1.0
 40
1.0
 10
12.5621549109
 20
30.7321628921
 30
0.0
 10
12.5980368699
 20
30.7254628744
 30
0.0
 10
12.6699075086
 20
30.7132449763
 30
0.0
 10
12.778151771
 20
30.6988328018
 30
0.0
 10
12.8865682231
 20
30.6883446467
 30
0.0
 10
12.9589717233
 20
30.6839341339
 30
0.0
 10
12.9951676128
 20
30.6824294369
 30
0.0
  0
SPLINE
  5
262
100
AcDbEntity
  8
0
100
AcDbSpline
 62
7
  6
BYLAYER
 70
0
 71
3
 72
11
 73
7
 74
0
 42
0.0000001
 43
0.0000001
 44
0.0000000001
 40
0.0
 40
0.0
 40
0.0
 40
0.0
 40
0.2491498223
 40
0.498739282
 40
0.7489590594
 40
1.0
 40
1.0
 40
1.0
 40
1.0
 10
12.9951676128
 20
34.2318562774
 30
0.0
 10
12.9589717233
 20
34.2303515803
 30
0.0
 10
12.8865682231
 20
34.2259410676
 30
0.0
 10
12.7781517709
 20
34.2154529125
 30
0.0
 10
12.6699075086
 20
34.201040738
 30
0.0
 10
12.5980368699
 20
34.1888228399
 30
0.0
 10
12.5621549109
 20
34.1821228222
 30
0.0
  0
SPLINE
  5
263
100
AcDbEntity
  8
0
100
AcDbSpline
 62
7
  6
BYLAYER
 70
0
 71
3
 72
11
 73
7
 74
0
 42
0.0000001
 43
0.0000001
 44
0.0000000001
 40
0.0
 40
0.0
 40
0.0
 40
0.0
 40
0.2509833123
 40
0.5011812377
 40
0.7507630403
 40
1.0
 40
1.0
 40
1.0
 40
1.0
 10
12.9951676128
 20
34.2318558867
 30
0.0
 10
13.1232448014
 20
34.2670467377
 30
0.0
 10
13.380900988
 20
34.3306648782
 30
0.0
 10
13.7719718773
 20
34.4023582553
 30
0.0
 10
14.1661679246
 20
34.4469953607
 30
0.0
 10
14.4302554087
 20
34.4571425179
 30
0.0
 10
14.5621550164
 20
34.457141785
 30
0.0
  0
SPLINE
  5
264
100
AcDbEntity
  8
0
100
AcDbSpline
 62
7
  6
BYLAYER
 70
0
 71
3
 72
11
 73
7
 74
0
 42
0.0000001
 43
0.0000001
 44
0.0000000001
 40
0.0
 40
0.0
 40
0.0
 40
0.0
 40
0.2490878495
 40
0.4985977472
 40
0.7488451436
 40
1.0
 40
1.0
 40
1.0
 40
1.0
 10
18.5621550164
 20
34.4571417853
 30
0.0
 10
18.7089308268
 20
34.4571425169
 30
0.0
 10
19.0028767086
 20
34.4446070073
 30
0.0
 10
19.4411276576
 20
34.389531654
 30
0.0
 10
19.8751581855
 20
34.3016893141
 30
0.0
 10
20.1605661658
 20
34.2245528253
 30
0.0
 10
20.3023472898
 20
34.1821231425
 30
0.0
  0
SPLINE
  5
265
100
AcDbEntity
  8
0
100
AcDbSpline
 62
7
  6
BYLAYER
 70
0
 71
3
 72
19
 73
15
 74
0
 42
0.0000001
 43
0.0000001
 44
0.0000000001
 40
0.0
 40
0.0
 40
0.0
 40
0.0
 40
0.0194515617
 40
0.0435929357
 40
0.0769911864
 40
0.1193330184
 40
0.1701449181
 40
0.2288750274
 40
0.2949590126
 40
0.3677175522
 40
0.4464247118
 40
0.6187382701
 40
0.8057470778
 40
1.0
 40
1.0
 40
1.0
 40
1.0
 10
13.912161553
 20
25.2571808935
 30
0.0
 10
13.9115311462
 20
25.2539814353
 30
0.0
 10
13.9148187206
 20
25.271248102
 30
0.0
 10
13.9161482699
 20
25.2787377522
 30
0.0
 10
13.9194835695
 20
25.2973486909
 30
0.0
 10
13.922903806
 20
25.3174492663
 30
0.0
 10
13.9270397794
 20
25.3428694153
 30
0.0
 10
13.9314473665
 20
25.3718829674
 30
0.0
 10
13.936060392
 20
25.4047145292
 30
0.0
 10
13.9406769686
 20
25.4408839765
 30
0.0
 10
13.9468020306
 20
25.4948226571
 30
0.0
 10
13.9533806642
 20
25.5679735049
 30
0.0
 10
13.9585297341
 20
25.6606540695
 30
0.0
 10
13.959752175
 20
25.7245771654
 30
0.0
 10
13.959752175
 20
25.7571428571
 30
0.0
  0
SPLINE
  5
266
100
AcDbEntity
  8
0
100
AcDbSpline
 62
7
  6
BYLAYER
 70
0
 71
3
 72
32
 73
28
 74
0
 42
0.0000001
 43
0.0000001
 44
0.0000000001
 40
0.0
 40
0.0
 40
0.0
 40
0.0
 40
0.1941645584
 40
0.3811081907
 40
0.4694685683
 40
0.553358426
 40
0.6320117548
 40
0.7047151735
 40
0.7707551053
 40
0.8294692332
 40
0.8802987328
 40
0.9025844773
 40
0.9226931561
 40
0.9405731051
 40
0.9561828344
 40
0.9694808845
 40
0.9804256724
 40
0.9850025677
 40
0.9889755
 40
0.992339613
 40
0.9950931867
 40
0.9972360735
 40
0.9987681459
 40
0.9993050961
 40
0.9996893172
 40
0.999920842
 40
1.0
 40
1.0
 40
1.0
 40
1.0
 10
14.1126651681
 20
25.7571428571
 30
0.0
 10
14.1126651681
 20
25.7897208449
 30
0.0
 10
14.1113374078
 20
25.8536712018
 30
0.0
 10
14.1067384427
 20
25.9323248232
 30
0.0
 10
14.1015871578
 20
25.9923743985
 30
0.0
 10
14.0972771104
 20
26.034253237
 30
0.0
 10
14.0925861322
 20
26.0734461029
 30
0.0
 10
14.0877112716
 20
26.1095961136
 30
0.0
 10
14.0828416361
 20
26.1423676874
 30
0.0
 10
14.0781596044
 20
26.1714542735
 30
0.0
 10
14.0744058467
 20
26.1932529055
 30
0.0
 10
14.0716364348
 20
26.2086474464
 30
0.0
 10
14.069803408
 20
26.2185931335
 30
0.0
 10
14.06813773
 20
26.2274305766
 30
0.0
 10
14.0666530903
 20
26.2351392377
 30
0.0
 10
14.0653631972
 20
26.2417003267
 30
0.0
 10
14.0644127693
 20
26.2464415841
 30
0.0
 10
14.063760747
 20
26.2496467922
 30
0.0
 10
14.0633589918
 20
26.2516051322
 30
0.0
 10
14.0630156961
 20
26.2532626082
 30
0.0
 10
14.0627332055
 20
26.2546206645
 30
0.0
 10
14.0625079354
 20
26.2556725653
 30
0.0
 10
14.0623634229
 20
26.25637041
 30
0.0
 10
14.062268433
 20
26.2567628433
 30
0.0
 10
14.0622346391
 20
26.2569668407
 30
0.0
 10
14.0621902911
 20
26.2570526114
 30
0.0
 10
14.0621939498
 20
26.2571317702
 30
0.0
 10
14.0621806682
 20
26.2571317666
 30
0.0
  0
SPLINE
  5
267
100
AcDbEntity
  8
0
100
AcDbSpline
 62
7
  6
BYLAYER
 70
0
 71
3
 72
15
 73
11
 74
0
 42
0.0000001
 43
0.0000001
 44
0.0000000001
 40
0.0
 40
0.0
 40
0.0
 40
0.0
 40
0.3812185983
 40
0.5537091109
 40
0.7052411054
 40
0.829918562
 40
0.9229216878
 40
0.9563261022
 40
0.9805032975
 40
1.0
 40
1.0
 40
1.0
 40
1.0
 10
13.959752175
 20
25.7571428571
 30
0.0
 10
13.959752175
 20
25.8210480456
 30
0.0
 10
13.9562237707
 20
25.9139108621
 30
0.0
 10
13.9457267286
 20
26.0316778129
 30
0.0
 10
13.936736278
 20
26.1063675974
 30
0.0
 10
13.9277882362
 20
26.1676153708
 30
0.0
 10
13.9208468528
 20
26.209131234
 30
0.0
 10
13.9164467969
 20
26.2339882127
 30
0.0
 10
13.9140908075
 20
26.2466924142
 30
0.0
 10
13.9127930531
 20
26.2538981134
 30
0.0
 10
13.9121615524
 20
26.2571048337
 30
0.0
  0
SPLINE
  5
268
100
AcDbEntity
  8
0
100
AcDbSpline
 62
7
  6
BYLAYER
 70
0
 71
3
 72
32
 73
28
 74
0
 42
0.0000001
 43
0.0000001
 44
0.0000000001
 40
0.0
 40
0.0
 40
0.0
 40
0.0
 40
0.0000782319
 40
0.0003088846
 40
0.0006921458
 40
0.0012280358
 40
0.0027577025
 40
0.0048978523
 40
0.0076484302
 40
0.0110093663
 40
0.014979057
 40
0.0195527227
 40
0.0304912999
 40
0.0437838008
 40
0.0593890154
 40
0.0772658263
 40
0.097373059
 40
0.1196591607
 40
0.1704930237
 40
0.2292132468
 40
0.2952580776
 40
0.3679651397
 40
0.4466218667
 40
0.5305154466
 40
0.6188794543
 40
0.8058290978
 40
1.0
 40
1.0
 40
1.0
 40
1.0
 10
14.0622054036
 20
25.2571534317
 30
0.0
 10
14.0622185294
 20
25.2571534547
 30
0.0
 10
14.0622117039
 20
25.2572331065
 30
0.0
 10
14.0622561596
 20
25.257318233
 30
0.0
 10
14.0622865778
 20
25.2575225986
 30
0.0
 10
14.0623781856
 20
25.2579149113
 30
0.0
 10
14.0625165453
 20
25.2586130386
 30
0.0
 10
14.0627346727
 20
25.259664968
 30
0.0
 10
14.0630088196
 20
25.2610231919
 30
0.0
 10
14.0633432616
 20
25.2626808144
 30
0.0
 10
14.0637357247
 20
25.2646393371
 30
0.0
 10
14.0643742751
 20
25.2678450005
 30
0.0
 10
14.0653081938
 20
25.2725868452
 30
0.0
 10
14.0665802579
 20
25.2791484547
 30
0.0
 10
14.068049421
 20
25.2868576168
 30
0.0
 10
14.0697032518
 20
25.2956954926
 30
0.0
 10
14.0715295185
 20
25.3056414335
 30
0.0
 10
14.0742974368
 20
25.3210363887
 30
0.0
 10
14.078060495
 20
25.3428346523
 30
0.0
 10
14.0827597775
 20
25.3719203195
 30
0.0
 10
14.0876429147
 20
25.4046915462
 30
0.0
 10
14.0925282726
 20
25.4408412399
 30
0.0
 10
14.0972306078
 20
25.4800335438
 30
0.0
 10
14.1015564603
 20
25.5219114774
 30
0.0
 10
14.1067312251
 20
25.5819597652
 30
0.0
 10
14.1113438997
 20
25.6606136462
 30
0.0
 10
14.1126651681
 20
25.72456463
 30
0.0
 10
14.1126651681
 20
25.7571428571
 30
0.0
  0
ENDSEC
  0
SECTION
  2
OBJECTS
  0
DICTIONARY
  5
C
100
AcDbDictionary
280
0
281
1
  3
ACAD_GROUP
350
D
  3
ACAD_MLINESTYLE
350
17
  3
ACAD_LAYOUT
350
1A
  3
ACAD_PLOTSETTINGS
350
19
  3
ACAD_PLOTSTYLENAME
350
E
  0
DICTIONARY
  5
D
102
{ACAD_REACTORS
330
C
102
}
100
AcDbDictionary
280
0
281
1
  0
ACDBDICTIONARYWDFLT
  5
E
102
{ACAD_REACTORS
330
C
102
}
100
AcDbDictionary
281
1
  3
Normal
350
F
100
AcDbDictionaryWithDefault
340
F
  0
DICTIONARY
  5
17
102
{ACAD_REACTORS
330
C
102
}
100
AcDbDictionary
280
0
281
1
  3
Standard
350
18
  0
DICTIONARY
  5
19
102
{ACAD_REACTORS
330
C
102
}
100
AcDbDictionary
281
1
  0
DICTIONARY
  5
1A
102
{ACAD_REACTORS
330
C
102
}
100
AcDbDictionary
281
1
  3
Model
350
269
  3
Layout1
350
26A
  0
ACDBPLACEHOLDER
  5
F
102
{ACAD_REACTORS
330
E
102
}
  0
MLINESTYLE
  5
18
102
{ACAD_REACTORS
330
17
102
}
100
AcDbMlineStyle
  2
STANDARD
 70
0
  3

 62
256
 51
90.0
 52
90.0
 71
2
 49
0.5
 62
256
  6
BYLAYER
 49
-0.5
 62
256
  6
BYLAYER
  0
LAYOUT
  5
269
102
{ACAD_REACTORS
330
1A
102
}
100
AcDbPlotSettings
  1

  2
none_device
  4

  6

 40
0.0
 41
0.0
 42
0.0
 43
0.0
 44
210.0
 45
297.0
 46
0.0
 47
0.0
 48
0.0
 49
0.0
140
0.0
141
0.0
142
1.0
143
1.0
 70
1024
 72
1
 73
0
 74
0
  7

 75
0
147
1.0
148
0.0
149
0.0
100
AcDbLayout
  1
Model
 70
0
 71
0
 10
0.0
 20
0.0
 11
210.0
 21
297.0
 12
0.0
 22
0.0
 32
0.0
 14
0.0
 24
0.0
 34
0.0
 15
0.0
 25
0.0
 35
0.0
146
0.0
 13
0.0
 23
0.0
 33
0.0
 16
1.0
 26
0.0
 36
0.0
 17
0.0
 27
1.0
 37
0.0
 76
0
330
210
345
0
346
0
  0
LAYOUT
  5
26A
102
{ACAD_REACTORS
330
1A
102
}
100
AcDbPlotSettings
  1

  2
none_device
  4

  6

 40
0.0
 41
0.0
 42
0.0
 43
0.0
 44
210.0
 45
297.0
 46
0.0
 47
0.0
 48
0.0
 49
0.0
140
0.0
141
0.0
142
1.0
143
1.0
 70
0
 72
1
 73
0
 74
0
  7

 75
0
147
1.0
148
0.0
149
0.0
100
AcDbLayout
  1
Layout1
 70
0
 71
1
 10
0.0
 20
0.0
 11
210.0
 21
297.0
 12
0.0
 22
0.0
 32
0.0
 14
0.0
 24
0.0
 34
0.0
 15
0.0
 25
0.0
 35
0.0
146
0.0
 13
0.0
 23
0.0
 33
0.0
 16
1.0
 26
0.0
 36
0.0
 17
0.0
 27
1.0
 37
0.0
 76
0
330
211
345
0
346
0
  0
ENDSEC
  0
EOF
