999
DXF file: C:\Users\sesa63760\Dev\_Creo\CAD\MCADID0001837_3D-CAD\drw0001_1.dxf
999
Pro/ENGINEER 2019471 by Parametric Technology Corporation
  0
SECTION
  2
HEADER
  9
$ACADVER
  1
AC1024
  9
$DWGCODEPAGE
  3
ANSI_1252
  9
$EXTMAX
 10
28.9453317802
 20
40.936969232
 30
0.0
  9
$EXTMIN
 10
0.0
 20
0.0
 30
0.0
  9
$LIMMIN
 10
0.0
 20
0.0
  9
$LIMMAX
 10
28.9453317802
 20
40.936969232
  9
$VIEWCTR
 10
14.4726658901
 20
20.468484616
  9
$VIEWSIZE
 40
40.936969232
  9
$CLAYER
  8
0
  9
$LTSCALE
 40
2.6684839203
  9
$CELTYPE
  6
BYLAYER
  9
$DIMSCALE
 40
1.0
  9
$DIMASZ
 40
0.3445872831
  9
$DIMEXO
 40
1.0
  9
$DIMDLI
 40
1.8436797995
  9
$DIMEXE
 40
1.0
  9
$DIMCEN
 40
0.4366610051
  9
$DIMLFAC
 40
1.0
  9
$DIMBLK
  1
_FILLED
  9
$DIMALT
 70
0
  9
$DIMALTF
 40
0.0393700787
  9
$DIMTXT
 40
0.4824221963
  9
$DIMTOL
 70
1
  9
$DIMLIM
 70
0
  9
$DIMTFAC
 40
1.0
  9
$DIMTP
 40
0.01
  9
$DIMTM
 40
0.01
  9
$DIMGAP
 40
0.625
  9
$DIMDSEP
 70
46
  9
$AUNITS
 70
0
  9
$PDMODE
 70
3
  9
$PDSIZE
 40
0.3125
  9
$HANDSEED
  5
24F
  9
$TILEMODE
 70
1
  9
$MEASUREMENT
 70
1
  9
$INSUNITS
 70
4
  0
ENDSEC
  0
SECTION
  2
CLASSES
  0
CLASS
  1
ACDBDICTIONARYWDFLT
  2
AcDbDictionaryWithDefault
  3
AutoCAD 2000
 90
0
 91
1
280
0
281
0
  0
CLASS
  1
ACDBPLACEHOLDER
  2
AcDbPlaceHolder
  3
AutoCAD 2000
 90
0
 91
1
280
0
281
0
  0
CLASS
  1
LAYOUT
  2
AcDbLayout
  3
AutoCAD 2000
 90
0
 91
0
280
0
281
0
  0
ENDSEC
  0
SECTION
  2
TABLES
  0
TABLE
  2
VPORT
  5
8
100
AcDbSymbolTable
 70
2
  0
VPORT
  5
1F4
100
AcDbSymbolTableRecord
100
AcDbViewportTableRecord
  2
*ACTIVE
 70
0
 10
0.0
 20
0.0
 11
1.0
 21
1.0
 12
14.4726658901
 22
20.468484616
 13
0.0
 23
0.0
 14
1.0
 24
1.0
 15
0.0
 25
0.0
 16
0.0
 26
0.0
 36
1.0
 17
0.0
 27
0.0
 37
0.0
 40
40.936969232
 41
0.7070707071
 42
50.0
 43
0.0
 44
0.0
 50
0.0
 51
0.0
 71
0
 72
100
 73
1
 74
1
 75
0
 76
0
 77
0
 78
0
  0
ENDTAB
  0
TABLE
  2
LTYPE
  5
5
100
AcDbSymbolTable
 70
6
  0
LTYPE
  5
14
100
AcDbSymbolTableRecord
100
AcDbLinetypeTableRecord
  2
BYBLOCK
 70
0
  3

 72
65
 73
0
 40
0.0
  0
LTYPE
  5
15
100
AcDbSymbolTableRecord
100
AcDbLinetypeTableRecord
  2
BYLAYER
 70
0
  3

 72
65
 73
0
 40
0.0
  0
LTYPE
  5
16
100
AcDbSymbolTableRecord
100
AcDbLinetypeTableRecord
  2
CONTINUOUS
 70
64
  3
Solid line
 72
65
 73
0
 40
0.0
  0
LTYPE
  5
1F5
100
AcDbSymbolTableRecord
100
AcDbLinetypeTableRecord
  2
CENTER
 70
64
  3
____ _ ____ _ ____ _ ____ _ ____ _ ____ _ ____
 72
65
 73
4
 40
0.6
 49
0.375
 74
0
 49
-0.075
 74
0
 49
0.075
 74
0
 49
-0.075
 74
0
  0
LTYPE
  5
1F6
100
AcDbSymbolTableRecord
100
AcDbLinetypeTableRecord
  2
HIDDEN
 70
64
  3
- - - - - - - - - - - - - - - - - - - -
 72
65
 73
2
 40
0.2
 49
0.1
 74
0
 49
-0.1
 74
0
  0
LTYPE
  5
1F7
100
AcDbSymbolTableRecord
100
AcDbLinetypeTableRecord
  2
PHANTOM
 70
64
  3
_____ _ _ _____ _ _ _____ _ _ _____
 72
65
 73
6
 40
0.8
 49
0.45
 74
0
 49
-0.05
 74
0
 49
0.1
 74
0
 49
-0.05
 74
0
 49
0.1
 74
0
 49
-0.05
 74
0
  0
LTYPE
  5
1F8
100
AcDbSymbolTableRecord
100
AcDbLinetypeTableRecord
  2
DOT
 70
64
  3
. . . . . . . . . . . . . . . . . . . .
 72
65
 73
2
 40
0.2
 49
0.1
 74
0
 49
-0.1
 74
0
  0
LTYPE
  5
1F9
100
AcDbSymbolTableRecord
100
AcDbLinetypeTableRecord
  2
DASHED
 70
64
  3
- - - - - - - - - - - - - - - - - - - -
 72
65
 73
2
 40
0.2
 49
0.1
 74
0
 49
-0.1
 74
0
  0
ENDTAB
  0
TABLE
  2
LAYER
  5
2
100
AcDbSymbolTable
 70
36
  0
LAYER
  5
10
100
AcDbSymbolTableRecord
100
AcDbLayerTableRecord
  2
0
 70
0
 62
7
  6
CONTINUOUS
370
-3
390
F
  0
LAYER
  5
1FA
100
AcDbSymbolTableRecord
100
AcDbLayerTableRecord
  2
DEFAULT_1
 70
0
 62
7
  6
CENTER
370
-3
390
F
  0
LAYER
  5
1FB
100
AcDbSymbolTableRecord
100
AcDbLayerTableRecord
  2
DEFAULT_2
 70
0
 62
8
  6
HIDDEN
370
-3
390
F
  0
LAYER
  5
1FC
100
AcDbSymbolTableRecord
100
AcDbLayerTableRecord
  2
DEFAULT_3
 70
0
 62
7
  6
PHANTOM
370
-3
390
F
  0
LAYER
  5
1FD
100
AcDbSymbolTableRecord
100
AcDbLayerTableRecord
  2
00_COMPONENTS
 70
0
 62
7
  6
CONTINUOUS
370
-3
390
F
  0
LAYER
  5
1FE
100
AcDbSymbolTableRecord
100
AcDbLayerTableRecord
  2
01_1_DEFAULT_DATUMS
 70
0
 62
7
  6
CONTINUOUS
370
-3
390
F
  0
LAYER
  5
1FF
100
AcDbSymbolTableRecord
100
AcDbLayerTableRecord
  2
01_PLANES
 70
0
 62
7
  6
CONTINUOUS
370
-3
390
F
  0
LAYER
  5
200
100
AcDbSymbolTableRecord
100
AcDbLayerTableRecord
  2
02_COORD_SYS
 70
0
 62
7
  6
CONTINUOUS
370
-3
390
F
  0
LAYER
  5
201
100
AcDbSymbolTableRecord
100
AcDbLayerTableRecord
  2
03_AXES
 70
0
 62
7
  6
CONTINUOUS
370
-3
390
F
  0
LAYER
  5
202
100
AcDbSymbolTableRecord
100
AcDbLayerTableRecord
  2
04_POINTS
 70
0
 62
7
  6
CONTINUOUS
370
-3
390
F
  0
LAYER
  5
203
100
AcDbSymbolTableRecord
100
AcDbLayerTableRecord
  2
05_CURVES
 70
0
 62
7
  6
CONTINUOUS
370
-3
390
F
  0
LAYER
  5
204
100
AcDbSymbolTableRecord
100
AcDbLayerTableRecord
  2
06_SURFS
 70
0
 62
7
  6
CONTINUOUS
370
-3
390
F
  0
LAYER
  5
205
100
AcDbSymbolTableRecord
100
AcDbLayerTableRecord
  2
07_COSMETICS
 70
0
 62
7
  6
CONTINUOUS
370
-3
390
F
  0
LAYER
  5
206
100
AcDbSymbolTableRecord
100
AcDbLayerTableRecord
  2
10_NOTES
 70
0
 62
7
  6
CONTINUOUS
370
-3
390
F
  0
LAYER
  5
207
100
AcDbSymbolTableRecord
100
AcDbLayerTableRecord
  2
11_NOTES_PUB
 70
0
 62
7
  6
CONTINUOUS
370
-3
390
F
  0
LAYER
  5
208
100
AcDbSymbolTableRecord
100
AcDbLayerTableRecord
  2
13_REF_GTOL
 70
0
 62
7
  6
CONTINUOUS
370
-3
390
F
  0
LAYER
  5
209
100
AcDbSymbolTableRecord
100
AcDbLayerTableRecord
  2
16_MISC
 70
0
 62
7
  6
CONTINUOUS
370
-3
390
F
  0
LAYER
  5
20A
100
AcDbSymbolTableRecord
100
AcDbLayerTableRecord
  2
17_NO_PRINT
 70
0
 62
7
  6
CONTINUOUS
370
-3
390
F
  0
LAYER
  5
20B
100
AcDbSymbolTableRecord
100
AcDbLayerTableRecord
  2
18_DATUM_CAMS_JOINTS
 70
0
 62
7
  6
CONTINUOUS
370
-3
390
F
  0
LAYER
  5
20C
100
AcDbSymbolTableRecord
100
AcDbLayerTableRecord
  2
19_DATUM_FUNCTIONAL
 70
0
 62
7
  6
CONTINUOUS
370
-3
390
F
  0
LAYER
  5
20D
100
AcDbSymbolTableRecord
100
AcDbLayerTableRecord
  2
20_DATUM_KINEMATIC_SCHEME
 70
0
 62
7
  6
CONTINUOUS
370
-3
390
F
  0
ENDTAB
  0
TABLE
  2
STYLE
  5
3
100
AcDbSymbolTable
 70
1
  0
STYLE
  5
11
100
AcDbSymbolTableRecord
100
AcDbTextStyleTableRecord
  2
STANDARD
 70
0
 40
0.0
 41
0.8
 50
0.0
 71
0
 42
0.2
  3
txt
  4

  0
STYLE
  5
20E
100
AcDbSymbolTableRecord
100
AcDbTextStyleTableRecord
  2
TEXTSTYLE_1
 70
0
 40
0.0
 41
0.8
 50
0.0
 71
0
 42
0.2
  3
gdt
  4

  0
ENDTAB
  0
TABLE
  2
VIEW
  5
6
100
AcDbSymbolTable
 70
0
  0
ENDTAB
  0
TABLE
  2
UCS
  5
7
100
AcDbSymbolTable
 70
0
  0
ENDTAB
  0
TABLE
  2
APPID
  5
9
100
AcDbSymbolTable
 70
1
  0
APPID
  5
20F
100
AcDbSymbolTableRecord
100
AcDbRegAppTableRecord
  2
ACAD
 70
0
  0
ENDTAB
  0
TABLE
  2
BLOCK_RECORD
  5
1
100
AcDbSymbolTable
 70
0
  0
BLOCK_RECORD
  5
210
100
AcDbSymbolTableRecord
100
AcDbBlockTableRecord
  2
*Model_Space
  0
BLOCK_RECORD
  5
211
100
AcDbSymbolTableRecord
100
AcDbBlockTableRecord
  2
*Paper_Space
  0
BLOCK_RECORD
  5
212
100
AcDbSymbolTableRecord
100
AcDbBlockTableRecord
  2
_FILLED
  0
ENDTAB
  0
TABLE
  2
DIMSTYLE
  5
A
100
AcDbSymbolTable
 70
1
100
AcDbDimStyleTable
 71
0
  0
DIMSTYLE
105
213
100
AcDbSymbolTableRecord
100
AcDbDimStyleTableRecord
  2
STANDARD
 70
0
  3

  4

 40
1.0
 41
0.3445872831
 42
1.0
 43
0.38
 44
1.0
 45
0.0
 46
0.0
 47
0.01
 48
0.01
140
0.4824221963
141
0.09
142
0.0
143
25.4
144
1.0
145
0.0
146
1.0
147
0.625
 71
1
 72
0
 73
0
 74
0
 75
0
 76
0
 77
1
 78
8
 79
2
170
0
171
1
172
0
173
0
174
0
175
0
176
0
177
0
178
0
270
2
179
2
271
2
272
2
273
2
274
2
275
0
280
0
281
0
282
0
283
1
284
8
285
0
286
0
287
3
288
0
340
11
278
46
341
212
342
212
343
212
344
212
  0
ENDTAB
  0
ENDSEC
  0
SECTION
  2
BLOCKS
  0
BLOCK
  5
20
100
AcDbEntity
  8
0
100
AcDbBlockBegin
  2
*Model_Space
 70
0
 10
0.0
 20
0.0
 30
0.0
  3
*Model_Space
  1

  0
ENDBLK
  5
21
100
AcDbEntity
  8
0
100
AcDbBlockEnd
  0
BLOCK
  5
1C
100
AcDbEntity
  8
0
100
AcDbBlockBegin
  2
*Paper_Space
 70
0
 10
0.0
 20
0.0
 30
0.0
  3
*Paper_Space
  1

  0
ENDBLK
  5
1D
100
AcDbEntity
  8
0
100
AcDbBlockEnd
  0
BLOCK
  5
214
100
AcDbEntity
  8
0
100
AcDbBlockBegin
  2
_FILLED
 70
64
 10
0.0
 20
0.0
  3
_FILLED
  1

  0
SOLID
  5
215
100
AcDbEntity
  8
0
  6
BYBLOCK
 62
0
100
AcDbTrace
 10
0.0
 20
0.0
 11
-1.0
 21
0.25
 12
-1.0
 22
-0.25
 13
-1.0
 23
-0.25
  0
ENDBLK
  5
216
100
AcDbEntity
  8
0
  6
BYBLOCK
 62
0
100
AcDbBlockEnd
  0
ENDSEC
  0
SECTION
  2
ENTITIES
  0
LINE
  5
217
100
AcDbEntity
  8
0
100
AcDbLine
 62
7
  6
CONTINUOUS
 10
4.4355845201
 20
31.6494144441
 11
15.1835628458
 21
37.8547255829
  0
LINE
  5
218
100
AcDbEntity
  8
0
100
AcDbLine
 62
7
  6
CONTINUOUS
 10
12.5673494819
 20
3.2265495885
 11
4.4355876427
 21
7.9213182655
  0
LINE
  5
219
100
AcDbEntity
  8
0
100
AcDbLine
 62
7
  6
CONTINUOUS
 10
12.4637933215
 20
3.4554426625
 11
4.3320314823
 21
8.1502113394
  0
LINE
  5
21A
100
AcDbEntity
  8
0
100
AcDbLine
 62
7
  6
CONTINUOUS
 10
4.6855834009
 20
31.6246523046
 11
15.4335617266
 21
37.8299634434
  0
LINE
  5
21B
100
AcDbEntity
  8
0
100
AcDbLine
 62
7
  6
CONTINUOUS
 10
19.3929870933
 20
37.7489418546
 11
17.4834586518
 21
36.6464816757
  0
LINE
  5
21C
100
AcDbEntity
  8
0
100
AcDbLine
 62
7
  6
CONTINUOUS
 10
19.8179851907
 20
37.0128191629
 11
18.333469535
 21
36.1557387656
  0
LINE
  5
21D
100
AcDbEntity
  8
0
100
AcDbLine
 62
7
  6
CONTINUOUS
 10
4.1855834009
 20
8.3543334164
 11
4.1855834009
 21
31.216401096
  0
LINE
  5
21E
100
AcDbEntity
  8
0
100
AcDbLine
 62
7
  6
CONTINUOUS
 10
4.3320314823
 20
8.1502113394
 11
4.3320314823
 21
31.0122790191
  0
LINE
  5
21F
100
AcDbEntity
  8
0
100
AcDbLine
 62
7
  6
CONTINUOUS
 10
24.6963100319
 20
34.6871361957
 11
22.7867815904
 21
33.5846760168
  0
LINE
  5
220
100
AcDbEntity
  8
0
100
AcDbLine
 62
7
  6
CONTINUOUS
 10
23.5653235658
 20
33.1351947664
 11
12.8173452401
 21
26.9298836276
  0
LINE
  5
221
100
AcDbEntity
  8
0
100
AcDbLine
 62
7
  6
CONTINUOUS
 10
25.1213081293
 20
33.951013504
 11
23.6216750677
 21
33.0852051204
  0
LINE
  5
222
100
AcDbEntity
  8
0
100
AcDbLine
 62
7
  6
CONTINUOUS
 10
13.1709001027
 20
26.3175120418
 11
23.9188784283
 21
32.5228231806
  0
LINE
  5
223
100
AcDbEntity
  8
0
100
AcDbLine
 62
7
  6
CONTINUOUS
 10
24.6963100319
 20
30.6046241101
 11
23.9188784283
 21
30.1557764437
  0
LINE
  5
224
100
AcDbEntity
  8
0
100
AcDbLine
 62
7
  6
CONTINUOUS
 10
25.1213081293
 20
29.8685014184
 11
23.9188784283
 21
29.1742824508
  0
LINE
  5
225
100
AcDbEntity
  8
0
100
AcDbLine
 62
7
  6
CONTINUOUS
 10
12.4637933215
 20
26.3175103421
 11
12.4637933215
 21
3.4554426625
  0
LINE
  5
226
100
AcDbEntity
  8
0
100
AcDbLine
 62
7
  6
CONTINUOUS
 10
13.1709001027
 20
3.4554443621
 11
13.1709001027
 21
26.3175120418
  0
LINE
  5
227
100
AcDbEntity
  8
0
100
AcDbLine
 62
7
  6
CONTINUOUS
 10
24.6963100319
 20
26.5221120244
 11
23.9188784283
 21
26.0732643581
  0
LINE
  5
228
100
AcDbEntity
  8
0
100
AcDbLine
 62
7
  6
CONTINUOUS
 10
25.1213081293
 20
25.7859893327
 11
23.9188784283
 21
25.0917703651
  0
LINE
  5
229
100
AcDbEntity
  8
0
100
AcDbLine
 62
7
  6
CONTINUOUS
 10
4.3320314823
 20
31.0122790191
 11
12.4637933215
 21
26.3175103421
  0
LINE
  5
22A
100
AcDbEntity
  8
0
100
AcDbLine
 62
7
  6
CONTINUOUS
 10
12.8173452401
 20
26.9298836276
 11
4.6855834009
 21
31.6246523046
  0
LINE
  5
22B
100
AcDbEntity
  8
0
100
AcDbLine
 62
7
  6
CONTINUOUS
 10
23.9188784283
 20
9.660755501
 11
23.9188784283
 21
32.5228231806
  0
LINE
  5
22C
100
AcDbEntity
  8
0
100
AcDbLine
 62
7
  6
CONTINUOUS
 10
24.6963100319
 20
14.2745757675
 11
23.9188784283
 21
13.8257281011
  0
LINE
  5
22D
100
AcDbEntity
  8
0
100
AcDbLine
 62
7
  6
CONTINUOUS
 10
25.1213081293
 20
13.5384530758
 11
23.9188784283
 21
12.8442341082
  0
LINE
  5
22E
100
AcDbEntity
  8
0
100
AcDbLine
 62
7
  6
CONTINUOUS
 10
23.9188784283
 20
9.660755501
 11
13.1709001027
 21
3.4554443621
  0
LINE
  5
22F
100
AcDbEntity
  8
0
100
AcDbLine
 62
7
  6
CONTINUOUS
 10
13.0673441209
 20
3.2265513913
 11
23.8153224465
 21
9.4318625302
  0
LINE
  5
230
100
AcDbEntity
  8
0
100
AcDbLine
 62
7
  6
CONTINUOUS
 10
23.5653235658
 20
33.1351947664
 11
15.4335617266
 21
37.8299634434
  0
ARC
  5
231
100
AcDbEntity
  8
0
100
AcDbCircle
 62
7
  6
CONTINUOUS
 10
4.6855834009
 20
31.216401096
 40
0.5
100
AcDbArc
 50
119.9998519061
 51
180.0
  0
ARC
  5
232
100
AcDbEntity
  8
0
100
AcDbCircle
 62
7
  6
CONTINUOUS
 10
4.6855834009
 20
8.3543334164
 40
0.5
100
AcDbArc
 50
180.0
 51
240.0005612632
  0
ARC
  5
233
100
AcDbEntity
  8
0
100
AcDbCircle
 62
7
  6
CONTINUOUS
 10
12.8173452401
 20
3.6595647394
 40
0.5
100
AcDbArc
 50
240.0005612632
 51
299.9998519061
  0
SPLINE
  5
234
100
AcDbEntity
  8
0
100
AcDbSpline
 62
7
  6
CONTINUOUS
 70
0
 71
3
 72
15
 73
11
 74
0
 42
0.0000001
 43
0.0000001
 44
0.0000000001
 40
0.0
 40
0.0
 40
0.0
 40
0.0
 40
0.1141232787
 40
0.2373467935
 40
0.3669716251
 40
0.4999988493
 40
0.6330262331
 40
0.7626515288
 40
0.885875802
 40
1.0
 40
1.0
 40
1.0
 40
1.0
 10
23.5653235658
 20
33.1351947664
 30
0.0
 10
23.5895204691
 20
33.1212249938
 30
0.0
 10
23.6373244147
 20
33.0877021006
 30
0.0
 10
23.7031137785
 20
33.0261738177
 30
0.0
 10
23.7637286698
 20
32.9534142847
 30
0.0
 10
23.8169100665
 20
32.8722012371
 30
0.0
 10
23.8606524025
 20
32.7855383847
 30
0.0
 10
23.8933571542
 20
32.6966644422
 30
0.0
 10
23.9137482021
 20
32.6089246624
 30
0.0
 10
23.9188784283
 20
32.550763425
 30
0.0
 10
23.9188784283
 20
32.5228231806
 30
0.0
  0
SPLINE
  5
235
100
AcDbEntity
  8
0
100
AcDbSpline
 62
7
  6
CONTINUOUS
 70
0
 71
3
 72
13
 73
9
 74
0
 42
0.0000001
 43
0.0000001
 44
0.0000000001
 40
0.0
 40
0.0
 40
0.0
 40
0.0
 40
0.2893057518
 40
0.5483359731
 40
0.6677605032
 40
0.7817613559
 40
0.8918961909
 40
1.0
 40
1.0
 40
1.0
 40
1.0
 10
23.9188784283
 20
9.660755501
 30
0.0
 10
23.9188784283
 20
9.6354214288
 30
0.0
 10
23.9150497644
 20
9.5872617761
 30
0.0
 10
23.8983276502
 20
9.5306041044
 30
0.0
 10
23.8780174147
 20
9.4924131579
 30
0.0
 10
23.8601018894
 20
9.4680950894
 30
0.0
 10
23.8392756736
 20
9.4476044092
 30
0.0
 10
23.8235194328
 20
9.4365979114
 30
0.0
 10
23.8153211991
 20
9.4318646908
 30
0.0
  0
SPLINE
  5
236
100
AcDbEntity
  8
0
100
AcDbSpline
 62
7
  6
CONTINUOUS
 70
0
 71
3
 72
21
 73
17
 74
0
 42
0.0000001
 43
0.0000001
 44
0.0000000001
 40
0.0
 40
0.0
 40
0.0
 40
0.0
 40
0.0428230854
 40
0.0874158414
 40
0.1352051023
 40
0.1871297391
 40
0.24358796
 40
0.3045617536
 40
0.3696757121
 40
0.4382961908
 40
0.5825200919
 40
0.7295506228
 40
0.8015492166
 40
0.871217939
 40
0.9376660373
 40
1.0
 40
1.0
 40
1.0
 40
1.0
 10
24.6963187611
 20
34.6871210553
 30
0.0
 10
24.706795651
 20
34.6931701106
 30
0.0
 10
24.7298828816
 20
34.7027914515
 30
0.0
 10
24.7680104351
 20
34.7083530181
 30
0.0
 10
24.8089498033
 20
34.7053631775
 30
0.0
 10
24.851790561
 20
34.6939592916
 30
0.0
 10
24.8957088855
 20
34.6745702782
 30
0.0
 10
24.939804945
 20
34.6475789502
 30
0.0
 10
24.9832090426
 20
34.6136119467
 30
0.0
 10
25.039843333
 20
34.5590549304
 30
0.0
 10
25.1027637435
 20
34.4784788195
 30
0.0
 10
25.1518676773
 20
34.3877839669
 30
0.0
 10
25.1811231042
 20
34.3115541978
 30
0.0
 10
25.1971195247
 20
34.2548802713
 30
0.0
 10
25.2069155462
 20
34.1995860173
 30
0.0
 10
25.2093307138
 20
34.1631822503
 30
0.0
 10
25.2093307138
 20
34.1455725292
 30
0.0
  0
SPLINE
  5
237
100
AcDbEntity
  8
0
100
AcDbSpline
 62
7
  6
CONTINUOUS
 70
0
 71
3
 72
21
 73
17
 74
0
 42
0.0000001
 43
0.0000001
 44
0.0000000001
 40
0.0
 40
0.0
 40
0.0
 40
0.0
 40
0.0428230854
 40
0.0874158414
 40
0.1352051023
 40
0.1871297391
 40
0.24358796
 40
0.3045617536
 40
0.3696757121
 40
0.4382961908
 40
0.5825200919
 40
0.7295506228
 40
0.8015492166
 40
0.871217939
 40
0.9376660373
 40
1.0
 40
1.0
 40
1.0
 40
1.0
 10
24.6963187611
 20
30.6046089697
 30
0.0
 10
24.706795651
 20
30.6106580249
 30
0.0
 10
24.7298828816
 20
30.6202793659
 30
0.0
 10
24.7680104351
 20
30.6258409325
 30
0.0
 10
24.8089498033
 20
30.6228510919
 30
0.0
 10
24.851790561
 20
30.6114472059
 30
0.0
 10
24.8957088855
 20
30.5920581926
 30
0.0
 10
24.939804945
 20
30.5650668645
 30
0.0
 10
24.9832090426
 20
30.5310998611
 30
0.0
 10
25.039843333
 20
30.4765428447
 30
0.0
 10
25.1027637435
 20
30.3959667339
 30
0.0
 10
25.1518676773
 20
30.3052718812
 30
0.0
 10
25.1811231042
 20
30.2290421121
 30
0.0
 10
25.1971195247
 20
30.1723681856
 30
0.0
 10
25.2069155462
 20
30.1170739316
 30
0.0
 10
25.2093307138
 20
30.0806701646
 30
0.0
 10
25.2093307138
 20
30.0630604436
 30
0.0
  0
SPLINE
  5
238
100
AcDbEntity
  8
0
100
AcDbSpline
 62
7
  6
CONTINUOUS
 70
0
 71
3
 72
21
 73
17
 74
0
 42
0.0000001
 43
0.0000001
 44
0.0000000001
 40
0.0
 40
0.0
 40
0.0
 40
0.0
 40
0.0428230854
 40
0.0874158414
 40
0.1352051023
 40
0.1871297391
 40
0.24358796
 40
0.3045617536
 40
0.3696757121
 40
0.4382961908
 40
0.5825200919
 40
0.7295506228
 40
0.8015492166
 40
0.871217939
 40
0.9376660373
 40
1.0
 40
1.0
 40
1.0
 40
1.0
 10
24.6963187611
 20
26.522096884
 30
0.0
 10
24.706795651
 20
26.5281459393
 30
0.0
 10
24.7298828816
 20
26.5377672802
 30
0.0
 10
24.7680104351
 20
26.5433288468
 30
0.0
 10
24.8089498033
 20
26.5403390062
 30
0.0
 10
24.851790561
 20
26.5289351203
 30
0.0
 10
24.8957088855
 20
26.5095461069
 30
0.0
 10
24.939804945
 20
26.4825547789
 30
0.0
 10
24.9832090426
 20
26.4485877754
 30
0.0
 10
25.039843333
 20
26.3940307591
 30
0.0
 10
25.1027637435
 20
26.3134546482
 30
0.0
 10
25.1518676773
 20
26.2227597956
 30
0.0
 10
25.1811231042
 20
26.1465300265
 30
0.0
 10
25.1971195247
 20
26.0898561
 30
0.0
 10
25.2069155462
 20
26.034561846
 30
0.0
 10
25.2093307138
 20
25.998158079
 30
0.0
 10
25.2093307138
 20
25.9805483579
 30
0.0
  0
SPLINE
  5
239
100
AcDbEntity
  8
0
100
AcDbSpline
 62
7
  6
CONTINUOUS
 70
0
 71
3
 72
21
 73
17
 74
0
 42
0.0000001
 43
0.0000001
 44
0.0000000001
 40
0.0
 40
0.0
 40
0.0
 40
0.0
 40
0.0428230854
 40
0.0874158414
 40
0.1352051023
 40
0.1871297391
 40
0.24358796
 40
0.3045617536
 40
0.3696757121
 40
0.4382961908
 40
0.5825200919
 40
0.7295506228
 40
0.8015492166
 40
0.871217939
 40
0.9376660373
 40
1.0
 40
1.0
 40
1.0
 40
1.0
 10
24.6963187611
 20
14.2745606271
 30
0.0
 10
24.706795651
 20
14.2806096823
 30
0.0
 10
24.7298828816
 20
14.2902310233
 30
0.0
 10
24.7680104351
 20
14.2957925899
 30
0.0
 10
24.8089498033
 20
14.2928027493
 30
0.0
 10
24.851790561
 20
14.2813988633
 30
0.0
 10
24.8957088855
 20
14.26200985
 30
0.0
 10
24.939804945
 20
14.2350185219
 30
0.0
 10
24.9832090426
 20
14.2010515185
 30
0.0
 10
25.039843333
 20
14.1464945021
 30
0.0
 10
25.1027637435
 20
14.0659183913
 30
0.0
 10
25.1518676773
 20
13.9752235386
 30
0.0
 10
25.1811231042
 20
13.8989937695
 30
0.0
 10
25.1971195247
 20
13.842319843
 30
0.0
 10
25.2069155462
 20
13.7870255891
 30
0.0
 10
25.2093307138
 20
13.750621822
 30
0.0
 10
25.2093307138
 20
13.733012101
 30
0.0
  0
SPLINE
  5
23A
100
AcDbEntity
  8
0
100
AcDbSpline
 62
7
  6
CONTINUOUS
 70
0
 71
3
 72
21
 73
17
 74
0
 42
0.0000001
 43
0.0000001
 44
0.0000000001
 40
0.0
 40
0.0
 40
0.0
 40
0.0
 40
0.0428230854
 40
0.0874158414
 40
0.1352051023
 40
0.1871297391
 40
0.24358796
 40
0.3045617536
 40
0.3696757121
 40
0.4382961908
 40
0.5825200919
 40
0.7295506228
 40
0.8015492166
 40
0.871217939
 40
0.9376660373
 40
1.0
 40
1.0
 40
1.0
 40
1.0
 10
19.3929958225
 20
37.7489267142
 30
0.0
 10
19.4034727124
 20
37.7549757695
 30
0.0
 10
19.426559943
 20
37.7645971104
 30
0.0
 10
19.4646874965
 20
37.770158677
 30
0.0
 10
19.5056268647
 20
37.7671688364
 30
0.0
 10
19.5484676224
 20
37.7557649505
 30
0.0
 10
19.5923859469
 20
37.7363759371
 30
0.0
 10
19.6364820063
 20
37.7093846091
 30
0.0
 10
19.679886104
 20
37.6754176056
 30
0.0
 10
19.7365203944
 20
37.6208605893
 30
0.0
 10
19.7994408049
 20
37.5402844784
 30
0.0
 10
19.8485447387
 20
37.4495896258
 30
0.0
 10
19.8778001656
 20
37.3733598567
 30
0.0
 10
19.8937965861
 20
37.3166859302
 30
0.0
 10
19.9035926076
 20
37.2613916762
 30
0.0
 10
19.9060077752
 20
37.2249879092
 30
0.0
 10
19.9060077752
 20
37.2073781881
 30
0.0
  0
SPLINE
  5
23B
100
AcDbEntity
  8
0
100
AcDbSpline
 62
7
  6
CONTINUOUS
 70
0
 71
3
 72
13
 73
9
 74
0
 42
0.0000001
 43
0.0000001
 44
0.0000000001
 40
0.0
 40
0.0
 40
0.0
 40
0.0
 40
0.1081042947
 40
0.2182395307
 40
0.332240649
 40
0.4516652798
 40
0.7106952299
 40
1.0
 40
1.0
 40
1.0
 40
1.0
 10
15.1835640932
 20
37.8547234222
 30
0.0
 10
15.1917621442
 20
37.8594565373
 30
0.0
 10
15.2091717966
 20
37.8675983488
 30
0.0
 10
15.2373296869
 20
37.8753888808
 30
0.0
 10
15.267346763
 20
37.8787451586
 30
0.0
 10
15.3105750658
 20
37.8772391611
 30
0.0
 10
15.3680015686
 20
37.8633929585
 30
0.0
 10
15.4116223145
 20
37.8426298823
 30
0.0
 10
15.4335617266
 20
37.8299634434
 30
0.0
  0
SPLINE
  5
23C
100
AcDbEntity
  8
0
100
AcDbSpline
 62
7
  6
CONTINUOUS
 70
0
 71
3
 72
12
 73
8
 74
0
 42
0.0000001
 43
0.0000001
 44
0.0000000001
 40
0.0
 40
0.0
 40
0.0
 40
0.0
 40
0.2893262092
 40
0.5487209533
 40
0.7816854868
 40
0.891848413
 40
1.0
 40
1.0
 40
1.0
 40
1.0
 10
19.9060077752
 20
37.2073781881
 30
0.0
 10
19.9060077752
 20
37.185856262
 30
0.0
 10
19.902710625
 20
37.1448984101
 30
0.0
 10
19.8861983936
 20
37.088640322
 30
0.0
 10
19.8623784971
 20
37.0498225142
 30
0.0
 10
19.8383426388
 20
37.0261966527
 30
0.0
 10
19.8249435758
 20
37.016856915
 30
0.0
 10
19.8179764614
 20
37.0128343033
 30
0.0
  0
SPLINE
  5
23D
100
AcDbEntity
  8
0
100
AcDbSpline
 62
7
  6
CONTINUOUS
 70
0
 71
3
 72
12
 73
8
 74
0
 42
0.0000001
 43
0.0000001
 44
0.0000000001
 40
0.0
 40
0.0
 40
0.0
 40
0.0
 40
0.2893262092
 40
0.5487209533
 40
0.7816854868
 40
0.891848413
 40
1.0
 40
1.0
 40
1.0
 40
1.0
 10
25.2093307138
 20
13.733012101
 30
0.0
 10
25.2093307138
 20
13.7114901748
 30
0.0
 10
25.2060335636
 20
13.670532323
 30
0.0
 10
25.1895213322
 20
13.6142742349
 30
0.0
 10
25.1657014357
 20
13.5754564271
 30
0.0
 10
25.1416655774
 20
13.5518305655
 30
0.0
 10
25.1282665144
 20
13.5424908279
 30
0.0
 10
25.1212994
 20
13.5384682162
 30
0.0
  0
SPLINE
  5
23E
100
AcDbEntity
  8
0
100
AcDbSpline
 62
7
  6
CONTINUOUS
 70
0
 71
3
 72
12
 73
8
 74
0
 42
0.0000001
 43
0.0000001
 44
0.0000000001
 40
0.0
 40
0.0
 40
0.0
 40
0.0
 40
0.2893262092
 40
0.5487209533
 40
0.7816854868
 40
0.891848413
 40
1.0
 40
1.0
 40
1.0
 40
1.0
 10
25.2093307138
 20
25.9805483579
 30
0.0
 10
25.2093307138
 20
25.9590264318
 30
0.0
 10
25.2060335636
 20
25.9180685799
 30
0.0
 10
25.1895213322
 20
25.8618104918
 30
0.0
 10
25.1657014357
 20
25.822992684
 30
0.0
 10
25.1416655774
 20
25.7993668225
 30
0.0
 10
25.1282665144
 20
25.7900270848
 30
0.0
 10
25.1212994
 20
25.7860044731
 30
0.0
  0
SPLINE
  5
23F
100
AcDbEntity
  8
0
100
AcDbSpline
 62
7
  6
CONTINUOUS
 70
0
 71
3
 72
12
 73
8
 74
0
 42
0.0000001
 43
0.0000001
 44
0.0000000001
 40
0.0
 40
0.0
 40
0.0
 40
0.0
 40
0.2893262092
 40
0.5487209533
 40
0.7816854868
 40
0.891848413
 40
1.0
 40
1.0
 40
1.0
 40
1.0
 10
25.2093307138
 20
30.0630604436
 30
0.0
 10
25.2093307138
 20
30.0415385174
 30
0.0
 10
25.2060335636
 20
30.0005806656
 30
0.0
 10
25.1895213322
 20
29.9443225775
 30
0.0
 10
25.1657014357
 20
29.9055047697
 30
0.0
 10
25.1416655774
 20
29.8818789081
 30
0.0
 10
25.1282665144
 20
29.8725391704
 30
0.0
 10
25.1212994
 20
29.8685165588
 30
0.0
  0
SPLINE
  5
240
100
AcDbEntity
  8
0
100
AcDbSpline
 62
7
  6
CONTINUOUS
 70
0
 71
3
 72
12
 73
8
 74
0
 42
0.0000001
 43
0.0000001
 44
0.0000000001
 40
0.0
 40
0.0
 40
0.0
 40
0.0
 40
0.2893262092
 40
0.5487209533
 40
0.7816854868
 40
0.891848413
 40
1.0
 40
1.0
 40
1.0
 40
1.0
 10
25.2093307138
 20
34.1455725292
 30
0.0
 10
25.2093307138
 20
34.1240506031
 30
0.0
 10
25.2060335636
 20
34.0830927512
 30
0.0
 10
25.1895213322
 20
34.0268346631
 30
0.0
 10
25.1657014357
 20
33.9880168553
 30
0.0
 10
25.1416655774
 20
33.9643909938
 30
0.0
 10
25.1282665144
 20
33.9550512561
 30
0.0
 10
25.1212994
 20
33.9510286444
 30
0.0
  0
SPLINE
  5
241
100
AcDbEntity
  8
0
100
AcDbSpline
 62
7
  6
CONTINUOUS
 70
0
 71
3
 72
15
 73
11
 74
0
 42
0.0000001
 43
0.0000001
 44
0.0000000001
 40
0.0
 40
0.0
 40
0.0
 40
0.0
 40
0.1141225842
 40
0.2373453282
 40
0.3669717174
 40
0.500001082
 40
0.633030296
 40
0.7626562458
 40
0.8858782968
 40
1.0
 40
1.0
 40
1.0
 40
1.0
 10
13.1709001027
 20
26.3175120418
 30
0.0
 10
13.1709001027
 20
26.3454519215
 30
0.0
 10
13.1657706272
 20
26.4036124926
 30
0.0
 10
13.1453800231
 20
26.4913519815
 30
0.0
 10
13.1126758324
 20
26.580226636
 30
0.0
 10
13.0689331139
 20
26.6668908348
 30
0.0
 10
13.0157507489
 20
26.7481048979
 30
0.0
 10
12.955134953
 20
26.8208643272
 30
0.0
 10
12.8893455955
 20
26.8823921009
 30
0.0
 10
12.8415418358
 20
26.9159140326
 30
0.0
 10
12.8173452401
 20
26.9298836276
 30
0.0
  0
SPLINE
  5
242
100
AcDbEntity
  8
0
100
AcDbSpline
 62
7
  6
CONTINUOUS
 70
0
 71
3
 72
15
 73
11
 74
0
 42
0.0000001
 43
0.0000001
 44
0.0000000001
 40
0.0
 40
0.0
 40
0.0
 40
0.0
 40
0.1141226906
 40
0.237345586
 40
0.3669721265
 40
0.5000016033
 40
0.6330308571
 40
0.7626567465
 40
0.885878615
 40
1.0
 40
1.0
 40
1.0
 40
1.0
 10
4.3320314823
 20
31.0122790191
 30
0.0
 10
4.3320314823
 20
31.0402189081
 30
0.0
 10
4.3371609176
 20
31.0983795063
 30
0.0
 10
4.3575513488
 20
31.1861190784
 30
0.0
 10
4.3902552617
 20
31.2749938786
 30
0.0
 10
4.4339976089
 20
31.3616582791
 30
0.0
 10
4.4871795226
 20
31.4428725913
 30
0.0
 10
4.5477948034
 20
31.5156323074
 30
0.0
 10
4.6135836013
 20
31.5771603954
 30
0.0
 10
4.6613869879
 20
31.6106825824
 30
0.0
 10
4.6855834009
 20
31.6246523046
 30
0.0
  0
SPLINE
  5
243
100
AcDbEntity
  8
0
100
AcDbSpline
 62
7
  6
CONTINUOUS
 70
0
 71
3
 72
13
 73
9
 74
0
 42
0.0000001
 43
0.0000001
 44
0.0000000001
 40
0.0
 40
0.0
 40
0.0
 40
0.0
 40
0.2893017614
 40
0.548329459
 40
0.6677553519
 40
0.7817579039
 40
0.8918945057
 40
1.0
 40
1.0
 40
1.0
 40
1.0
 10
4.6855834009
 20
31.6246523046
 30
0.0
 10
4.6636440889
 20
31.6373186857
 30
0.0
 10
4.6200238044
 20
31.6580823165
 30
0.0
 10
4.5625974273
 20
31.671928802
 30
0.0
 10
4.5193688723
 20
31.6734358357
 30
0.0
 10
4.489351217
 20
31.6700798176
 30
0.0
 10
4.4611927272
 20
31.6622895021
 30
0.0
 10
4.4437827088
 20
31.6541476412
 30
0.0
 10
4.4355845201
 20
31.6494144441
 30
0.0
  0
SPLINE
  5
244
100
AcDbEntity
  8
0
100
AcDbSpline
 62
7
  6
CONTINUOUS
 70
0
 71
3
 72
13
 73
9
 74
0
 42
0.0000001
 43
0.0000001
 44
0.0000000001
 40
0.0
 40
0.0
 40
0.0
 40
0.0
 40
0.1081041087
 40
0.2182395207
 40
0.3322412377
 40
0.4516667624
 40
0.7106953096
 40
1.0
 40
1.0
 40
1.0
 40
1.0
 10
4.1855834009
 20
31.216401096
 30
0.0
 10
4.1855834005
 20
31.2069347435
 30
0.0
 10
4.1872373599
 20
31.1877864414
 30
0.0
 10
4.1945701743
 20
31.1595055499
 30
0.0
 10
4.206672937
 20
31.1318317319
 30
0.0
 10
4.2295930494
 20
31.0951485001
 30
0.0
 10
4.2702989062
 20
31.0523394996
 30
0.0
 10
4.3100918657
 20
31.0249455761
 30
0.0
 10
4.3320314823
 20
31.0122790191
 30
0.0
  0
SPLINE
  5
245
100
AcDbEntity
  8
0
100
AcDbSpline
 62
7
  6
CONTINUOUS
 70
0
 71
3
 72
9
 73
5
 74
0
 42
0.0000001
 43
0.0000001
 44
0.0000000001
 40
0.0
 40
0.0
 40
0.0
 40
0.0
 40
0.4910713722
 40
1.0
 40
1.0
 40
1.0
 40
1.0
 10
4.4355876427
 20
7.9213182655
 30
0.0
 10
4.4240235122
 20
7.9279946661
 30
0.0
 10
4.4020675305
 20
7.9445305989
 30
0.0
 10
4.3845541439
 20
7.9656521789
 30
0.0
 10
4.3768485661
 20
7.9771469991
 30
0.0
  0
SPLINE
  5
246
100
AcDbEntity
  8
0
100
AcDbSpline
 62
7
  6
CONTINUOUS
 70
0
 71
3
 72
10
 73
6
 74
0
 42
0.0000001
 43
0.0000001
 44
0.0000000001
 40
0.0
 40
0.0
 40
0.0
 40
0.0
 40
0.4633768181
 40
0.7225374457
 40
1.0
 40
1.0
 40
1.0
 40
1.0
 10
4.3768485661
 20
7.9771469991
 30
0.0
 10
4.3612916577
 20
8.0003540669
 30
0.0
 10
4.3444052713
 20
8.041677285
 30
0.0
 10
4.3337763685
 20
8.1010632826
 30
0.0
 10
4.3320314823
 20
8.1334819424
 30
0.0
 10
4.3320314823
 20
8.1502113394
 30
0.0
  0
SPLINE
  5
247
100
AcDbEntity
  8
0
100
AcDbSpline
 62
7
  6
CONTINUOUS
 70
0
 71
3
 72
13
 73
9
 74
0
 42
0.0000001
 43
0.0000001
 44
0.0000000001
 40
0.0
 40
0.0
 40
0.0
 40
0.0
 40
0.2893036973
 40
0.5483320142
 40
0.66775768
 40
0.7817596749
 40
0.8918954639
 40
1.0
 40
1.0
 40
1.0
 40
1.0
 10
12.4637933215
 20
3.4554426625
 30
0.0
 10
12.4637933215
 20
3.4301085914
 30
0.0
 10
12.46762128
 20
3.3819488905
 30
0.0
 10
12.4843431058
 20
3.3252910037
 30
0.0
 10
12.5046526295
 20
3.2870992974
 30
0.0
 10
12.5225682461
 20
3.2627806591
 30
0.0
 10
12.5433946124
 20
3.2422894823
 30
0.0
 10
12.5591511019
 20
3.2312828167
 30
0.0
 10
12.5673494819
 20
3.2265495885
 30
0.0
  0
SPLINE
  5
248
100
AcDbEntity
  8
0
100
AcDbSpline
 62
7
  6
CONTINUOUS
 70
0
 71
3
 72
15
 73
11
 74
0
 42
0.0000001
 43
0.0000001
 44
0.0000000001
 40
0.0
 40
0.0
 40
0.0
 40
0.0
 40
0.1141216057
 40
0.2373437884
 40
0.3669699918
 40
0.4999994786
 40
0.633029038
 40
0.7626554531
 40
0.8858779697
 40
1.0
 40
1.0
 40
1.0
 40
1.0
 10
13.1709001027
 20
3.4554443621
 30
0.0
 10
13.1467036729
 20
3.4414746303
 30
0.0
 10
13.0937707796
 20
3.41683695
 30
0.0
 10
13.007591388
 20
3.3906262721
 30
0.0
 10
12.914271928
 20
3.374511589
 30
0.0
 10
12.8173473083
 20
3.3690614813
 30
0.0
 10
12.7204226111
 20
3.374511129
 30
0.0
 10
12.6271029223
 20
3.390625369
 30
0.0
 10
12.5409231595
 20
3.4168356372
 30
0.0
 10
12.487989942
 20
3.4414730531
 30
0.0
 10
12.4637933215
 20
3.4554426625
 30
0.0
  0
SPLINE
  5
249
100
AcDbEntity
  8
0
100
AcDbSpline
 62
7
  6
CONTINUOUS
 70
0
 71
3
 72
13
 73
9
 74
0
 42
0.0000001
 43
0.0000001
 44
0.0000000001
 40
0.0
 40
0.0
 40
0.0
 40
0.0
 40
0.1081049866
 40
0.2182411625
 40
0.332243429
 40
0.4516692145
 40
0.7106972551
 40
1.0
 40
1.0
 40
1.0
 40
1.0
 10
13.0673441209
 20
3.2265513913
 30
0.0
 10
13.0755424906
 20
3.231284693
 30
0.0
 10
13.0912989526
 20
3.2422914803
 30
0.0
 10
13.1121252836
 20
3.2627827769
 30
0.0
 10
13.1300408678
 20
3.2871014754
 30
0.0
 10
13.1503503411
 20
3.3252931576
 30
0.0
 10
13.1670721399
 20
3.3819508706
 30
0.0
 10
13.1709001027
 20
3.4301104054
 30
0.0
 10
13.1709001027
 20
3.4554443621
 30
0.0
  0
SPLINE
  5
24A
100
AcDbEntity
  8
0
100
AcDbSpline
 62
7
  6
CONTINUOUS
 70
0
 71
3
 72
13
 73
9
 74
0
 42
0.0000001
 43
0.0000001
 44
0.0000000001
 40
0.0
 40
0.0
 40
0.0
 40
0.0
 40
0.2893046904
 40
0.5483332376
 40
0.6677587623
 40
0.7817604793
 40
0.8918958913
 40
1.0
 40
1.0
 40
1.0
 40
1.0
 10
4.3320314823
 20
8.1502113394
 30
0.0
 10
4.3100918657
 20
8.1628778964
 30
0.0
 10
4.2702989062
 20
8.19027182
 30
0.0
 10
4.2295930494
 20
8.2330808205
 30
0.0
 10
4.206672937
 20
8.2697640523
 30
0.0
 10
4.1945701743
 20
8.2974378703
 30
0.0
 10
4.1872373599
 20
8.3257187617
 30
0.0
 10
4.1855834005
 20
8.3448670639
 30
0.0
 10
4.1855834009
 20
8.3543334164
 30
0.0
  0
SPLINE
  5
24B
100
AcDbEntity
  8
0
100
AcDbSpline
 62
7
  6
CONTINUOUS
 70
0
 71
3
 72
15
 73
11
 74
0
 42
0.0000001
 43
0.0000001
 44
0.0000000001
 40
0.0
 40
0.0
 40
0.0
 40
0.0
 40
0.1141220303
 40
0.2373445469
 40
0.366970962
 40
0.5000005214
 40
0.6330300082
 40
0.7626562116
 40
0.8858783943
 40
1.0
 40
1.0
 40
1.0
 40
1.0
 10
12.4637933215
 20
26.3175103421
 30
0.0
 10
12.487989942
 20
26.3035407328
 30
0.0
 10
12.5409231595
 20
26.2789033168
 30
0.0
 10
12.6271029223
 20
26.2526930486
 30
0.0
 10
12.7204226111
 20
26.2365788086
 30
0.0
 10
12.8173473083
 20
26.2311291609
 30
0.0
 10
12.914271928
 20
26.2365792686
 30
0.0
 10
13.007591388
 20
26.2526939518
 30
0.0
 10
13.0937707796
 20
26.2789046296
 30
0.0
 10
13.1467036729
 20
26.3035423099
 30
0.0
 10
13.1709001027
 20
26.3175120418
 30
0.0
  0
SPLINE
  5
24C
100
AcDbEntity
  8
0
100
AcDbSpline
 62
7
  6
CONTINUOUS
 70
0
 71
3
 72
15
 73
11
 74
0
 42
0.0000001
 43
0.0000001
 44
0.0000000001
 40
0.0
 40
0.0
 40
0.0
 40
0.0
 40
0.114121385
 40
0.2373432535
 40
0.3669691429
 40
0.4999983967
 40
0.6330278735
 40
0.762654414
 40
0.8858773094
 40
1.0
 40
1.0
 40
1.0
 40
1.0
 10
12.8173452401
 20
26.9298836276
 30
0.0
 10
12.7931488271
 20
26.9159139054
 30
0.0
 10
12.7453454405
 20
26.8823917184
 30
0.0
 10
12.6795566426
 20
26.8208636304
 30
0.0
 10
12.6189413618
 20
26.7481039144
 30
0.0
 10
12.5657594481
 20
26.6668896021
 30
0.0
 10
12.5220171009
 20
26.5802252016
 30
0.0
 10
12.489313188
 20
26.4913504014
 30
0.0
 10
12.4689227568
 20
26.4036108293
 30
0.0
 10
12.4637933215
 20
26.3454502311
 30
0.0
 10
12.4637933215
 20
26.3175103421
 30
0.0
  0
ENDSEC
  0
SECTION
  2
OBJECTS
  0
DICTIONARY
  5
C
100
AcDbDictionary
280
0
281
1
  3
ACAD_GROUP
350
D
  3
ACAD_MLINESTYLE
350
17
  3
ACAD_LAYOUT
350
1A
  3
ACAD_PLOTSETTINGS
350
19
  3
ACAD_PLOTSTYLENAME
350
E
  0
DICTIONARY
  5
D
102
{ACAD_REACTORS
330
C
102
}
100
AcDbDictionary
280
0
281
1
  0
ACDBDICTIONARYWDFLT
  5
E
102
{ACAD_REACTORS
330
C
102
}
100
AcDbDictionary
281
1
  3
Normal
350
F
100
AcDbDictionaryWithDefault
340
F
  0
DICTIONARY
  5
17
102
{ACAD_REACTORS
330
C
102
}
100
AcDbDictionary
280
0
281
1
  3
Standard
350
18
  0
DICTIONARY
  5
19
102
{ACAD_REACTORS
330
C
102
}
100
AcDbDictionary
281
1
  0
DICTIONARY
  5
1A
102
{ACAD_REACTORS
330
C
102
}
100
AcDbDictionary
281
1
  3
Model
350
24D
  3
Layout1
350
24E
  0
ACDBPLACEHOLDER
  5
F
102
{ACAD_REACTORS
330
E
102
}
  0
MLINESTYLE
  5
18
102
{ACAD_REACTORS
330
17
102
}
100
AcDbMlineStyle
  2
STANDARD
 70
0
  3

 62
256
 51
90.0
 52
90.0
 71
2
 49
0.5
 62
256
  6
BYLAYER
 49
-0.5
 62
256
  6
BYLAYER
  0
LAYOUT
  5
24D
102
{ACAD_REACTORS
330
1A
102
}
100
AcDbPlotSettings
  1

  2
none_device
  4

  6

 40
0.0
 41
0.0
 42
0.0
 43
0.0
 44
210.0
 45
297.0
 46
0.0
 47
0.0
 48
0.0
 49
0.0
140
0.0
141
0.0
142
1.0
143
1.0
 70
1024
 72
1
 73
0
 74
0
  7

 75
0
147
1.0
148
0.0
149
0.0
100
AcDbLayout
  1
Model
 70
0
 71
0
 10
0.0
 20
0.0
 11
210.0
 21
297.0
 12
0.0
 22
0.0
 32
0.0
 14
0.0
 24
0.0
 34
0.0
 15
0.0
 25
0.0
 35
0.0
146
0.0
 13
0.0
 23
0.0
 33
0.0
 16
1.0
 26
0.0
 36
0.0
 17
0.0
 27
1.0
 37
0.0
 76
0
330
210
345
0
346
0
  0
LAYOUT
  5
24E
102
{ACAD_REACTORS
330
1A
102
}
100
AcDbPlotSettings
  1

  2
none_device
  4

  6

 40
0.0
 41
0.0
 42
0.0
 43
0.0
 44
210.0
 45
297.0
 46
0.0
 47
0.0
 48
0.0
 49
0.0
140
0.0
141
0.0
142
1.0
143
1.0
 70
0
 72
1
 73
0
 74
0
  7

 75
0
147
1.0
148
0.0
149
0.0
100
AcDbLayout
  1
Layout1
 70
0
 71
1
 10
0.0
 20
0.0
 11
210.0
 21
297.0
 12
0.0
 22
0.0
 32
0.0
 14
0.0
 24
0.0
 34
0.0
 15
0.0
 25
0.0
 35
0.0
146
0.0
 13
0.0
 23
0.0
 33
0.0
 16
1.0
 26
0.0
 36
0.0
 17
0.0
 27
1.0
 37
0.0
 76
0
330
211
345
0
346
0
  0
ENDSEC
  0
EOF
