999
DXF file: C:\Users\sesa63760\Dev\_Creo\CAD\MCADPD0005314_3D-CAD\drw0001_1.dxf
999
Pro/ENGINEER 2019471 by Parametric Technology Corporation
  0
SECTION
  2
HEADER
  9
$ACADVER
  1
AC1024
  9
$DWGCODEPAGE
  3
ANSI_1252
  9
$EXTMAX
 10
243.971192662
 20
345.0449724791
 30
0.0
  9
$EXTMIN
 10
0.0
 20
0.0
 30
0.0
  9
$LIMMIN
 10
0.0
 20
0.0
  9
$LIMMAX
 10
243.971192662
 20
345.0449724791
  9
$VIEWCTR
 10
121.985596331
 20
172.5224862396
  9
$VIEWSIZE
 40
345.0449724791
  9
$CLAYER
  8
0
  9
$LTSCALE
 40
22.4918204283
  9
$CELTYPE
  6
BYLAYER
  9
$DIMSCALE
 40
1.0
  9
$DIMASZ
 40
2.9044189603
  9
$DIMEXO
 40
1.0
  9
$DIMDLI
 40
15.539803205
  9
$DIMEXE
 40
1.0
  9
$DIMCEN
 40
3.6804797064
  9
$DIMLFAC
 40
1.0
  9
$DIMBLK
  1
_FILLED
  9
$DIMALT
 70
0
  9
$DIMALTF
 40
0.0393700787
  9
$DIMTXT
 40
4.0661865444
  9
$DIMTOL
 70
1
  9
$DIMLIM
 70
0
  9
$DIMTFAC
 40
1.0
  9
$DIMTP
 40
0.01
  9
$DIMTM
 40
0.01
  9
$DIMGAP
 40
0.625
  9
$DIMDSEP
 70
46
  9
$AUNITS
 70
0
  9
$PDMODE
 70
3
  9
$PDSIZE
 40
0.3125
  9
$HANDSEED
  5
3A4
  9
$TILEMODE
 70
1
  9
$MEASUREMENT
 70
1
  9
$INSUNITS
 70
4
  0
ENDSEC
  0
SECTION
  2
CLASSES
  0
CLASS
  1
ACDBDICTIONARYWDFLT
  2
AcDbDictionaryWithDefault
  3
AutoCAD 2000
 90
0
 91
1
280
0
281
0
  0
CLASS
  1
ACDBPLACEHOLDER
  2
AcDbPlaceHolder
  3
AutoCAD 2000
 90
0
 91
1
280
0
281
0
  0
CLASS
  1
LAYOUT
  2
AcDbLayout
  3
AutoCAD 2000
 90
0
 91
0
280
0
281
0
  0
ENDSEC
  0
SECTION
  2
TABLES
  0
TABLE
  2
VPORT
  5
8
100
AcDbSymbolTable
 70
2
  0
VPORT
  5
1F4
100
AcDbSymbolTableRecord
100
AcDbViewportTableRecord
  2
*ACTIVE
 70
0
 10
0.0
 20
0.0
 11
1.0
 21
1.0
 12
121.985596331
 22
172.5224862396
 13
0.0
 23
0.0
 14
1.0
 24
1.0
 15
0.0
 25
0.0
 16
0.0
 26
0.0
 36
1.0
 17
0.0
 27
0.0
 37
0.0
 40
345.0449724791
 41
0.7070707071
 42
50.0
 43
0.0
 44
0.0
 50
0.0
 51
0.0
 71
0
 72
100
 73
1
 74
1
 75
0
 76
0
 77
0
 78
0
  0
ENDTAB
  0
TABLE
  2
LTYPE
  5
5
100
AcDbSymbolTable
 70
6
  0
LTYPE
  5
14
100
AcDbSymbolTableRecord
100
AcDbLinetypeTableRecord
  2
BYBLOCK
 70
0
  3

 72
65
 73
0
 40
0.0
  0
LTYPE
  5
15
100
AcDbSymbolTableRecord
100
AcDbLinetypeTableRecord
  2
BYLAYER
 70
0
  3

 72
65
 73
0
 40
0.0
  0
LTYPE
  5
16
100
AcDbSymbolTableRecord
100
AcDbLinetypeTableRecord
  2
CONTINUOUS
 70
64
  3
Solid line
 72
65
 73
0
 40
0.0
  0
LTYPE
  5
1F5
100
AcDbSymbolTableRecord
100
AcDbLinetypeTableRecord
  2
CENTER
 70
64
  3
____ _ ____ _ ____ _ ____ _ ____ _ ____ _ ____
 72
65
 73
4
 40
0.6
 49
0.375
 74
0
 49
-0.075
 74
0
 49
0.075
 74
0
 49
-0.075
 74
0
  0
LTYPE
  5
1F6
100
AcDbSymbolTableRecord
100
AcDbLinetypeTableRecord
  2
HIDDEN
 70
64
  3
- - - - - - - - - - - - - - - - - - - -
 72
65
 73
2
 40
0.2
 49
0.1
 74
0
 49
-0.1
 74
0
  0
LTYPE
  5
1F7
100
AcDbSymbolTableRecord
100
AcDbLinetypeTableRecord
  2
PHANTOM
 70
64
  3
_____ _ _ _____ _ _ _____ _ _ _____
 72
65
 73
6
 40
0.8
 49
0.45
 74
0
 49
-0.05
 74
0
 49
0.1
 74
0
 49
-0.05
 74
0
 49
0.1
 74
0
 49
-0.05
 74
0
  0
LTYPE
  5
1F8
100
AcDbSymbolTableRecord
100
AcDbLinetypeTableRecord
  2
DOT
 70
64
  3
. . . . . . . . . . . . . . . . . . . .
 72
65
 73
2
 40
0.2
 49
0.1
 74
0
 49
-0.1
 74
0
  0
LTYPE
  5
1F9
100
AcDbSymbolTableRecord
100
AcDbLinetypeTableRecord
  2
DASHED
 70
64
  3
- - - - - - - - - - - - - - - - - - - -
 72
65
 73
2
 40
0.2
 49
0.1
 74
0
 49
-0.1
 74
0
  0
ENDTAB
  0
TABLE
  2
LAYER
  5
2
100
AcDbSymbolTable
 70
36
  0
LAYER
  5
10
100
AcDbSymbolTableRecord
100
AcDbLayerTableRecord
  2
0
 70
0
 62
7
  6
CONTINUOUS
370
-3
390
F
  0
LAYER
  5
1FA
100
AcDbSymbolTableRecord
100
AcDbLayerTableRecord
  2
DEFAULT_1
 70
0
 62
7
  6
CENTER
370
-3
390
F
  0
LAYER
  5
1FB
100
AcDbSymbolTableRecord
100
AcDbLayerTableRecord
  2
DEFAULT_2
 70
0
 62
7
  6
HIDDEN
370
-3
390
F
  0
LAYER
  5
1FC
100
AcDbSymbolTableRecord
100
AcDbLayerTableRecord
  2
DEFAULT_3
 70
0
 62
7
  6
PHANTOM
370
-3
390
F
  0
LAYER
  5
1FD
100
AcDbSymbolTableRecord
100
AcDbLayerTableRecord
  2
00_COMPONENTS
 70
0
 62
7
  6
CONTINUOUS
370
-3
390
F
  0
LAYER
  5
1FE
100
AcDbSymbolTableRecord
100
AcDbLayerTableRecord
  2
01_1_DEFAULT_DATUMS
 70
0
 62
7
  6
CONTINUOUS
370
-3
390
F
  0
LAYER
  5
1FF
100
AcDbSymbolTableRecord
100
AcDbLayerTableRecord
  2
01_PLANES
 70
0
 62
7
  6
CONTINUOUS
370
-3
390
F
  0
LAYER
  5
200
100
AcDbSymbolTableRecord
100
AcDbLayerTableRecord
  2
02_COORD_SYS
 70
0
 62
7
  6
CONTINUOUS
370
-3
390
F
  0
LAYER
  5
201
100
AcDbSymbolTableRecord
100
AcDbLayerTableRecord
  2
03_AXES
 70
0
 62
7
  6
CONTINUOUS
370
-3
390
F
  0
LAYER
  5
202
100
AcDbSymbolTableRecord
100
AcDbLayerTableRecord
  2
04_POINTS
 70
0
 62
7
  6
CONTINUOUS
370
-3
390
F
  0
LAYER
  5
203
100
AcDbSymbolTableRecord
100
AcDbLayerTableRecord
  2
05_CURVES
 70
0
 62
7
  6
CONTINUOUS
370
-3
390
F
  0
LAYER
  5
204
100
AcDbSymbolTableRecord
100
AcDbLayerTableRecord
  2
06_SURFS
 70
0
 62
7
  6
CONTINUOUS
370
-3
390
F
  0
LAYER
  5
205
100
AcDbSymbolTableRecord
100
AcDbLayerTableRecord
  2
07_COSMETICS
 70
0
 62
7
  6
CONTINUOUS
370
-3
390
F
  0
LAYER
  5
206
100
AcDbSymbolTableRecord
100
AcDbLayerTableRecord
  2
10_NOTES
 70
0
 62
7
  6
CONTINUOUS
370
-3
390
F
  0
LAYER
  5
207
100
AcDbSymbolTableRecord
100
AcDbLayerTableRecord
  2
11_NOTES_PUB
 70
0
 62
7
  6
CONTINUOUS
370
-3
390
F
  0
LAYER
  5
208
100
AcDbSymbolTableRecord
100
AcDbLayerTableRecord
  2
13_REF_GTOL
 70
0
 62
7
  6
CONTINUOUS
370
-3
390
F
  0
LAYER
  5
209
100
AcDbSymbolTableRecord
100
AcDbLayerTableRecord
  2
16_MISC
 70
0
 62
7
  6
CONTINUOUS
370
-3
390
F
  0
LAYER
  5
20A
100
AcDbSymbolTableRecord
100
AcDbLayerTableRecord
  2
17_NO_PRINT
 70
0
 62
7
  6
CONTINUOUS
370
-3
390
F
  0
LAYER
  5
20B
100
AcDbSymbolTableRecord
100
AcDbLayerTableRecord
  2
18_DATUM_CAMS_JOINTS
 70
0
 62
7
  6
CONTINUOUS
370
-3
390
F
  0
LAYER
  5
20C
100
AcDbSymbolTableRecord
100
AcDbLayerTableRecord
  2
19_DATUM_FUNCTIONAL
 70
0
 62
7
  6
CONTINUOUS
370
-3
390
F
  0
LAYER
  5
20D
100
AcDbSymbolTableRecord
100
AcDbLayerTableRecord
  2
20_DATUM_KINEMATIC_SCHEME
 70
0
 62
7
  6
CONTINUOUS
370
-3
390
F
  0
ENDTAB
  0
TABLE
  2
STYLE
  5
3
100
AcDbSymbolTable
 70
1
  0
STYLE
  5
11
100
AcDbSymbolTableRecord
100
AcDbTextStyleTableRecord
  2
STANDARD
 70
0
 40
0.0
 41
1.0
 50
0.0
 71
0
 42
0.2
  3
ARIAL.TTF
  4

  0
STYLE
  5
20E
100
AcDbSymbolTableRecord
100
AcDbTextStyleTableRecord
  2
TEXTSTYLE_1
 70
0
 40
0.0
 41
0.8
 50
0.0
 71
0
 42
0.2
  3
gdt
  4

  0
ENDTAB
  0
TABLE
  2
VIEW
  5
6
100
AcDbSymbolTable
 70
0
  0
ENDTAB
  0
TABLE
  2
UCS
  5
7
100
AcDbSymbolTable
 70
0
  0
ENDTAB
  0
TABLE
  2
APPID
  5
9
100
AcDbSymbolTable
 70
1
  0
APPID
  5
20F
100
AcDbSymbolTableRecord
100
AcDbRegAppTableRecord
  2
ACAD
 70
0
  0
ENDTAB
  0
TABLE
  2
BLOCK_RECORD
  5
1
100
AcDbSymbolTable
 70
0
  0
BLOCK_RECORD
  5
210
100
AcDbSymbolTableRecord
100
AcDbBlockTableRecord
  2
*Model_Space
  0
BLOCK_RECORD
  5
211
100
AcDbSymbolTableRecord
100
AcDbBlockTableRecord
  2
*Paper_Space
  0
BLOCK_RECORD
  5
212
100
AcDbSymbolTableRecord
100
AcDbBlockTableRecord
  2
_FILLED
  0
ENDTAB
  0
TABLE
  2
DIMSTYLE
  5
A
100
AcDbSymbolTable
 70
1
100
AcDbDimStyleTable
 71
0
  0
DIMSTYLE
105
213
100
AcDbSymbolTableRecord
100
AcDbDimStyleTableRecord
  2
STANDARD
 70
0
  3

  4

 40
1.0
 41
2.9044189603
 42
1.0
 43
0.38
 44
1.0
 45
0.0
 46
0.0
 47
0.01
 48
0.01
140
4.0661865444
141
0.09
142
0.0
143
25.4
144
1.0
145
0.0
146
1.0
147
0.625
 71
1
 72
0
 73
0
 74
0
 75
0
 76
0
 77
1
 78
8
 79
2
170
0
171
1
172
0
173
0
174
0
175
0
176
0
177
0
178
0
270
2
179
2
271
2
272
2
273
2
274
2
275
0
280
0
281
0
282
0
283
1
284
8
285
0
286
0
287
3
288
0
340
11
278
46
341
212
342
212
343
212
344
212
  0
ENDTAB
  0
ENDSEC
  0
SECTION
  2
BLOCKS
  0
BLOCK
  5
20
100
AcDbEntity
  8
0
100
AcDbBlockBegin
  2
*Model_Space
 70
0
 10
0.0
 20
0.0
 30
0.0
  3
*Model_Space
  1

  0
ENDBLK
  5
21
100
AcDbEntity
  8
0
100
AcDbBlockEnd
  0
BLOCK
  5
1C
100
AcDbEntity
  8
0
100
AcDbBlockBegin
  2
*Paper_Space
 70
0
 10
0.0
 20
0.0
 30
0.0
  3
*Paper_Space
  1

  0
ENDBLK
  5
1D
100
AcDbEntity
  8
0
100
AcDbBlockEnd
  0
BLOCK
  5
214
100
AcDbEntity
  8
0
100
AcDbBlockBegin
  2
_FILLED
 70
64
 10
0.0
 20
0.0
  3
_FILLED
  1

  0
SOLID
  5
215
100
AcDbEntity
  8
0
  6
BYBLOCK
 62
0
100
AcDbTrace
 10
0.0
 20
0.0
 11
-1.0
 21
0.25
 12
-1.0
 22
-0.25
 13
-1.0
 23
-0.25
  0
ENDBLK
  5
216
100
AcDbEntity
  8
0
  6
BYBLOCK
 62
0
100
AcDbBlockEnd
  0
ENDSEC
  0
SECTION
  2
ENTITIES
  0
LINE
  5
217
100
AcDbEntity
  8
0
100
AcDbLine
 62
7
  6
BYLAYER
 10
28.3034653031
 20
213.633332027
 11
28.3034653031
 21
199.7463065027
  0
LINE
  5
218
100
AcDbEntity
  8
0
100
AcDbLine
 62
7
  6
BYLAYER
 10
31.6851305255
 20
194.881797295
 11
31.6851305255
 21
147.7595999156
  0
LINE
  5
219
100
AcDbEntity
  8
0
100
AcDbLine
 62
7
  6
BYLAYER
 10
34.4710241032
 20
215.5864573553
 11
34.4710241032
 21
217.2790889681
  0
LINE
  5
21A
100
AcDbEntity
  8
0
100
AcDbLine
 62
7
  6
BYLAYER
 10
34.6433817696
 20
193.091950182
 11
34.6433817696
 21
143.6363339615
  0
LINE
  5
21B
100
AcDbEntity
  8
0
100
AcDbLine
 62
7
  6
BYLAYER
 10
31.9705252612
 20
194.6350896962
 11
31.9729025085
 21
208.4696294231
  0
LINE
  5
21C
100
AcDbEntity
  8
0
100
AcDbLine
 62
7
  6
BYLAYER
 10
31.9731461455
 20
218.6949820538
 11
99.8214175483
 21
257.8669532905
  0
LINE
  5
21D
100
AcDbEntity
  8
0
100
AcDbLine
 62
7
  6
BYLAYER
 10
99.8214179917
 20
257.8669422154
 11
101.776377284
 21
258.7987858607
  0
LINE
  5
21E
100
AcDbEntity
  8
0
100
AcDbLine
 62
7
  6
BYLAYER
 10
41.9709908612
 20
221.7976644155
 11
41.9710573453
 21
212.4088490953
  0
LINE
  5
21F
100
AcDbEntity
  8
0
100
AcDbLine
 62
7
  6
BYLAYER
 10
42.9709908612
 20
221.9804195331
 11
42.9710573453
 21
212.618660599
  0
LINE
  5
220
100
AcDbEntity
  8
0
100
AcDbLine
 62
7
  6
BYLAYER
 10
108.1771512598
 20
256.9701008026
 11
102.2217693241
 21
253.531779963
  0
LINE
  5
221
100
AcDbEntity
  8
0
100
AcDbLine
 62
7
  6
BYLAYER
 10
102.0429541109
 20
253.4285415677
 11
47.3750345453
 21
221.8661918923
  0
LINE
  5
222
100
AcDbEntity
  8
0
100
AcDbLine
 62
7
  6
BYLAYER
 10
47.1962193321
 20
221.7629534971
 11
42.9710148181
 21
219.3235450948
  0
LINE
  5
223
100
AcDbEntity
  8
0
100
AcDbLine
 62
7
  6
BYLAYER
 10
41.9710189815
 20
218.7462006757
 11
40.740839478
 21
218.0359604478
  0
LINE
  5
224
100
AcDbEntity
  8
0
100
AcDbLine
 62
7
  6
BYLAYER
 10
50.4710241032
 20
217.3480154565
 11
50.4710241032
 21
218.0359646066
  0
LINE
  5
225
100
AcDbEntity
  8
0
100
AcDbLine
 62
7
  6
BYLAYER
 10
131.9416799499
 20
87.4624061395
 11
34.6433817696
 21
143.6363339615
  0
LINE
  5
226
100
AcDbEntity
  8
0
100
AcDbLine
 62
7
  6
BYLAYER
 10
134.452941472
 20
255.818957439
 11
110.9164409514
 21
242.2302336431
  0
LINE
  5
227
100
AcDbEntity
  8
0
100
AcDbLine
 62
7
  6
BYLAYER
 10
110.6335994165
 20
242.0669359816
 11
106.4717827376
 21
239.6641243446
  0
LINE
  5
228
100
AcDbEntity
  8
0
100
AcDbLine
 62
7
  6
BYLAYER
 10
135.4529271951
 20
255.7199032247
 11
111.9164364745
 21
242.1311850851
  0
LINE
  5
229
100
AcDbEntity
  8
0
100
AcDbLine
 62
7
  6
BYLAYER
 10
111.6335949396
 20
241.9678874235
 11
107.471745026
 21
239.5650565985
  0
LINE
  5
22A
100
AcDbEntity
  8
0
100
AcDbLine
 62
7
  6
BYLAYER
 10
112.9908808356
 20
241.5108683774
 11
134.3454167195
 21
253.8398418243
  0
LINE
  5
22B
100
AcDbEntity
  8
0
100
AcDbLine
 62
7
  6
BYLAYER
 10
134.4868386645
 20
253.7581936734
 11
112.8494612458
 21
241.2659225649
  0
LINE
  5
22C
100
AcDbEntity
  8
0
100
AcDbLine
 62
7
  6
BYLAYER
 10
115.2536343113
 20
239.8779039996
 11
136.89101173
 21
252.370175108
  0
LINE
  5
22D
100
AcDbEntity
  8
0
100
AcDbLine
 62
7
  6
BYLAYER
 10
137.0324336751
 20
252.2885269571
 11
115.6778977912
 21
239.9595535102
  0
LINE
  5
22E
100
AcDbEntity
  8
0
100
AcDbLine
 62
7
  6
BYLAYER
 10
112.3076551485
 20
236.773110882
 11
116.4695006175
 21
239.1759391409
  0
LINE
  5
22F
100
AcDbEntity
  8
0
100
AcDbLine
 62
7
  6
BYLAYER
 10
116.7523421524
 20
239.3392368025
 11
140.2888370384
 21
252.927957347
  0
LINE
  5
230
100
AcDbEntity
  8
0
100
AcDbLine
 62
7
  6
BYLAYER
 10
141.7021622042
 20
250.5359405222
 11
118.1657000984
 21
236.9472388845
  0
LINE
  5
231
100
AcDbEntity
  8
0
100
AcDbLine
 62
7
  6
BYLAYER
 10
117.8828585635
 20
236.783941223
 11
113.7210415991
 21
234.3811295028
  0
LINE
  5
232
100
AcDbEntity
  8
0
100
AcDbLine
 62
7
  6
BYLAYER
 10
118.1797700399
 20
236.4738735283
 11
117.896928505
 21
236.3105758668
  0
LINE
  5
233
100
AcDbEntity
  8
0
100
AcDbLine
 62
7
  6
BYLAYER
 10
104.5996825779
 20
226.4711695765
 11
84.1358596388
 21
214.6564464184
  0
LINE
  5
234
100
AcDbEntity
  8
0
100
AcDbLine
 62
7
  6
BYLAYER
 10
103.8703586759
 20
225.7119003407
 11
84.6358574004
 21
214.6069221394
  0
LINE
  5
235
100
AcDbEntity
  8
0
100
AcDbLine
 62
7
  6
BYLAYER
 10
111.4070017289
 20
240.8462422098
 11
110.2980991127
 21
238.764911773
  0
LINE
  5
236
100
AcDbEntity
  8
0
100
AcDbLine
 62
7
  6
BYLAYER
 10
110.3750835276
 20
238.501154773
 11
111.4070017289
 21
240.4379910013
  0
LINE
  5
237
100
AcDbEntity
  8
0
100
AcDbLine
 62
7
  6
BYLAYER
 10
102.8388144809
 20
224.6380019391
 11
102.8394649557
 21
224.6390848094
  0
LINE
  5
238
100
AcDbEntity
  8
0
100
AcDbLine
 62
7
  6
BYLAYER
 10
142.0466003623
 20
236.6580429014
 11
114.199298571
 21
220.580491688
  0
LINE
  5
239
100
AcDbEntity
  8
0
100
AcDbLine
 62
7
  6
BYLAYER
 10
82.9036317133
 20
212.7698178359
 11
82.9036317133
 21
209.2588574423
  0
LINE
  5
23A
100
AcDbEntity
  8
0
100
AcDbLine
 62
7
  6
BYLAYER
 10
83.928768283
 20
207.8300029037
 11
83.9287682912
 21
211.3409632926
  0
LWPOLYLINE
  5
23B
100
AcDbEntity
  8
0
100
AcDbPolyline
 62
7
  6
BYLAYER
 90
3
 70
0
 10
102.8397596571
 20
224.6395747254
 10
101.4301868688
 20
220.7920012494
 10
101.3804103139
 20
219.9955783768
  0
LWPOLYLINE
  5
23C
100
AcDbEntity
  8
0
100
AcDbPolyline
 62
7
  6
BYLAYER
 90
4
 70
0
 10
104.9814758916
 20
224.4512657091
 10
104.6342665037
 20
222.0167525219
 10
104.0915250165
 20
220.8431073791
 10
104.0555107719
 20
220.8005400586
  0
LINE
  5
23D
100
AcDbEntity
  8
0
100
AcDbLine
 62
7
  6
BYLAYER
 10
110.2980991127
 20
238.764911773
 11
110.2760681514
 21
238.6800410135
  0
LINE
  5
23E
100
AcDbEntity
  8
0
100
AcDbLine
 62
7
  6
BYLAYER
 10
142.7781467078
 20
217.8324250331
 11
130.4280475784
 21
210.7021345383
  0
LINE
  5
23F
100
AcDbEntity
  8
0
100
AcDbLine
 62
7
  6
BYLAYER
 10
130.2304926676
 20
137.9059544481
 11
31.9705252612
 21
194.6350896962
  0
LINE
  5
240
100
AcDbEntity
  8
0
100
AcDbLine
 62
7
  6
BYLAYER
 10
100.6771563816
 20
254.8136446658
 11
100.6771563816
 21
255.5029890951
  0
LINE
  5
241
100
AcDbEntity
  8
0
100
AcDbLine
 62
7
  6
BYLAYER
 10
101.3802911158
 20
213.5864103359
 11
101.3802911158
 21
219.9964201852
  0
LINE
  5
242
100
AcDbEntity
  8
0
100
AcDbLine
 62
7
  6
BYLAYER
 10
105.3258923365
 20
237.7841857786
 11
104.9815632637
 21
224.4518371327
  0
LINE
  5
243
100
AcDbEntity
  8
0
100
AcDbLine
 62
7
  6
BYLAYER
 10
114.199298571
 20
220.580491688
 11
113.7210415991
 21
234.3811295028
  0
LINE
  5
244
100
AcDbEntity
  8
0
100
AcDbLine
 62
7
  6
BYLAYER
 10
108.1771231395
 20
260.0215645425
 11
108.1771896236
 21
251.5407606543
  0
LINE
  5
245
100
AcDbEntity
  8
0
100
AcDbLine
 62
7
  6
BYLAYER
 10
109.1771896236
 20
251.5206474276
 11
109.1771231395
 21
260.0215669462
  0
LINE
  5
246
100
AcDbEntity
  8
0
100
AcDbLine
 62
7
  6
BYLAYER
 10
110.2980991127
 20
238.764911773
 11
110.2980991127
 21
238.6800410135
  0
LINE
  5
247
100
AcDbEntity
  8
0
100
AcDbLine
 62
7
  6
BYLAYER
 10
111.4070017289
 20
240.4379910013
 11
111.4070017289
 21
240.8462422098
  0
LINE
  5
248
100
AcDbEntity
  8
0
100
AcDbLine
 62
7
  6
BYLAYER
 10
112.2384556253
 20
240.9654936367
 11
112.2384556253
 21
240.5572424282
  0
LINE
  5
249
100
AcDbEntity
  8
0
100
AcDbLine
 62
7
  6
BYLAYER
 10
112.9908808356
 20
241.3475707158
 11
112.9908808356
 21
241.5108683774
  0
LINE
  5
24A
100
AcDbEntity
  8
0
100
AcDbLine
 62
7
  6
BYLAYER
 10
114.7397374645
 20
239.1439737233
 11
114.7397374645
 21
239.5214105631
  0
LINE
  5
24B
100
AcDbEntity
  8
0
100
AcDbLine
 62
7
  6
BYLAYER
 10
115.6778977912
 20
239.6329609066
 11
115.6778977912
 21
239.9595535102
  0
LINE
  5
24C
100
AcDbEntity
  8
0
100
AcDbLine
 62
7
  6
BYLAYER
 10
125.6482214589
 20
190.9289583772
 11
163.1247248312
 21
212.5658985324
  0
LINE
  5
24D
100
AcDbEntity
  8
0
100
AcDbLine
 62
7
  6
BYLAYER
 10
163.831834554
 20
211.3411553593
 11
126.3553311923
 21
189.7042152103
  0
LINE
  5
24E
100
AcDbEntity
  8
0
100
AcDbLine
 62
7
  6
BYLAYER
 10
163.8318345564
 20
207.8301949671
 11
126.3553311841
 21
186.1932548119
  0
LINE
  5
24F
100
AcDbEntity
  8
0
100
AcDbLine
 62
7
  6
BYLAYER
 10
130.228232824
 20
151.7431268055
 11
31.9729025085
 21
208.4696294231
  0
LINE
  5
250
100
AcDbEntity
  8
0
100
AcDbLine
 62
7
  6
BYLAYER
 10
117.896928505
 20
236.3105758668
 11
117.8828585635
 21
236.7839412229
  0
LINE
  5
251
100
AcDbEntity
  8
0
100
AcDbLine
 62
7
  6
BYLAYER
 10
118.1797700399
 20
236.4738735283
 11
118.1657000984
 21
236.9472388845
  0
LINE
  5
252
100
AcDbEntity
  8
0
100
AcDbLine
 62
7
  6
BYLAYER
 10
116.6771563816
 20
254.9811356691
 11
116.6771563816
 21
255.5030012891
  0
LINE
  5
253
100
AcDbEntity
  8
0
100
AcDbLine
 62
7
  6
BYLAYER
 10
121.4055837158
 20
186.1932429142
 11
121.4055837134
 21
189.7042033092
  0
LINE
  5
254
100
AcDbEntity
  8
0
100
AcDbLine
 62
7
  6
BYLAYER
 10
40.740839478
 20
218.0359604478
 11
41.971029225
 21
217.3257261339
  0
LINE
  5
255
100
AcDbEntity
  8
0
100
AcDbLine
 62
7
  6
BYLAYER
 10
42.9710333884
 20
216.7483865221
 11
47.1962730848
 21
214.3089984323
  0
LINE
  5
256
100
AcDbEntity
  8
0
100
AcDbLine
 62
7
  6
BYLAYER
 10
47.375089787
 20
214.2057608967
 11
132.4491827444
 21
165.089321589
  0
LINE
  5
257
100
AcDbEntity
  8
0
100
AcDbLine
 62
7
  6
BYLAYER
 10
132.6279994466
 20
164.9860840534
 11
138.5834309718
 21
161.5477918437
  0
LINE
  5
258
100
AcDbEntity
  8
0
100
AcDbLine
 62
7
  6
BYLAYER
 10
130.2304926676
 20
137.9059544481
 11
130.228232824
 21
151.7431268055
  0
LINE
  5
259
100
AcDbEntity
  8
0
100
AcDbLine
 62
7
  6
BYLAYER
 10
126.3553311841
 20
186.1932548119
 11
126.3553311923
 21
189.7042152103
  0
LINE
  5
25A
100
AcDbEntity
  8
0
100
AcDbLine
 62
7
  6
BYLAYER
 10
131.0834258501
 20
160.0695035971
 11
131.0834258501
 21
161.501166872
  0
LINE
  5
25B
100
AcDbEntity
  8
0
100
AcDbLine
 62
7
  6
BYLAYER
 10
131.9416799499
 20
87.4624061395
 11
131.9416799499
 21
137.2461522915
  0
LINE
  5
25C
100
AcDbEntity
  8
0
100
AcDbLine
 62
7
  6
BYLAYER
 10
134.3454167195
 20
253.6765441627
 11
134.3454167195
 21
253.8398418243
  0
LINE
  5
25D
100
AcDbEntity
  8
0
100
AcDbLine
 62
7
  6
BYLAYER
 10
136.89101173
 20
252.2068774465
 11
136.89101173
 21
252.370175108
  0
LINE
  5
25E
100
AcDbEntity
  8
0
100
AcDbLine
 62
7
  6
BYLAYER
 10
137.3889251973
 20
252.7305929416
 11
137.3889251973
 21
253.0641843907
  0
LINE
  5
25F
100
AcDbEntity
  8
0
100
AcDbLine
 62
7
  6
BYLAYER
 10
138.583392608
 20
166.8677354426
 11
138.5834590922
 21
156.0154111927
  0
LINE
  5
260
100
AcDbEntity
  8
0
100
AcDbLine
 62
7
  6
BYLAYER
 10
139.5834590921
 20
156.0193280337
 11
139.583392608
 21
166.8677378463
  0
LINE
  5
261
100
AcDbEntity
  8
0
100
AcDbLine
 62
7
  6
BYLAYER
 10
139.5834309718
 20
161.5477942475
 11
145.5388129075
 21
164.9861150872
  0
LINE
  5
262
100
AcDbEntity
  8
0
100
AcDbLine
 62
7
  6
BYLAYER
 10
145.7176281207
 20
165.0893534825
 11
200.3855476863
 21
196.6517031579
  0
LINE
  5
263
100
AcDbEntity
  8
0
100
AcDbLine
 62
7
  6
BYLAYER
 10
200.5643628996
 20
196.7549415531
 11
204.7895674136
 21
199.1943499554
  0
LINE
  5
264
100
AcDbEntity
  8
0
100
AcDbLine
 62
7
  6
BYLAYER
 10
205.7895632501
 20
199.7716943745
 11
207.0197427536
 21
200.4819346024
  0
LINE
  5
265
100
AcDbEntity
  8
0
100
AcDbLine
 62
7
  6
BYLAYER
 10
121.4055837158
 20
186.1932429142
 11
83.928768283
 21
207.8300029037
  0
LINE
  5
266
100
AcDbEntity
  8
0
100
AcDbLine
 62
7
  6
BYLAYER
 10
121.4055837134
 20
189.7042033092
 11
83.9287682912
 21
211.3409632926
  0
LINE
  5
267
100
AcDbEntity
  8
0
100
AcDbLine
 62
7
  6
BYLAYER
 10
84.6358721202
 20
212.5657098684
 11
122.112687553
 21
190.9289498788
  0
LWPOLYLINE
  5
268
100
AcDbEntity
  8
0
100
AcDbPolyline
 62
7
  6
BYLAYER
 90
5
 70
0
 10
146.3802759289
 20
219.9968414492
 10
146.1510015896
 20
222.6384839063
 10
144.7320703701
 20
228.3162505966
 10
143.3308752859
 20
233.5088089445
 10
142.7791736459
 20
237.6671604737
  0
LINE
  5
269
100
AcDbEntity
  8
0
100
AcDbLine
 62
7
  6
BYLAYER
 10
141.7021622042
 20
250.5359405222
 11
142.0466003623
 21
236.6580429014
  0
LINE
  5
26A
100
AcDbEntity
  8
0
100
AcDbLine
 62
7
  6
BYLAYER
 10
142.434746511
 20
251.5537388121
 11
142.779084357
 21
237.6681531332
  0
LINE
  5
26B
100
AcDbEntity
  8
0
100
AcDbLine
 62
7
  6
BYLAYER
 10
146.2252369297
 20
137.2461656487
 11
146.2252369297
 21
87.462440473
  0
LINE
  5
26C
100
AcDbEntity
  8
0
100
AcDbLine
 62
7
  6
BYLAYER
 10
146.3802911158
 20
213.5864103359
 11
146.3802911158
 21
219.996432952
  0
LINE
  5
26D
100
AcDbEntity
  8
0
100
AcDbLine
 62
7
  6
BYLAYER
 10
147.0834258501
 20
160.2862373974
 11
147.0834258501
 21
161.501154678
  0
LINE
  5
26E
100
AcDbEntity
  8
0
100
AcDbLine
 62
7
  6
BYLAYER
 10
147.9364464683
 20
137.905997008
 11
147.9391641456
 21
151.7434987816
  0
LINE
  5
26F
100
AcDbEntity
  8
0
100
AcDbLine
 62
7
  6
BYLAYER
 10
147.9391641456
 20
151.7434987816
 11
215.7874360902
 21
190.9154959198
  0
LINE
  5
270
100
AcDbEntity
  8
0
100
AcDbLine
 62
7
  6
BYLAYER
 10
163.8318345564
 20
207.8301949671
 11
163.831834554
 21
211.3411553593
  0
LINE
  5
271
100
AcDbEntity
  8
0
100
AcDbLine
 62
7
  6
BYLAYER
 10
164.8569505184
 20
212.7699980015
 11
164.8569505184
 21
209.2590376079
  0
LINE
  5
272
100
AcDbEntity
  8
0
100
AcDbLine
 62
7
  6
BYLAYER
 10
215.7901306874
 20
177.0811060135
 11
147.9364464683
 21
137.905997008
  0
LINE
  5
273
100
AcDbEntity
  8
0
100
AcDbLine
 62
7
  6
BYLAYER
 10
163.1247101114
 20
214.6071108034
 11
163.6247080297
 21
214.6566349918
  0
LINE
  5
274
100
AcDbEntity
  8
0
100
AcDbLine
 62
7
  6
BYLAYER
 10
84.1358553187
 20
214.6564439241
 11
84.6358574004
 21
214.6069221394
  0
LINE
  5
275
100
AcDbEntity
  8
0
100
AcDbLine
 62
7
  6
BYLAYER
 10
41.9694156095
 20
212.3842955164
 11
41.9903571875
 21
212.3874810922
  0
LINE
  5
276
100
AcDbEntity
  8
0
100
AcDbLine
 62
7
  6
BYLAYER
 10
41.9710573453
 20
212.4088490953
 11
41.9918748524
 21
212.4114471567
  0
LINE
  5
277
100
AcDbEntity
  8
0
100
AcDbLine
 62
7
  6
BYLAYER
 10
117.8870516317
 20
236.6428707569
 11
118.1797700399
 21
236.4738735283
  0
LINE
  5
278
100
AcDbEntity
  8
0
100
AcDbLine
 62
7
  6
BYLAYER
 10
112.2384556253
 20
240.5572424282
 11
114.7110143025
 21
239.1297423047
  0
LINE
  5
279
100
AcDbEntity
  8
0
100
AcDbLine
 62
7
  6
BYLAYER
 10
112.2384556253
 20
240.9654936367
 11
114.7397374645
 21
239.5214105631
  0
LINE
  5
27A
100
AcDbEntity
  8
0
100
AcDbLine
 62
7
  6
BYLAYER
 10
111.6335949396
 20
241.9678874235
 11
112.8494612458
 21
241.2659225649
  0
LINE
  5
27B
100
AcDbEntity
  8
0
100
AcDbLine
 62
7
  6
BYLAYER
 10
115.2536343113
 20
239.8779039996
 11
116.4695006175
 21
239.1759391409
  0
LINE
  5
27C
100
AcDbEntity
  8
0
100
AcDbLine
 62
7
  6
BYLAYER
 10
116.7523421524
 20
239.3392368025
 11
115.6778977912
 21
239.9595535102
  0
LINE
  5
27D
100
AcDbEntity
  8
0
100
AcDbLine
 62
7
  6
BYLAYER
 10
112.9908808356
 20
241.5108683774
 11
111.9164364745
 21
242.1311850851
  0
LINE
  5
27E
100
AcDbEntity
  8
0
100
AcDbLine
 62
7
  6
BYLAYER
 10
163.1247101114
 20
214.6071108034
 11
145.6346091153
 21
224.7047968815
  0
LINE
  5
27F
100
AcDbEntity
  8
0
100
AcDbLine
 62
7
  6
BYLAYER
 10
163.6247016279
 20
214.6566386879
 11
145.5358411424
 21
225.1000108979
  0
LINE
  5
280
100
AcDbEntity
  8
0
100
AcDbLine
 62
7
  6
BYLAYER
 10
110.9221889336
 20
238.4039840167
 11
114.532373389
 21
239.0412313799
  0
LINE
  5
281
100
AcDbEntity
  8
0
100
AcDbLine
 62
7
  6
BYLAYER
 10
207.0197427536
 20
200.4819346024
 11
205.7895530066
 21
201.1921689163
  0
LINE
  5
282
100
AcDbEntity
  8
0
100
AcDbLine
 62
7
  6
BYLAYER
 10
204.7895488433
 20
201.7695085281
 11
200.5643091468
 21
204.2088966179
  0
LINE
  5
283
100
AcDbEntity
  8
0
100
AcDbLine
 62
7
  6
BYLAYER
 10
200.3854924446
 20
204.3121341535
 11
142.79307527
 21
237.5623794915
  0
LINE
  5
284
100
AcDbEntity
  8
0
100
AcDbLine
 62
7
  6
BYLAYER
 10
122.8120873276
 20
249.0981472847
 11
115.3113994872
 21
253.4285734612
  0
LINE
  5
285
100
AcDbEntity
  8
0
100
AcDbLine
 62
7
  6
BYLAYER
 10
115.132582785
 20
253.5318109968
 11
109.1771512598
 21
256.9701032064
  0
LINE
  5
286
100
AcDbEntity
  8
0
100
AcDbLine
 62
7
  6
BYLAYER
 10
197.2895581284
 20
199.4402215047
 11
197.2895581284
 21
200.4819304435
  0
LINE
  5
287
100
AcDbEntity
  8
0
100
AcDbLine
 62
7
  6
BYLAYER
 10
115.5817216948
 20
258.7971730822
 11
117.5323486613
 21
257.8671947708
  0
LINE
  5
288
100
AcDbEntity
  8
0
100
AcDbLine
 62
7
  6
BYLAYER
 10
215.7876792954
 20
201.1407820148
 11
142.6376142265
 21
243.3730027177
  0
LINE
  5
289
100
AcDbEntity
  8
0
100
AcDbLine
 62
7
  6
BYLAYER
 10
127.7665707969
 20
251.9586025748
 11
117.5323489738
 21
257.8671949232
  0
LINE
  5
28A
100
AcDbEntity
  8
0
100
AcDbLine
 62
7
  6
BYLAYER
 10
204.7895913705
 20
195.1138087043
 11
204.7895248864
 21
204.4263829662
  0
LINE
  5
28B
100
AcDbEntity
  8
0
100
AcDbLine
 62
7
  6
BYLAYER
 10
205.7895913704
 20
194.9750028288
 11
205.7895248863
 21
204.2436326561
  0
LINE
  5
28C
100
AcDbEntity
  8
0
100
AcDbLine
 62
7
  6
BYLAYER
 10
213.1172599301
 20
126.0823374292
 11
146.2252369297
 21
87.462440473
  0
LWPOLYLINE
  5
28D
100
AcDbEntity
  8
0
100
AcDbPolyline
 62
7
  6
BYLAYER
 90
3
 70
0
 10
111.3339193135
 20
259.9094988067
 10
107.5140086404
 20
260.060532949
 10
101.7763779914
 20
258.798708324
  0
LINE
  5
28E
100
AcDbEntity
  8
0
100
AcDbLine
 62
7
  6
BYLAYER
 10
115.5817219281
 20
258.7972048659
 11
111.3339193135
 21
259.9094988067
  0
LINE
  5
28F
100
AcDbEntity
  8
0
100
AcDbLine
 62
7
  6
BYLAYER
 10
215.7901306874
 20
177.0811060135
 11
215.7874360902
 21
190.9154959198
  0
LINE
  5
290
100
AcDbEntity
  8
0
100
AcDbLine
 62
7
  6
BYLAYER
 10
213.1172599301
 20
126.0823374292
 11
213.1172599301
 21
175.5379325738
  0
LINE
  5
291
100
AcDbEntity
  8
0
100
AcDbLine
 62
7
  6
BYLAYER
 10
213.2895581284
 20
198.0324231921
 11
213.2895581284
 21
199.725054805
  0
LINE
  5
292
100
AcDbEntity
  8
0
100
AcDbLine
 62
7
  6
BYLAYER
 10
216.0754517061
 20
177.3277575965
 11
216.0754517061
 21
130.2055690499
  0
LINE
  5
293
100
AcDbEntity
  8
0
100
AcDbLine
 62
7
  6
BYLAYER
 10
219.4571169285
 20
196.0793056538
 11
219.4571169285
 21
182.1922802601
  0
ARC
  5
294
100
AcDbEntity
  8
0
100
AcDbCircle
 62
7
  6
BYLAYER
 10
43.8658393142
 20
165.8022369045
 40
52.3271201116
100
AcDbArc
 50
93.4237676998
 51
100.3429717861
  0
ARC
  5
295
100
AcDbEntity
  8
0
100
AcDbCircle
 62
7
  6
BYLAYER
 10
111.5695083415
 20
133.8231667166
 40
40.5341371897
100
AcDbArc
 50
30.7694296896
 51
35.2041089221
  0
ARC
  5
296
100
AcDbEntity
  8
0
100
AcDbCircle
 62
7
  6
BYLAYER
 10
58.6728638907
 20
188.0169876055
 40
33.626182431
100
AcDbArc
 50
131.4375057925
 51
136.9852536172
  0
ARC
  5
297
100
AcDbEntity
  8
0
100
AcDbCircle
 62
7
  6
BYLAYER
 10
45.6558402641
 20
205.2817756496
 40
17.0152873581
100
AcDbArc
 50
102.5236457133
 51
104.3124842431
  0
ARC
  5
298
100
AcDbEntity
  8
0
100
AcDbCircle
 62
7
  6
BYLAYER
 10
45.2853128761
 20
207.0170748711
 40
15.2409376856
100
AcDbArc
 50
98.7062061602
 51
102.5784393512
  0
ARC
  5
299
100
AcDbEntity
  8
0
100
AcDbCircle
 62
7
  6
BYLAYER
 10
39.785488023
 20
226.7653132791
 40
14.545910299
100
AcDbArc
 50
278.7185013036
 51
282.8284381624
  0
ARC
  5
29A
100
AcDbEntity
  8
0
100
AcDbCircle
 62
7
  6
BYLAYER
 10
42.4705393217
 20
206.0794267502
 40
14.2700803911
100
AcDbArc
 50
87.9461801719
 51
92.0656982354
  0
ARC
  5
29B
100
AcDbEntity
  8
0
100
AcDbCircle
 62
7
  6
BYLAYER
 10
43.525692287
 20
207.8938095684
 40
13.7799214032
100
AcDbArc
 50
119.9921394591
 51
121.0466948857
  0
ARC
  5
29C
100
AcDbEntity
  8
0
100
AcDbCircle
 62
7
  6
BYLAYER
 10
43.6102287327
 20
222.7951077895
 40
9.2126959202
100
AcDbArc
 50
292.9078569053
 51
293.6676454502
  0
ARC
  5
29D
100
AcDbEntity
  8
0
100
AcDbCircle
 62
7
  6
BYLAYER
 10
43.889700831
 20
222.1772547359
 40
8.5346258718
100
AcDbArc
 50
293.6143389646
 51
297.5043243879
  0
ARC
  5
29E
100
AcDbEntity
  8
0
100
AcDbCircle
 62
7
  6
BYLAYER
 10
44.2132901599
 20
221.5546579334
 40
7.8329588924
100
AcDbArc
 50
297.5080470467
 51
299.9842260972
  0
ARC
  5
29F
100
AcDbEntity
  8
0
100
AcDbCircle
 62
7
  6
BYLAYER
 10
44.4273520229
 20
221.179862483
 40
7.4013452841
100
AcDbArc
 50
299.9989026688
 51
300.6636614088
  0
ARC
  5
2A0
100
AcDbEntity
  8
0
100
AcDbCircle
 62
7
  6
BYLAYER
 10
45.3652655752
 20
215.5986547085
 40
6.5818837473
100
AcDbArc
 50
72.2208624191
 51
73.5493436569
  0
ARC
  5
2A1
100
AcDbEntity
  8
0
100
AcDbCircle
 62
7
  6
BYLAYER
 10
39.2483132745
 20
217.5421309075
 40
4.9012588623
100
AcDbArc
 50
230.0709979238
 51
236.5434943757
  0
ARC
  5
2A2
100
AcDbEntity
  8
0
100
AcDbCircle
 62
7
  6
BYLAYER
 10
39.0529245838
 20
217.2755136172
 40
4.5819018653
100
AcDbArc
 50
179.955455159
 51
196.4458637871
  0
ARC
  5
2A3
100
AcDbEntity
  8
0
100
AcDbCircle
 62
7
  6
BYLAYER
 10
38.9861962153
 20
217.2578646003
 40
4.5129073376
100
AcDbArc
 50
196.4708046021
 51
199.2272479418
  0
ARC
  5
2A4
100
AcDbEntity
  8
0
100
AcDbCircle
 62
7
  6
BYLAYER
 10
37.3462970166
 20
216.6053015897
 40
3.1333757411
100
AcDbArc
 50
195.5415676637
 51
199.4597365459
  0
ARC
  5
2A5
100
AcDbEntity
  8
0
100
AcDbCircle
 62
7
  6
BYLAYER
 10
37.2930642563
 20
215.5122590176
 40
3.0813496421
100
AcDbArc
 50
160.2060058874
 51
161.6561418874
  0
ARC
  5
2A6
100
AcDbEntity
  8
0
100
AcDbCircle
 62
7
  6
BYLAYER
 10
37.0296270428
 20
216.5225972553
 40
2.809347801
100
AcDbArc
 50
163.1056966057
 51
173.4639642438
  0
ARC
  5
2A7
100
AcDbEntity
  8
0
100
AcDbCircle
 62
7
  6
BYLAYER
 10
47.9716843465
 20
218.0355300713
 40
2.7492906167
100
AcDbArc
 50
355.2569007841
 51
0.8729120115
  0
ARC
  5
2A8
100
AcDbEntity
  8
0
100
AcDbCircle
 62
7
  6
BYLAYER
 10
36.9656609614
 20
216.5328342866
 40
2.7446337288
100
AcDbArc
 50
173.5242812439
 51
179.9983761987
  0
ARC
  5
2A9
100
AcDbEntity
  8
0
100
AcDbCircle
 62
7
  6
BYLAYER
 10
37.1464757177
 20
215.5867226112
 40
2.6753837736
100
AcDbArc
 50
180.0056785501
 51
183.2975963264
  0
ARC
  5
2AA
100
AcDbEntity
  8
0
100
AcDbCircle
 62
7
  6
BYLAYER
 10
114.6188604271
 20
218.2548424055
 40
11.9921503301
100
AcDbArc
 50
143.4715413771
 51
147.5684457635
  0
ARC
  5
2AB
100
AcDbEntity
  8
0
100
AcDbCircle
 62
7
  6
BYLAYER
 10
108.6810545065
 20
240.3976249941
 40
19.2855455485
100
AcDbArc
 50
67.7247859844
 51
78.2560400647
  0
ARC
  5
2AC
100
AcDbEntity
  8
0
100
AcDbCircle
 62
7
  6
BYLAYER
 10
108.6674559566
 20
240.4166389277
 40
19.2657451845
100
AcDbArc
 50
101.7463801967
 51
112.280842313
  0
ARC
  5
2AD
100
AcDbEntity
  8
0
100
AcDbCircle
 62
7
  6
BYLAYER
 10
108.6771651205
 20
240.4787100668
 40
19.2044482705
100
AcDbArc
 50
88.5002505485
 51
91.4989005512
  0
ARC
  5
2AE
100
AcDbEntity
  8
0
100
AcDbCircle
 62
7
  6
BYLAYER
 10
110.3332904788
 20
245.0762044381
 40
14.9826243444
100
AcDbArc
 50
118.9959780069
 51
119.9932757418
  0
ARC
  5
2AF
100
AcDbEntity
  8
0
100
AcDbCircle
 62
7
  6
BYLAYER
 10
108.6766715995
 20
244.303326887
 40
14.2700803813
100
AcDbArc
 50
87.9461843888
 51
92.0656982348
  0
ARC
  5
2B0
100
AcDbEntity
  8
0
100
AcDbCircle
 62
7
  6
BYLAYER
 10
108.6776254135
 20
265.766024442
 40
14.2692054781
100
AcDbArc
 50
267.9562065611
 51
271.5823183775
  0
ARC
  5
2B1
100
AcDbEntity
  8
0
100
AcDbCircle
 62
7
  6
BYLAYER
 10
108.6794160071
 20
265.681311931
 40
14.1844758359
100
AcDbArc
 50
271.584537056
 51
272.1076411997
  0
ARC
  5
2B2
100
AcDbEntity
  8
0
100
AcDbCircle
 62
7
  6
BYLAYER
 10
108.6773204914
 20
246.1805857139
 40
13.3392465357
100
AcDbArc
 50
87.8453355652
 51
92.1583759384
  0
ARC
  5
2B3
100
AcDbEntity
  8
0
100
AcDbCircle
 62
7
  6
BYLAYER
 10
110.8737625379
 20
260.1401276443
 40
7.8617681733
100
AcDbArc
 50
302.8003110905
 51
303.2695036243
  0
ARC
  5
2B4
100
AcDbEntity
  8
0
100
AcDbCircle
 62
7
  6
BYLAYER
 10
106.4593793829
 20
260.1073222822
 40
7.8227294343
100
AcDbArc
 50
236.7176131535
 51
237.2002326727
  0
ARC
  5
2B5
100
AcDbEntity
  8
0
100
AcDbCircle
 62
7
  6
BYLAYER
 10
110.6065853388
 20
259.4504767074
 40
7.4552503619
100
AcDbArc
 50
299.9984351604
 51
300.7590397994
  0
ARC
  5
2B6
100
AcDbEntity
  8
0
100
AcDbCircle
 62
7
  6
BYLAYER
 10
110.9454256604
 20
258.899073874
 40
6.8081292398
100
AcDbArc
 50
300.6818586714
 51
305.3295117543
  0
ARC
  5
2B7
100
AcDbEntity
  8
0
100
AcDbCircle
 62
7
  6
BYLAYER
 10
111.3213942721
 20
258.367383397
 40
6.1569406622
100
AcDbArc
 50
305.3363487115
 51
308.243646422
  0
ARC
  5
2B8
100
AcDbEntity
  8
0
100
AcDbCircle
 62
7
  6
BYLAYER
 10
113.4837859587
 20
253.5707151439
 40
3.4882156104
100
AcDbArc
 50
26.3248885523
 51
29.2864430148
  0
ARC
  5
2B9
100
AcDbEntity
  8
0
100
AcDbCircle
 62
7
  6
BYLAYER
 10
103.535055646
 20
253.7233416151
 40
3.1194305836
100
AcDbArc
 50
159.5397776213
 51
160.207531888
  0
ARC
  5
2BA
100
AcDbEntity
  8
0
100
AcDbCircle
 62
7
  6
BYLAYER
 10
101.6842747266
 20
255.4561008374
 40
1.2574101971
100
AcDbArc
 50
174.3055113663
 51
179.9827196139
  0
ARC
  5
2BB
100
AcDbEntity
  8
0
100
AcDbCircle
 62
7
  6
BYLAYER
 10
115.6844173796
 20
255.4565337287
 40
1.242888798
100
AcDbArc
 50
356.3983631273
 51
4.6937852113
  0
ARC
  5
2BC
100
AcDbEntity
  8
0
100
AcDbCircle
 62
7
  6
BYLAYER
 10
110.9880268943
 20
241.4269307051
 40
0.732875231
100
AcDbArc
 50
98.2980902132
 51
106.0483083801
  0
ARC
  5
2BD
100
AcDbEntity
  8
0
100
AcDbCircle
 62
7
  6
BYLAYER
 10
111.2586252704
 20
241.6391781761
 40
0.6828610099
100
AcDbArc
 50
120.0681883966
 51
133.9341337859
  0
ARC
  5
2BE
100
AcDbEntity
  8
0
100
AcDbCircle
 62
7
  6
BYLAYER
 10
203.9000134637
 20
148.2898224434
 40
52.285268312
100
AcDbArc
 50
79.6545290676
 51
86.5792744214
  0
ARC
  5
2BF
100
AcDbEntity
  8
0
100
AcDbCircle
 62
7
  6
BYLAYER
 10
166.6099347795
 20
133.8153901106
 40
40.5488724129
100
AcDbArc
 50
144.7971705242
 51
149.2302626599
  0
ARC
  5
2C0
100
AcDbEntity
  8
0
100
AcDbCircle
 62
7
  6
BYLAYER
 10
139.0835536927
 20
117.6501993326
 40
37.6434724957
100
AcDbArc
 50
89.2282061252
 51
90.77153858
  0
ARC
  5
2C1
100
AcDbEntity
  8
0
100
AcDbCircle
 62
7
  6
BYLAYER
 10
189.0863884379
 20
170.4615342918
 40
33.6282221725
100
AcDbArc
 50
43.0144525299
 51
48.5623587622
  0
ARC
  5
2C2
100
AcDbEntity
  8
0
100
AcDbCircle
 62
7
  6
BYLAYER
 10
202.4141173173
 20
189.1384533696
 40
15.5709780975
100
AcDbArc
 50
77.4088821219
 51
81.2300738151
  0
ARC
  5
2C3
100
AcDbEntity
  8
0
100
AcDbCircle
 62
7
  6
BYLAYER
 10
139.0833230945
 20
171.3973598668
 40
15.4054519689
100
AcDbArc
 50
268.1340891073
 51
271.8685797487
  0
ARC
  5
2C4
100
AcDbEntity
  8
0
100
AcDbCircle
 62
7
  6
BYLAYER
 10
139.0829410674
 20
150.3014922641
 40
14.270080587
100
AcDbArc
 50
87.9461759516
 51
92.0656899
  0
ARC
  5
2C5
100
AcDbEntity
  8
0
100
AcDbCircle
 62
7
  6
BYLAYER
 10
205.2890733455
 20
188.5253925036
 40
14.2700804745
100
AcDbArc
 50
87.946184399
 51
92.0656940594
  0
ARC
  5
2C6
100
AcDbEntity
  8
0
100
AcDbCircle
 62
7
  6
BYLAYER
 10
139.0829568181
 20
152.7518706081
 40
14.2692054781
100
AcDbArc
 50
87.9562065613
 51
91.5823183775
  0
ARC
  5
2C7
100
AcDbEntity
  8
0
100
AcDbCircle
 62
7
  6
BYLAYER
 10
139.0811662246
 20
152.8365831164
 40
14.1844758388
100
AcDbArc
 50
91.5845370561
 51
92.1076411996
  0
ARC
  5
2C8
100
AcDbEntity
  8
0
100
AcDbCircle
 62
7
  6
BYLAYER
 10
137.1544768756
 20
158.8622897144
 40
7.8099123907
100
AcDbArc
 50
119.1725815287
 51
119.997882749
  0
ARC
  5
2C9
100
AcDbEntity
  8
0
100
AcDbCircle
 62
7
  6
BYLAYER
 10
136.9930381096
 20
159.138310054
 40
7.4901526675
100
AcDbArc
 50
119.9840240401
 51
122.5085611352
  0
ARC
  5
2CA
100
AcDbEntity
  8
0
100
AcDbCircle
 62
7
  6
BYLAYER
 10
136.2639318847
 20
160.2048824717
 40
6.1975847307
100
AcDbArc
 50
127.2384797148
 51
127.9898523997
  0
ARC
  5
2CB
100
AcDbEntity
  8
0
100
AcDbCircle
 62
7
  6
BYLAYER
 10
141.9288295061
 20
160.2379453328
 40
6.155579256
100
AcDbArc
 50
52.0112723587
 51
52.8741995079
  0
ARC
  5
2CC
100
AcDbEntity
  8
0
100
AcDbCircle
 62
7
  6
BYLAYER
 10
142.2094643863
 20
162.0058236829
 40
5.4165186546
100
AcDbArc
 50
297.2565332328
 51
299.9921509643
  0
ARC
  5
2CD
100
AcDbEntity
  8
0
100
AcDbCircle
 62
7
  6
BYLAYER
 10
142.1182794342
 20
162.0162406185
 40
5.2141747686
100
AcDbArc
 50
298.7844250257
 51
301.5774413994
  0
ARC
  5
2CE
100
AcDbEntity
  8
0
100
AcDbCircle
 62
7
  6
BYLAYER
 10
142.2066610449
 20
161.8771943009
 40
5.0494361323
100
AcDbArc
 50
301.54926065
 51
308.1117454942
  0
ARC
  5
2CF
100
AcDbEntity
  8
0
100
AcDbCircle
 62
7
  6
BYLAYER
 10
142.5021185393
 20
161.454885967
 40
4.8316155753
100
AcDbArc
 50
359.9974107434
 51
0.8376095404
  0
ARC
  5
2D0
100
AcDbEntity
  8
0
100
AcDbCircle
 62
7
  6
BYLAYER
 10
135.647039029
 20
161.4557577991
 40
4.8137145249
100
AcDbArc
 50
178.6086089599
 51
194.9741419331
  0
ARC
  5
2D1
100
AcDbEntity
  8
0
100
AcDbCircle
 62
7
  6
BYLAYER
 10
142.562484701
 20
161.4505404776
 40
4.7712511936
100
AcDbArc
 50
339.9228785408
 51
0.0495609918
  0
ARC
  5
2D2
100
AcDbEntity
  8
0
100
AcDbCircle
 62
7
  6
BYLAYER
 10
135.5778351207
 20
161.4414221807
 40
4.7431582385
100
AcDbArc
 50
195.0228508153
 51
199.6255803234
  0
ARC
  5
2D3
100
AcDbEntity
  8
0
100
AcDbCircle
 62
7
  6
BYLAYER
 10
143.8895404823
 20
159.568613982
 40
3.4887954581
100
AcDbArc
 50
26.3261588687
 51
29.3044610709
  0
ARC
  5
2D4
100
AcDbEntity
  8
0
100
AcDbCircle
 62
7
  6
BYLAYER
 10
144.0902095466
 20
159.6664887926
 40
3.2655336589
100
AcDbArc
 50
20.9474849532
 51
26.3484273001
  0
ARC
  5
2D5
100
AcDbEntity
  8
0
100
AcDbCircle
 62
7
  6
BYLAYER
 10
126.9939176883
 20
234.4979254783
 40
23.1203445579
100
AcDbArc
 50
65.2235582192
 51
66.7921000862
  0
ARC
  5
2D6
100
AcDbEntity
  8
0
100
AcDbCircle
 62
7
  6
BYLAYER
 10
208.0292873606
 20
209.4968080643
 40
14.8364965281
100
AcDbArc
 50
257.2952380808
 51
261.3322242255
  0
ARC
  5
2D7
100
AcDbEntity
  8
0
100
AcDbCircle
 62
7
  6
BYLAYER
 10
202.9092536063
 20
193.3456143088
 40
11.3311713913
100
AcDbArc
 50
87.041664397
 51
88.9018432659
  0
ARC
  5
2D8
100
AcDbEntity
  8
0
100
AcDbCircle
 62
7
  6
BYLAYER
 10
204.015663869
 20
195.8013439026
 40
9.2526588214
100
AcDbArc
 50
113.1000669275
 51
115.292848766
  0
ARC
  5
2D9
100
AcDbEntity
  8
0
100
AcDbCircle
 62
7
  6
BYLAYER
 10
204.1230851423
 20
205.1763973543
 40
9.14250632
100
AcDbArc
 50
246.3847886579
 51
247.0921484613
  0
ARC
  5
2DA
100
AcDbEntity
  8
0
100
AcDbCircle
 62
7
  6
BYLAYER
 10
203.7086465086
 20
196.4486651515
 40
8.5362208759
100
AcDbArc
 50
115.2859982002
 51
119.1774257889
  0
ARC
  5
2DB
100
AcDbEntity
  8
0
100
AcDbCircle
 62
7
  6
BYLAYER
 10
203.3895200531
 20
197.0362365597
 40
7.8676286492
100
AcDbArc
 50
119.2343487689
 51
119.9983420181
  0
ARC
  5
2DC
100
AcDbEntity
  8
0
100
AcDbCircle
 62
7
  6
BYLAYER
 10
202.4049893539
 20
198.0145393941
 40
6.6134762055
100
AcDbArc
 50
106.494633799
 51
107.7798765807
  0
ARC
  5
2DD
100
AcDbEntity
  8
0
100
AcDbCircle
 62
7
  6
BYLAYER
 10
208.2485134839
 20
200.4122415405
 40
5.4007188334
100
AcDbArc
 50
295.4321561417
 51
300.4963990887
  0
ARC
  5
2DE
100
AcDbEntity
  8
0
100
AcDbCircle
 62
7
  6
BYLAYER
 10
208.4981346339
 20
200.0864849863
 40
5.2512011937
100
AcDbArc
 50
299.9934252205
 51
302.7862985169
  0
ARC
  5
2DF
100
AcDbEntity
  8
0
100
AcDbCircle
 62
7
  6
BYLAYER
 10
208.3698448778
 20
200.2030698142
 40
5.1589101858
100
AcDbArc
 50
300.5142224109
 51
303.3844260916
  0
ARC
  5
2E0
100
AcDbEntity
  8
0
100
AcDbCircle
 62
7
  6
BYLAYER
 10
210.1973541477
 20
198.7440631456
 40
3.3899591547
100
AcDbArc
 50
28.8569355031
 51
30.0995267788
  0
ARC
  5
2E1
100
AcDbEntity
  8
0
100
AcDbCircle
 62
7
  6
BYLAYER
 10
210.4018440714
 20
199.0553308177
 40
3.1464626219
100
AcDbArc
 50
340.5003692313
 51
343.8202925125
  0
ARC
  5
2E2
100
AcDbEntity
  8
0
100
AcDbCircle
 62
7
  6
BYLAYER
 10
210.4697517366
 20
197.9584780682
 40
3.0792423849
100
AcDbArc
 50
18.0931179934
 51
20.9178458812
  0
ARC
  5
2E3
100
AcDbEntity
  8
0
100
AcDbCircle
 62
7
  6
BYLAYER
 10
210.6623916745
 20
198.9494967192
 40
2.8804931233
100
AcDbArc
 50
15.8625417467
 51
16.8937646712
  0
ARC
  5
2E4
100
AcDbEntity
  8
0
100
AcDbCircle
 62
7
  6
BYLAYER
 10
210.7623684671
 20
198.9756037559
 40
2.7771884615
100
AcDbArc
 50
0.0675484334
 51
15.9082145647
  0
ARC
  5
2E5
100
AcDbEntity
  8
0
100
AcDbCircle
 62
7
  6
BYLAYER
 10
199.7888990768
 20
200.4823649857
 40
2.7492918085
100
AcDbArc
 50
175.2569007842
 51
180.8736934353
  0
ARC
  5
2E6
100
AcDbEntity
  8
0
100
AcDbCircle
 62
7
  6
BYLAYER
 10
210.5990349447
 20
198.0331360406
 40
2.6904554241
100
AcDbArc
 50
351.188563977
 51
359.9848170855
  0
ARC
  5
2E7
100
AcDbEntity
  8
0
100
AcDbCircle
 62
7
  6
BYLAYER
 10
135.271814409
 20
252.2334820521
 40
1.8543474316
100
AcDbArc
 50
116.949412066
 51
119.9723167701
  0
ARC
  5
2E8
100
AcDbEntity
  8
0
100
AcDbCircle
 62
7
  6
BYLAYER
 10
136.1158287538
 20
253.712957311
 40
1.5504749889
100
AcDbArc
 50
299.9976737082
 51
301.0403789286
  0
ARC
  5
2E9
100
AcDbEntity
  8
0
100
AcDbCircle
 62
7
  6
BYLAYER
 10
136.9478165593
 20
253.0635288054
 40
0.6410280113
100
AcDbArc
 50
348.0307806525
 51
7.7314730754
  0
ARC
  5
2EA
100
AcDbEntity
  8
0
100
AcDbCircle
 62
7
  6
BYLAYER
 10
136.8193985697
 20
253.063858421
 40
0.5694537343
100
AcDbArc
 50
352.043687191
 51
0.0327903067
  0
ARC
  5
2EB
100
AcDbEntity
  8
0
100
AcDbCircle
 62
7
  6
BYLAYER
 10
136.7040288635
 20
255.5117305545
 40
0.4795613163
100
AcDbArc
 50
66.7697352031
 51
76.8823149119
  0
SPLINE
  5
2EC
100
AcDbEntity
  8
0
100
AcDbSpline
 62
7
  6
BYLAYER
 70
0
 71
3
 72
13
 73
9
 74
0
 42
0.0000001
 43
0.0000001
 44
0.0000000001
 40
0.0
 40
0.0
 40
0.0
 40
0.0
 40
0.1142487484
 40
0.2375477548
 40
0.5000005226
 40
0.7624530043
 40
0.8857516767
 40
1.0
 40
1.0
 40
1.0
 40
1.0
 10
131.9416799499
 20
87.4624061395
 30
0.0
 10
132.4305589013
 20
87.1801581306
 30
0.0
 10
133.4997663679
 20
86.6822513202
 30
0.0
 10
135.8693321516
 20
85.9625972312
 30
0.0
 10
139.083469628
 20
85.6130142562
 30
0.0
 10
142.2976040135
 20
85.9626120921
 30
0.0
 10
144.6671609174
 20
86.6822778374
 30
0.0
 10
145.7363618325
 20
87.1801899888
 30
0.0
 10
146.2252369297
 20
87.462440473
 30
0.0
  0
SPLINE
  5
2ED
100
AcDbEntity
  8
0
100
AcDbSpline
 62
7
  6
BYLAYER
 70
0
 71
3
 72
11
 73
7
 74
0
 42
0.0000001
 43
0.0000001
 44
0.0000000001
 40
0.0
 40
0.0
 40
0.0
 40
0.0
 40
0.2897776971
 40
0.5490719787
 40
0.7822272299
 40
1.0
 40
1.0
 40
1.0
 40
1.0
 10
213.1172599301
 20
126.0823374292
 30
0.0
 10
213.5605485889
 20
126.338268728
 30
0.0
 10
214.3646802343
 20
126.8918984506
 30
0.0
 10
215.3254109609
 20
127.9019972785
 30
0.0
 10
215.9333151733
 20
129.0190168125
 30
0.0
 10
216.0753774681
 20
129.8208940528
 30
0.0
 10
216.0753774632
 20
130.2055690498
 30
0.0
  0
SPLINE
  5
2EE
100
AcDbEntity
  8
0
100
AcDbSpline
 62
7
  6
BYLAYER
 70
0
 71
3
 72
15
 73
11
 74
0
 42
0.0000001
 43
0.0000001
 44
0.0000000001
 40
0.0
 40
0.0
 40
0.0
 40
0.0
 40
0.0664402219
 40
0.1465177387
 40
0.2472143893
 40
0.3700782322
 40
0.512300537
 40
0.6685569345
 40
0.8330369315
 40
1.0
 40
1.0
 40
1.0
 40
1.0
 10
34.4710241032
 20
217.2790889681
 30
0.0
 10
34.471024107
 20
217.4812223862
 30
0.0
 10
34.5889517353
 20
217.9288438593
 30
0.0
 10
35.0452459749
 20
218.5390626704
 30
0.0
 10
35.7450929133
 20
219.1477277538
 30
0.0
 10
36.6772093886
 20
219.7597997259
 30
0.0
 10
37.8093537841
 20
220.3637356743
 30
0.0
 10
39.0995631647
 20
220.9319493046
 30
0.0
 10
40.4990837455
 20
221.4286133307
 30
0.0
 10
41.4746214979
 20
221.6897830932
 30
0.0
 10
41.9709908612
 20
221.7976644155
 30
0.0
  0
SPLINE
  5
2EF
100
AcDbEntity
  8
0
100
AcDbSpline
 62
7
  6
BYLAYER
 70
0
 71
3
 72
9
 73
5
 74
0
 42
0.0000001
 43
0.0000001
 44
0.0000000001
 40
0.0
 40
0.0
 40
0.0
 40
0.0
 40
0.4492364261
 40
1.0
 40
1.0
 40
1.0
 40
1.0
 10
110.2760351838
 20
238.6800410312
 30
0.0
 10
110.2759726501
 20
238.6410958548
 30
0.0
 10
110.3100692331
 20
238.5541753352
 30
0.0
 10
110.3810989762
 20
238.4997920525
 30
0.0
 10
110.4224491719
 20
238.475919046
 30
0.0
  0
SPLINE
  5
2F0
100
AcDbEntity
  8
0
100
AcDbSpline
 62
7
  6
BYLAYER
 70
0
 71
3
 72
9
 73
5
 74
0
 42
0.0000001
 43
0.0000001
 44
0.0000000001
 40
0.0
 40
0.0
 40
0.0
 40
0.0
 40
0.4994096695
 40
1.0
 40
1.0
 40
1.0
 40
1.0
 10
134.452945277
 20
255.8189500393
 30
0.0
 10
134.8145817366
 20
256.0277114115
 30
0.0
 10
135.6526995503
 20
256.2628206349
 30
0.0
 10
136.5085636774
 20
256.1174613489
 30
0.0
 10
136.8932221075
 20
255.9524597422
 30
0.0
  0
SPLINE
  5
2F1
100
AcDbEntity
  8
0
100
AcDbSpline
 62
7
  6
BYLAYER
 70
0
 71
3
 72
13
 73
9
 74
0
 42
0.0000001
 43
0.0000001
 44
0.0000000001
 40
0.0
 40
0.0
 40
0.0
 40
0.0
 40
0.1142569126
 40
0.2375387748
 40
0.5000005406
 40
0.7624620106
 40
0.8857435248
 40
1.0
 40
1.0
 40
1.0
 40
1.0
 10
130.2304926676
 20
137.9059544481
 30
0.0
 10
130.8365529467
 20
137.5560532986
 30
0.0
 10
132.161870767
 20
136.9388020591
 30
0.0
 10
135.0992350229
 20
136.04684255
 30
0.0
 10
139.0834837141
 20
135.6133237419
 30
0.0
 10
143.0677284693
 20
136.0468610751
 30
0.0
 10
146.0050814937
 20
136.9388350122
 30
0.0
 10
147.3303910326
 20
137.5560928276
 30
0.0
 10
147.9364464683
 20
137.905997008
 30
0.0
  0
SPLINE
  5
2F2
100
AcDbEntity
  8
0
100
AcDbSpline
 62
7
  6
BYLAYER
 70
0
 71
3
 72
11
 73
7
 74
0
 42
0.0000001
 43
0.0000001
 44
0.0000000001
 40
0.0
 40
0.0
 40
0.0
 40
0.0
 40
0.2898017708
 40
0.5490515988
 40
0.7822294074
 40
1.0
 40
1.0
 40
1.0
 40
1.0
 10
215.7901306874
 20
177.0811060135
 30
0.0
 10
216.3396837582
 20
177.3983887329
 30
0.0
 10
217.3365346661
 20
178.084575225
 30
0.0
 10
218.5273149477
 20
179.3368295215
 30
0.0
 10
219.28109471
 20
180.7213383443
 30
0.0
 10
219.4570955222
 20
181.7154360021
 30
0.0
 10
219.4570955543
 20
182.1922802601
 30
0.0
  0
SPLINE
  5
2F3
100
AcDbEntity
  8
0
100
AcDbSpline
 62
7
  6
BYLAYER
 70
0
 71
3
 72
9
 73
5
 74
0
 42
0.0000001
 43
0.0000001
 44
0.0000000001
 40
0.0
 40
0.0
 40
0.0
 40
0.0
 40
0.2558865904
 40
1.0
 40
1.0
 40
1.0
 40
1.0
 10
104.7646372004
 20
227.0851473233
 30
0.0
 10
104.5770799222
 20
226.8965679967
 30
0.0
 10
103.8643245412
 20
226.1400317033
 30
0.0
 10
103.2368008578
 20
225.3011825398
 30
0.0
 10
102.8388144809
 20
224.6380019391
 30
0.0
  0
SPLINE
  5
2F4
100
AcDbEntity
  8
0
100
AcDbSpline
 62
7
  6
BYLAYER
 70
0
 71
3
 72
11
 73
7
 74
0
 42
0.0000001
 43
0.0000001
 44
0.0000000001
 40
0.0
 40
0.0
 40
0.0
 40
0.0
 40
0.2907482949
 40
0.5494946283
 40
0.7818614414
 40
1.0
 40
1.0
 40
1.0
 40
1.0
 10
31.9731465322
 20
218.6949818036
 30
0.0
 10
31.4249337854
 20
218.3783547241
 30
0.0
 10
30.4294070923
 20
217.7017901097
 30
0.0
 10
29.2342535196
 20
216.4680752278
 30
0.0
 10
28.4779705796
 20
215.096393477
 30
0.0
 10
28.3034394542
 20
214.1083225553
 30
0.0
 10
28.3034684398
 20
213.6333443757
 30
0.0
  0
SPLINE
  5
2F5
100
AcDbEntity
  8
0
100
AcDbSpline
 62
7
  6
BYLAYER
 70
0
 71
3
 72
9
 73
5
 74
0
 42
0.0000001
 43
0.0000001
 44
0.0000000001
 40
0.0
 40
0.0
 40
0.0
 40
0.0
 40
0.500201508
 40
1.0
 40
1.0
 40
1.0
 40
1.0
 10
105.3261189344
 20
237.7847730968
 30
0.0
 10
105.3360635972
 20
238.1640495619
 30
0.0
 10
105.5650291829
 20
238.9305416537
 30
0.0
 10
106.1434342938
 20
239.4745312228
 30
0.0
 10
106.4717320487
 20
239.6641050831
 30
0.0
  0
SPLINE
  5
2F6
100
AcDbEntity
  8
0
100
AcDbSpline
 62
7
  6
BYLAYER
 70
0
 71
3
 72
9
 73
5
 74
0
 42
0.0000001
 43
0.0000001
 44
0.0000000001
 40
0.0
 40
0.0
 40
0.0
 40
0.0
 40
0.5106136897
 40
1.0
 40
1.0
 40
1.0
 40
1.0
 10
144.9170810825
 20
157.3146099634
 30
0.0
 10
145.4082440286
 20
157.5981813299
 30
0.0
 10
146.2880719135
 20
158.3176006168
 30
0.0
 10
146.8570009462
 20
159.3021781663
 30
0.0
 10
147.0437936515
 20
159.8126430319
 30
0.0
  0
SPLINE
  5
2F7
100
AcDbEntity
  8
0
100
AcDbSpline
 62
7
  6
BYLAYER
 70
0
 71
3
 72
9
 73
5
 74
0
 42
0.0000001
 43
0.0000001
 44
0.0000000001
 40
0.0
 40
0.0
 40
0.0
 40
0.0
 40
0.4887522497
 40
1.0
 40
1.0
 40
1.0
 40
1.0
 10
200.3855476863
 20
196.6517031579
 30
0.0
 10
201.0589501623
 20
196.2929153771
 30
0.0
 10
202.489370135
 20
195.6560476717
 30
0.0
 10
203.9876708916
 20
195.1987929526
 30
0.0
 10
204.7663370135
 20
195.0235643277
 30
0.0
  0
SPLINE
  5
2F8
100
AcDbEntity
  8
0
100
AcDbSpline
 62
7
  6
BYLAYER
 70
0
 71
3
 72
11
 73
7
 74
0
 42
0.0000001
 43
0.0000001
 44
0.0000000001
 40
0.0
 40
0.0
 40
0.0
 40
0.0
 40
0.2675795878
 40
0.5246089035
 40
0.7689137369
 40
1.0
 40
1.0
 40
1.0
 40
1.0
 10
205.793355395
 20
194.8297620948
 30
0.0
 10
206.2759268494
 20
194.7568270323
 30
0.0
 10
207.2308728653
 20
194.6639861835
 30
0.0
 10
208.6375465886
 20
194.7148131578
 30
0.0
 10
209.9532419863
 20
194.9837153688
 30
0.0
 10
210.7581918107
 20
195.3277660581
 30
0.0
 10
211.1232133609
 20
195.5385100904
 30
0.0
  0
SPLINE
  5
2F9
100
AcDbEntity
  8
0
100
AcDbSpline
 62
7
  6
BYLAYER
 70
0
 71
3
 72
11
 73
7
 74
0
 42
0.0000001
 43
0.0000001
 44
0.0000000001
 40
0.0
 40
0.0
 40
0.0
 40
0.0
 40
0.2300624513
 40
0.4738088127
 40
0.731236215
 40
1.0
 40
1.0
 40
1.0
 40
1.0
 10
36.4189211147
 20
213.2258327533
 30
0.0
 10
36.7882300809
 20
212.9878946106
 30
0.0
 10
37.6142609981
 20
212.5947205908
 30
0.0
 10
38.9838530717
 20
212.2814443552
 30
0.0
 10
40.4586323657
 20
212.2124989228
 30
0.0
 10
41.4619678132
 20
212.3075060589
 30
0.0
 10
41.9694156095
 20
212.3842955164
 30
0.0
  0
SPLINE
  5
2FA
100
AcDbEntity
  8
0
100
AcDbSpline
 62
7
  6
BYLAYER
 70
0
 71
3
 72
9
 73
5
 74
0
 42
0.0000001
 43
0.0000001
 44
0.0000000001
 40
0.0
 40
0.0
 40
0.0
 40
0.0
 40
0.5112882251
 40
1.0
 40
1.0
 40
1.0
 40
1.0
 10
43.0151524954
 20
212.5824795064
 30
0.0
 10
43.7900963226
 20
212.7579641787
 30
0.0
 10
45.281299828
 20
213.2138439741
 30
0.0
 10
46.7048140437
 20
213.8486336137
 30
0.0
 10
47.3750897871
 20
214.2057608967
 30
0.0
  0
SPLINE
  5
2FB
100
AcDbEntity
  8
0
100
AcDbSpline
 62
7
  6
BYLAYER
 70
0
 71
3
 72
9
 73
5
 74
0
 42
0.0000001
 43
0.0000001
 44
0.0000000001
 40
0.0
 40
0.0
 40
0.0
 40
0.0
 40
0.2564119271
 40
1.0
 40
1.0
 40
1.0
 40
1.0
 10
47.375089787
 20
214.2057608967
 30
0.0
 10
47.4567278033
 20
214.2406021025
 30
0.0
 10
47.7731921776
 20
214.3809101367
 30
0.0
 10
48.0817577755
 20
214.5392753273
 30
0.0
 10
48.3046793357
 20
214.6679783819
 30
0.0
  0
SPLINE
  5
2FC
100
AcDbEntity
  8
0
100
AcDbSpline
 62
7
  6
BYLAYER
 70
0
 71
3
 72
11
 73
7
 74
0
 42
0.0000001
 43
0.0000001
 44
0.0000000001
 40
0.0
 40
0.0
 40
0.0
 40
0.0
 40
0.2880181529
 40
0.5477054048
 40
0.7821204644
 40
1.0
 40
1.0
 40
1.0
 40
1.0
 10
48.3046793357
 20
214.6679783819
 30
0.0
 10
48.6458198405
 20
214.8649347684
 30
0.0
 10
49.2681768422
 20
215.289519328
 30
0.0
 10
50.0261061469
 20
216.0557588215
 30
0.0
 10
50.5327544791
 20
216.9001076552
 30
0.0
 10
50.6869174586
 20
217.5112830648
 30
0.0
 10
50.7115582477
 20
217.8082504081
 30
0.0
  0
SPLINE
  5
2FD
100
AcDbEntity
  8
0
100
AcDbSpline
 62
7
  6
BYLAYER
 70
0
 71
3
 72
10
 73
6
 74
0
 42
0.0000001
 43
0.0000001
 44
0.0000000001
 40
0.0
 40
0.0
 40
0.0
 40
0.0
 40
0.2208942834
 40
0.4652511713
 40
1.0
 40
1.0
 40
1.0
 40
1.0
 10
102.0429541109
 20
253.4285415677
 30
0.0
 10
102.4204594994
 20
253.1336999745
 30
0.0
 10
103.2886226232
 20
252.6040544308
 30
0.0
 10
105.3129511988
 20
251.8092059762
 30
0.0
 10
107.0098916463
 20
251.5472244773
 30
0.0
 10
108.1687375943
 20
251.505896176
 30
0.0
  0
SPLINE
  5
2FE
100
AcDbEntity
  8
0
100
AcDbSpline
 62
7
  6
BYLAYER
 70
0
 71
3
 72
9
 73
5
 74
0
 42
0.0000001
 43
0.0000001
 44
0.0000000001
 40
0.0
 40
0.0
 40
0.0
 40
0.0
 40
0.525330635
 40
1.0
 40
1.0
 40
1.0
 40
1.0
 10
109.2010782325
 20
251.5064319222
 30
0.0
 10
110.1681129557
 20
251.542020503
 30
0.0
 10
112.0068602957
 20
251.793754741
 30
0.0
 10
113.7535852562
 20
252.4546962769
 30
0.0
 10
114.510811614
 20
252.8918785088
 30
0.0
  0
SPLINE
  5
2FF
100
AcDbEntity
  8
0
100
AcDbSpline
 62
7
  6
BYLAYER
 70
0
 71
3
 72
9
 73
5
 74
0
 42
0.0000001
 43
0.0000001
 44
0.0000000001
 40
0.0
 40
0.0
 40
0.0
 40
0.0
 40
0.2574956067
 40
1.0
 40
1.0
 40
1.0
 40
1.0
 10
114.510811614
 20
252.8918785088
 30
0.0
 10
114.5824881781
 20
252.9332607454
 30
0.0
 10
114.8582500609
 20
253.0983946744
 30
0.0
 10
115.1233123736
 20
253.2816699415
 30
0.0
 10
115.3113994872
 20
253.4285734612
 30
0.0
  0
SPLINE
  5
300
100
AcDbEntity
  8
0
100
AcDbSpline
 62
7
  6
BYLAYER
 70
0
 71
3
 72
9
 73
5
 74
0
 42
0.0000001
 43
0.0000001
 44
0.0000000001
 40
0.0
 40
0.0
 40
0.0
 40
0.0
 40
0.4758771086
 40
1.0
 40
1.0
 40
1.0
 40
1.0
 10
144.6901082874
 20
157.1907349937
 30
0.0
 10
143.9467515493
 20
156.8076533758
 30
0.0
 10
142.2608328522
 20
156.2419664704
 30
0.0
 10
140.5062025544
 20
156.0301359785
 30
0.0
 10
139.5856500239
 20
156.0000997851
 30
0.0
  0
SPLINE
  5
301
100
AcDbEntity
  8
0
100
AcDbSpline
 62
7
  6
BYLAYER
 70
0
 71
3
 72
9
 73
5
 74
0
 42
0.0000001
 43
0.0000001
 44
0.0000000001
 40
0.0
 40
0.0
 40
0.0
 40
0.0
 40
0.524156446
 40
1.0
 40
1.0
 40
1.0
 40
1.0
 10
138.5817133751
 20
156.0000764032
 30
0.0
 10
137.6610213119
 20
156.0300828036
 30
0.0
 10
135.906221179
 20
156.2418484267
 30
0.0
 10
134.2201705727
 20
156.8076246289
 30
0.0
 10
133.4767985804
 20
157.1907055197
 30
0.0
  0
SPLINE
  5
302
100
AcDbEntity
  8
0
100
AcDbSpline
 62
7
  6
BYLAYER
 70
0
 71
3
 72
9
 73
5
 74
0
 42
0.0000001
 43
0.0000001
 44
0.0000000001
 40
0.0
 40
0.0
 40
0.0
 40
0.0
 40
0.4996299937
 40
1.0
 40
1.0
 40
1.0
 40
1.0
 10
141.563722342
 20
253.2505391871
 30
0.0
 10
141.8207260169
 20
253.0508232583
 30
0.0
 10
142.2573773229
 20
252.536515626
 30
0.0
 10
142.4260082633
 20
251.8805016692
 30
0.0
 10
142.4344729258
 20
251.5546493482
 30
0.0
  0
SPLINE
  5
303
100
AcDbEntity
  8
0
100
AcDbSpline
 62
7
  6
BYLAYER
 70
0
 71
3
 72
9
 73
5
 74
0
 42
0.0000001
 43
0.0000001
 44
0.0000000001
 40
0.0
 40
0.0
 40
0.0
 40
0.0
 40
0.2393974151
 40
1.0
 40
1.0
 40
1.0
 40
1.0
 10
141.5637621167
 20
253.2505185108
 30
0.0
 10
141.2232481816
 20
253.5151596625
 30
0.0
 10
139.7595815719
 20
254.5672992999
 30
0.0
 10
138.1524634988
 20
255.4124189873
 30
0.0
 10
136.8932123474
 20
255.9524872504
 30
0.0
  0
SPLINE
  5
304
100
AcDbEntity
  8
0
100
AcDbSpline
 62
7
  6
BYLAYER
 70
0
 71
3
 72
9
 73
5
 74
0
 42
0.0000001
 43
0.0000001
 44
0.0000000001
 40
0.0
 40
0.0
 40
0.0
 40
0.0
 40
0.510041774
 40
1.0
 40
1.0
 40
1.0
 40
1.0
 10
132.6279994466
 20
164.9860840534
 30
0.0
 10
132.1438768882
 20
164.5343975059
 30
0.0
 10
131.3572122444
 20
163.449852963
 30
0.0
 10
131.0834916896
 20
162.1372269029
 30
0.0
 10
131.083448099
 20
161.5011841721
 30
0.0
  0
SPLINE
  5
305
100
AcDbEntity
  8
0
100
AcDbSpline
 62
7
  6
BYLAYER
 70
0
 71
3
 72
9
 73
5
 74
0
 42
0.0000001
 43
0.0000001
 44
0.0000000001
 40
0.0
 40
0.0
 40
0.0
 40
0.0
 40
0.2423650886
 40
1.0
 40
1.0
 40
1.0
 40
1.0
 10
132.6279994466
 20
164.9860840534
 30
0.0
 10
132.6891019615
 20
165.0342785476
 30
0.0
 10
132.9451370429
 20
165.2281311347
 30
0.0
 10
133.2158685609
 20
165.4023212196
 30
0.0
 10
133.4265480489
 20
165.5239563527
 30
0.0
  0
SPLINE
  5
306
100
AcDbEntity
  8
0
100
AcDbSpline
 62
7
  6
BYLAYER
 70
0
 71
3
 72
9
 73
5
 74
0
 42
0.0000001
 43
0.0000001
 44
0.0000000001
 40
0.0
 40
0.0
 40
0.0
 40
0.0
 40
0.4746169433
 40
1.0
 40
1.0
 40
1.0
 40
1.0
 10
133.4265480489
 20
165.5239563527
 30
0.0
 10
134.1618402663
 20
165.9484749783
 30
0.0
 10
135.8583206495
 20
166.5900375037
 30
0.0
 10
137.6441499315
 20
166.8337752709
 30
0.0
 10
138.583392608
 20
166.8677354426
 30
0.0
  0
SPLINE
  5
307
100
AcDbEntity
  8
0
100
AcDbSpline
 62
7
  6
BYLAYER
 70
0
 71
3
 72
10
 73
6
 74
0
 42
0.0000001
 43
0.0000001
 44
0.0000000001
 40
0.0
 40
0.0
 40
0.0
 40
0.0
 40
0.5351020841
 40
0.779352469
 40
1.0
 40
1.0
 40
1.0
 40
1.0
 10
139.583392608
 20
166.8677378463
 30
0.0
 10
140.7116031852
 20
166.8269506124
 30
0.0
 10
142.3631604823
 20
166.5702597694
 30
0.0
 10
144.3310606413
 20
165.7925058642
 30
0.0
 10
145.1733046816
 20
165.2744039794
 30
0.0
 10
145.5388129075
 20
164.9861150872
 30
0.0
  0
SPLINE
  5
308
100
AcDbEntity
  8
0
100
AcDbSpline
 62
7
  6
BYLAYER
 70
0
 71
3
 72
9
 73
5
 74
0
 42
0.0000001
 43
0.0000001
 44
0.0000000001
 40
0.0
 40
0.0
 40
0.0
 40
0.0
 40
0.5099949616
 40
1.0
 40
1.0
 40
1.0
 40
1.0
 10
145.5388129075
 20
164.9861150872
 30
0.0
 10
146.0228994686
 20
164.5344695903
 30
0.0
 10
146.8093204639
 20
163.449793944
 30
0.0
 10
147.0834058632
 20
162.1372495382
 30
0.0
 10
147.0834502384
 20
161.501139845
 30
0.0
  0
SPLINE
  5
309
100
AcDbEntity
  8
0
100
AcDbSpline
 62
7
  6
BYLAYER
 70
0
 71
3
 72
9
 73
5
 74
0
 42
0.0000001
 43
0.0000001
 44
0.0000000001
 40
0.0
 40
0.0
 40
0.0
 40
0.0
 40
0.2711832978
 40
1.0
 40
1.0
 40
1.0
 40
1.0
 10
115.3113994872
 20
253.4285734612
 30
0.0
 10
115.3951279985
 20
253.4819588829
 30
0.0
 10
115.7002704
 20
253.6842078186
 30
0.0
 10
115.9913359769
 20
253.9092767366
 30
0.0
 10
116.1865140183
 20
254.0912837686
 30
0.0
  0
SPLINE
  5
30A
100
AcDbEntity
  8
0
100
AcDbSpline
 62
7
  6
BYLAYER
 70
0
 71
3
 72
11
 73
7
 74
0
 42
0.0000001
 43
0.0000001
 44
0.0000000001
 40
0.0
 40
0.0
 40
0.0
 40
0.0
 40
0.2933707043
 40
0.552553841
 40
0.784535685
 40
1.0
 40
1.0
 40
1.0
 40
1.0
 10
116.1865140183
 20
254.0912837686
 30
0.0
 10
116.2950511493
 20
254.1924965943
 30
0.0
 10
116.489803196
 20
254.3942017078
 30
0.0
 10
116.7220901971
 20
254.7181979341
 30
0.0
 10
116.8733116088
 20
255.044898882
 30
0.0
 10
116.9180060896
 20
255.2696759368
 30
0.0
 10
116.9248513904
 20
255.3784566576
 30
0.0
  0
SPLINE
  5
30B
100
AcDbEntity
  8
0
100
AcDbSpline
 62
7
  6
BYLAYER
 70
0
 71
3
 72
9
 73
5
 74
0
 42
0.0000001
 43
0.0000001
 44
0.0000000001
 40
0.0
 40
0.0
 40
0.0
 40
0.0
 40
0.5373388292
 40
1.0
 40
1.0
 40
1.0
 40
1.0
 10
211.3416986241
 20
195.6718204594
 30
0.0
 10
211.8131895498
 20
195.9755960885
 30
0.0
 10
212.6329659063
 20
196.6436758342
 30
0.0
 10
213.206727666
 20
197.5497770805
 30
0.0
 10
213.3678370574
 20
198.0050391259
 30
0.0
  0
SPLINE
  5
30C
100
AcDbEntity
  8
0
100
AcDbSpline
 62
7
  6
BYLAYER
 70
0
 71
3
 72
9
 73
5
 74
0
 42
0.0000001
 43
0.0000001
 44
0.0000000001
 40
0.0
 40
0.0
 40
0.0
 40
0.0
 40
0.2543189639
 40
1.0
 40
1.0
 40
1.0
 40
1.0
 10
213.4236829738
 20
198.1785659239
 30
0.0
 10
213.4428064777
 20
198.2445296363
 30
0.0
 10
213.5093606068
 20
198.5063090501
 30
0.0
 10
213.5395530628
 20
198.7775038081
 30
0.0
 10
213.5395549986
 20
198.9788779008
 30
0.0
  0
SPLINE
  5
30D
100
AcDbEntity
  8
0
100
AcDbSpline
 62
7
  6
BYLAYER
 70
0
 71
3
 72
11
 73
7
 74
0
 42
0.0000001
 43
0.0000001
 44
0.0000000001
 40
0.0
 40
0.0
 40
0.0
 40
0.0
 40
0.2465116786
 40
0.4925661484
 40
0.7425357393
 40
1.0
 40
1.0
 40
1.0
 40
1.0
 10
82.9036317133
 20
212.7698178359
 30
0.0
 10
82.9036317133
 20
212.9633909237
 30
0.0
 10
82.966137815
 20
213.3529487422
 30
0.0
 10
83.232743425
 20
213.8801340398
 30
0.0
 10
83.6319455604
 20
214.3247157729
 30
0.0
 10
83.9607719095
 20
214.5553600741
 30
0.0
 10
84.1358596388
 20
214.6564464184
 30
0.0
  0
SPLINE
  5
30E
100
AcDbEntity
  8
0
100
AcDbSpline
 62
7
  6
BYLAYER
 70
0
 71
3
 72
9
 73
5
 74
0
 42
0.0000001
 43
0.0000001
 44
0.0000000001
 40
0.0
 40
0.0
 40
0.0
 40
0.0
 40
0.2433906967
 40
1.0
 40
1.0
 40
1.0
 40
1.0
 10
199.6326803272
 20
203.7478564797
 30
0.0
 10
199.7057408263
 20
203.7900377267
 30
0.0
 10
200.0088169281
 20
203.9583007127
 30
0.0
 10
200.3227426949
 20
204.1068092058
 30
0.0
 10
200.5643091468
 20
204.2088966179
 30
0.0
  0
SPLINE
  5
30F
100
AcDbEntity
  8
0
100
AcDbSpline
 62
7
  6
BYLAYER
 70
0
 71
3
 72
9
 73
5
 74
0
 42
0.0000001
 43
0.0000001
 44
0.0000000001
 40
0.0
 40
0.0
 40
0.0
 40
0.0
 40
0.2349192316
 40
1.0
 40
1.0
 40
1.0
 40
1.0
 10
200.5643091468
 20
204.2088966179
 30
0.0
 10
200.8817454551
 20
204.3095291823
 30
0.0
 10
202.2665542949
 20
204.6332542803
 30
0.0
 10
203.7165234955
 20
204.58407291
 30
0.0
 10
204.7895248864
 20
204.4263829662
 30
0.0
  0
SPLINE
  5
310
100
AcDbEntity
  8
0
100
AcDbSpline
 62
7
  6
BYLAYER
 70
0
 71
3
 72
15
 73
11
 74
0
 42
0.0000001
 43
0.0000001
 44
0.0000000001
 40
0.0
 40
0.0
 40
0.0
 40
0.0
 40
0.1669174176
 40
0.3313304512
 40
0.4876219704
 40
0.6298851137
 40
0.7527510085
 40
0.8534730449
 40
0.9335631494
 40
1.0
 40
1.0
 40
1.0
 40
1.0
 10
205.7895248863
 20
204.2436326561
 30
0.0
 10
206.2857617472
 20
204.1357825738
 30
0.0
 10
207.2610363604
 20
203.8749198387
 30
0.0
 10
208.6602427085
 20
203.3780313876
 30
0.0
 10
209.9505345934
 20
202.8099665003
 30
0.0
 10
211.083085833
 20
202.2062373302
 30
0.0
 10
212.0151943302
 20
201.5937557772
 30
0.0
 10
212.7151984491
 20
200.9851185157
 30
0.0
 10
213.1716943955
 20
200.3748774868
 30
0.0
 10
213.289555994
 20
199.927204396
 30
0.0
 10
213.2895581283
 20
199.7250801316
 30
0.0
  0
SPLINE
  5
311
100
AcDbEntity
  8
0
100
AcDbSpline
 62
7
  6
BYLAYER
 70
0
 71
3
 72
11
 73
7
 74
0
 42
0.0000001
 43
0.0000001
 44
0.0000000001
 40
0.0
 40
0.0
 40
0.0
 40
0.0
 40
0.2574727672
 40
0.5074198825
 40
0.7534795263
 40
1.0
 40
1.0
 40
1.0
 40
1.0
 10
163.6247016279
 20
214.6566386879
 30
0.0
 10
163.7997977005
 20
214.5555492102
 30
0.0
 10
164.1286092129
 20
214.3248997751
 30
0.0
 10
164.5278459701
 20
213.8803482374
 30
0.0
 10
164.7944222166
 20
213.3531473094
 30
0.0
 10
164.8569505184
 20
212.9635800183
 30
0.0
 10
164.8569505184
 20
212.7699980015
 30
0.0
  0
SPLINE
  5
312
100
AcDbEntity
  8
0
100
AcDbSpline
 62
7
  6
BYLAYER
 70
0
 71
3
 72
15
 73
11
 74
0
 42
0.0000001
 43
0.0000001
 44
0.0000000001
 40
0.0
 40
0.0
 40
0.0
 40
0.0
 40
0.0664496565
 40
0.1464694918
 40
0.2473000129
 40
0.3701721065
 40
0.5123403679
 40
0.6686817895
 40
0.8330763764
 40
1.0
 40
1.0
 40
1.0
 40
1.0
 10
116.6771341077
 20
255.5030159345
 30
0.0
 10
116.6771605138
 20
255.7051779076
 30
0.0
 10
116.559094849
 20
256.1526414329
 30
0.0
 10
116.1026107472
 20
256.7629745312
 30
0.0
 10
115.402758506
 20
257.3719984854
 30
0.0
 10
114.4708161764
 20
257.9849016772
 30
0.0
 10
113.3377203642
 20
258.5873217533
 30
0.0
 10
112.0480757724
 20
259.1563017223
 30
0.0
 10
110.6485127914
 20
259.6525760795
 30
0.0
 10
109.6733753828
 20
259.9137135207
 30
0.0
 10
109.1771231395
 20
260.0215669462
 30
0.0
  0
SPLINE
  5
313
100
AcDbEntity
  8
0
100
AcDbSpline
 62
7
  6
BYLAYER
 70
0
 71
3
 72
16
 73
12
 74
0
 42
0.0000001
 43
0.0000001
 44
0.0000000001
 40
0.0
 40
0.0
 40
0.0
 40
0.0
 40
0.0664261878
 40
0.1042482094
 40
0.1466142414
 40
0.2474967814
 40
0.3703330097
 40
0.5123711354
 40
0.6687465708
 40
0.8330985923
 40
1.0
 40
1.0
 40
1.0
 40
1.0
 10
100.6771403575
 20
255.5029718162
 30
0.0
 10
100.677114297
 20
255.705106388
 30
0.0
 10
100.7608800384
 20
256.0244349408
 30
0.0
 10
100.9885664754
 20
256.4087840073
 30
0.0
 10
101.3360323923
 20
256.8389350957
 30
0.0
 10
101.9531232365
 20
257.3707839982
 30
0.0
 10
102.883579625
 20
257.9840106904
 30
0.0
 10
104.0157700754
 20
258.588671894
 30
0.0
 10
105.3063147514
 20
259.1551267897
 30
0.0
 10
106.7054779019
 20
259.653128887
 30
0.0
 10
107.6808294212
 20
259.9136996609
 30
0.0
 10
108.1771231395
 20
260.0215645425
 30
0.0
  0
SPLINE
  5
314
100
AcDbEntity
  8
0
100
AcDbSpline
 62
7
  6
BYLAYER
 70
0
 71
3
 72
11
 73
7
 74
0
 42
0.0000001
 43
0.0000001
 44
0.0000000001
 40
0.0
 40
0.0
 40
0.0
 40
0.0
 40
0.2177774479
 40
0.4509119167
 40
0.710258295
 40
1.0
 40
1.0
 40
1.0
 40
1.0
 10
197.2896047894
 20
200.4819305526
 30
0.0
 10
197.2895573964
 20
200.7866284308
 30
0.0
 10
197.4022448588
 20
201.4217299714
 30
0.0
 10
197.8836292492
 20
202.3065905156
 30
0.0
 10
198.6447164633
 20
203.1065713298
 30
0.0
 10
199.281606202
 20
203.5451649489
 30
0.0
 10
199.6326803272
 20
203.7478564797
 30
0.0
  0
SPLINE
  5
315
100
AcDbEntity
  8
0
100
AcDbSpline
 62
7
  6
BYLAYER
 70
0
 71
3
 72
11
 73
7
 74
0
 42
0.0000001
 43
0.0000001
 44
0.0000000001
 40
0.0
 40
0.0
 40
0.0
 40
0.0
 40
0.209857758
 40
0.4402648502
 40
0.7028785904
 40
1.0
 40
1.0
 40
1.0
 40
1.0
 10
197.0399269041
 20
200.440443135
 30
0.0
 10
197.0456010261
 20
200.0683466563
 30
0.0
 10
197.2243970813
 20
199.2840354802
 30
0.0
 10
197.9329687285
 20
198.233441053
 30
0.0
 10
199.016475962
 20
197.3239901966
 30
0.0
 10
199.9009492892
 20
196.8585148756
 30
0.0
 10
200.3855476863
 20
196.6517031579
 30
0.0
  0
SPLINE
  5
316
100
AcDbEntity
  8
0
100
AcDbSpline
 62
7
  6
BYLAYER
 70
0
 71
3
 72
9
 73
5
 74
0
 42
0.0000001
 43
0.0000001
 44
0.0000000001
 40
0.0
 40
0.0
 40
0.0
 40
0.0
 40
0.245117754
 40
1.0
 40
1.0
 40
1.0
 40
1.0
 10
100.4268645867
 20
255.4564800719
 30
0.0
 10
100.4268603858
 20
255.4159946206
 30
0.0
 10
100.4348200536
 20
255.2508468846
 30
0.0
 10
100.4760060002
 20
255.0879208874
 30
0.0
 10
100.521262233
 20
254.9717423574
 30
0.0
  0
SPLINE
  5
317
100
AcDbEntity
  8
0
100
AcDbSpline
 62
7
  6
BYLAYER
 70
0
 71
3
 72
9
 73
5
 74
0
 42
0.0000001
 43
0.0000001
 44
0.0000000001
 40
0.0
 40
0.0
 40
0.0
 40
0.0
 40
0.2289947945
 40
1.0
 40
1.0
 40
1.0
 40
1.0
 10
100.521262233
 20
254.9717423574
 30
0.0
 10
100.5432804698
 20
254.9152187313
 30
0.0
 10
100.6540835789
 20
254.6740334396
 30
0.0
 10
100.8162182842
 20
254.4592152126
 30
0.0
 10
100.9535973192
 20
254.3080838669
 30
0.0
  0
SPLINE
  5
318
100
AcDbEntity
  8
0
100
AcDbSpline
 62
7
  6
BYLAYER
 70
0
 71
3
 72
9
 73
5
 74
0
 42
0.0000001
 43
0.0000001
 44
0.0000000001
 40
0.0
 40
0.0
 40
0.0
 40
0.0
 40
0.461409622
 40
1.0
 40
1.0
 40
1.0
 40
1.0
 10
100.9535973192
 20
254.3080838669
 30
0.0
 10
101.0987485265
 20
254.1484023168
 30
0.0
 10
101.4469016756
 20
253.8328457541
 30
0.0
 10
101.8305619942
 20
253.5639605467
 30
0.0
 10
102.0429541109
 20
253.4285415677
 30
0.0
  0
SPLINE
  5
319
100
AcDbEntity
  8
0
100
AcDbSpline
 62
7
  6
BYLAYER
 70
0
 71
3
 72
9
 73
5
 74
0
 42
0.0000001
 43
0.0000001
 44
0.0000000001
 40
0.0
 40
0.0
 40
0.0
 40
0.0
 40
0.2749169173
 40
1.0
 40
1.0
 40
1.0
 40
1.0
 10
137.0324336751
 20
252.2885269571
 30
0.0
 10
137.0820245365
 20
252.3171580834
 30
0.0
 10
137.2568201767
 20
252.4296588667
 30
0.0
 10
137.4112760689
 20
252.581021082
 30
0.0
 10
137.4878619121
 20
252.7111901344
 30
0.0
  0
SPLINE
  5
31A
100
AcDbEntity
  8
0
100
AcDbSpline
 62
7
  6
BYLAYER
 70
0
 71
3
 72
9
 73
5
 74
0
 42
0.0000001
 43
0.0000001
 44
0.0000000001
 40
0.0
 40
0.0
 40
0.0
 40
0.0
 40
0.2585338363
 40
1.0
 40
1.0
 40
1.0
 40
1.0
 10
137.4878619121
 20
252.7111901344
 30
0.0
 10
137.4982225917
 20
252.7287996533
 30
0.0
 10
137.5358090732
 20
252.7983222174
 30
0.0
 10
137.5627479028
 20
252.8737856124
 30
0.0
 10
137.5748826802
 20
252.9311116656
 30
0.0
  0
SPLINE
  5
31B
100
AcDbEntity
  8
0
100
AcDbSpline
 62
7
  6
BYLAYER
 70
0
 71
3
 72
15
 73
11
 74
0
 42
0.0000001
 43
0.0000001
 44
0.0000000001
 40
0.0
 40
0.0
 40
0.0
 40
0.0
 40
0.1287967955
 40
0.2706054081
 40
0.4178806294
 40
0.5623772076
 40
0.6961938611
 40
0.8135926843
 40
0.9130671628
 40
1.0
 40
1.0
 40
1.0
 40
1.0
 10
134.4868386645
 20
253.7581936734
 30
0.0
 10
134.6126460092
 20
253.8308281441
 30
0.0
 10
134.8976254413
 20
253.9483274353
 30
0.0
 10
135.3619468782
 20
254.0413539129
 30
0.0
 10
135.8531552147
 20
254.0548112198
 30
0.0
 10
136.3308431435
 20
253.9877816932
 30
0.0
 10
136.7570280915
 20
253.8453933991
 30
0.0
 10
137.0984024098
 20
253.6374223249
 30
0.0
 10
137.3297598391
 20
253.3744245539
 30
0.0
 10
137.3887779713
 20
253.1622356259
 30
0.0
 10
137.3888522107
 20
253.0641843187
 30
0.0
  0
SPLINE
  5
31C
100
AcDbEntity
  8
0
100
AcDbSpline
 62
7
  6
BYLAYER
 70
0
 71
3
 72
11
 73
7
 74
0
 42
0.0000001
 43
0.0000001
 44
0.0000000001
 40
0.0
 40
0.0
 40
0.0
 40
0.0
 40
0.3073332113
 40
0.5781794164
 40
0.8049945529
 40
1.0
 40
1.0
 40
1.0
 40
1.0
 10
114.532373389
 20
239.0412313799
 30
0.0
 10
114.5809174496
 20
239.0498000763
 30
0.0
 10
114.67112545
 20
239.0744192057
 30
0.0
 10
114.7860616175
 20
239.1361728075
 30
0.0
 10
114.8652178074
 20
239.2178096844
 30
0.0
 10
114.8861712522
 20
239.2860105952
 30
0.0
 10
114.8861781475
 20
239.3172883638
 30
0.0
  0
SPLINE
  5
31D
100
AcDbEntity
  8
0
100
AcDbSpline
 62
7
  6
BYLAYER
 70
0
 71
3
 72
9
 73
5
 74
0
 42
0.0000001
 43
0.0000001
 44
0.0000000001
 40
0.0
 40
0.0
 40
0.0
 40
0.0
 40
0.4780265433
 40
1.0
 40
1.0
 40
1.0
 40
1.0
 10
110.4224491719
 20
238.475919046
 30
0.0
 10
110.4930842854
 20
238.4351387667
 30
0.0
 10
110.6612918704
 20
238.3859543384
 30
0.0
 10
110.8344845009
 20
238.3885029743
 30
0.0
 10
110.9221889336
 20
238.4039840167
 30
0.0
  0
SPLINE
  5
31E
100
AcDbEntity
  8
0
100
AcDbSpline
 62
7
  6
BYLAYER
 70
0
 71
3
 72
9
 73
5
 74
0
 42
0.0000001
 43
0.0000001
 44
0.0000000001
 40
0.0
 40
0.0
 40
0.0
 40
0.0
 40
0.4879279736
 40
1.0
 40
1.0
 40
1.0
 40
1.0
 10
131.1102183616
 20
159.8483275292
 30
0.0
 10
131.3082232883
 20
159.2931330955
 30
0.0
 10
131.9368353575
 20
158.2217305944
 30
0.0
 10
132.9269189372
 20
157.4740726439
 30
0.0
 10
133.4768108635
 20
157.190697067
 30
0.0
  0
SPLINE
  5
31F
100
AcDbEntity
  8
0
100
AcDbSpline
 62
7
  6
BYLAYER
 70
0
 71
3
 72
9
 73
5
 74
0
 42
0.0000001
 43
0.0000001
 44
0.0000000001
 40
0.0
 40
0.0
 40
0.0
 40
0.0
 40
0.2472711757
 40
1.0
 40
1.0
 40
1.0
 40
1.0
 10
34.2210272337
 20
216.5329120714
 30
0.0
 10
34.2210266134
 20
216.4689624045
 30
0.0
 10
34.2300023596
 20
216.2103884838
 30
0.0
 10
34.275385202
 20
215.9533225967
 30
0.0
 10
34.3274890229
 20
215.7657530014
 30
0.0
  0
SPLINE
  5
320
100
AcDbEntity
  8
0
100
AcDbSpline
 62
7
  6
BYLAYER
 70
0
 71
3
 72
9
 73
5
 74
0
 42
0.0000001
 43
0.0000001
 44
0.0000000001
 40
0.0
 40
0.0
 40
0.0
 40
0.0
 40
0.4626148328
 40
1.0
 40
1.0
 40
1.0
 40
1.0
 10
34.3919127503
 20
215.5614351508
 30
0.0
 10
34.5527828028
 20
215.1057309123
 30
0.0
 10
35.1266091594
 20
214.1985716295
 30
0.0
 10
35.9470111889
 20
213.5298757484
 30
0.0
 10
36.4189199205
 20
213.225832426
 30
0.0
  0
SPLINE
  5
321
100
AcDbEntity
  8
0
100
AcDbSpline
 62
7
  6
BYLAYER
 70
0
 71
3
 72
11
 73
7
 74
0
 42
0.0000001
 43
0.0000001
 44
0.0000000001
 40
0.0
 40
0.0
 40
0.0
 40
0.0
 40
0.2181422394
 40
0.4505087304
 40
0.7092107693
 40
1.0
 40
1.0
 40
1.0
 40
1.0
 10
219.4571137845
 20
196.0793180521
 30
0.0
 10
219.4570847457
 20
196.5542787806
 30
0.0
 10
219.2826294658
 20
197.5423034144
 30
0.0
 10
218.5263666639
 20
198.9138162693
 30
0.0
 10
217.3313494869
 20
200.1474873255
 30
0.0
 10
216.3359474522
 20
200.824126908
 30
0.0
 10
215.7876790042
 20
201.14076789
 30
0.0
  0
SPLINE
  5
322
100
AcDbEntity
  8
0
100
AcDbSpline
 62
7
  6
BYLAYER
 70
0
 71
3
 72
11
 73
7
 74
0
 42
0.0000001
 43
0.0000001
 44
0.0000000001
 40
0.0
 40
0.0
 40
0.0
 40
0.0
 40
0.2177701422
 40
0.4509477659
 40
0.7101977596
 40
1.0
 40
1.0
 40
1.0
 40
1.0
 10
28.3034866773
 20
199.7463065027
 30
0.0
 10
28.3034866452
 20
199.2694570882
 30
0.0
 10
28.4794916006
 20
198.2753479189
 30
0.0
 10
29.2332876656
 20
196.8908256926
 30
0.0
 10
30.4240921323
 20
195.6385621311
 30
0.0
 10
31.4209619322
 20
194.9523730542
 30
0.0
 10
31.9705252612
 20
194.6350896962
 30
0.0
  0
SPLINE
  5
323
100
AcDbEntity
  8
0
100
AcDbSpline
 62
7
  6
BYLAYER
 70
0
 71
3
 72
11
 73
7
 74
0
 42
0.0000001
 43
0.0000001
 44
0.0000000001
 40
0.0
 40
0.0
 40
0.0
 40
0.0
 40
0.2393866222
 40
0.5021616513
 40
0.7637657776
 40
1.0
 40
1.0
 40
1.0
 40
1.0
 10
117.8828585635
 20
236.7839412229
 30
0.0
 10
117.8760431614
 20
237.0132366354
 30
0.0
 10
117.7811035442
 20
237.4922959493
 30
0.0
 10
117.4754321471
 20
238.1630317543
 30
0.0
 10
117.0375111092
 20
238.7521725947
 30
0.0
 10
116.6655489479
 20
239.0627531452
 30
0.0
 10
116.4695006175
 20
239.1759391409
 30
0.0
  0
SPLINE
  5
324
100
AcDbEntity
  8
0
100
AcDbSpline
 62
7
  6
BYLAYER
 70
0
 71
3
 72
11
 73
7
 74
0
 42
0.0000001
 43
0.0000001
 44
0.0000000001
 40
0.0
 40
0.0
 40
0.0
 40
0.0
 40
0.2177723091
 40
0.4509273687
 40
0.7102218233
 40
1.0
 40
1.0
 40
1.0
 40
1.0
 10
31.6852047684
 20
147.7595999156
 30
0.0
 10
31.6852047734
 20
147.3749207774
 30
0.0
 10
31.8272703123
 20
146.573034285
 30
0.0
 10
32.4351876758
 20
145.4560039355
 30
0.0
 10
33.3959379147
 20
144.4458976204
 30
0.0
 10
34.2000848211
 20
143.8922657841
 30
0.0
 10
34.6433817696
 20
143.6363339615
 30
0.0
  0
SPLINE
  5
325
100
AcDbEntity
  8
0
100
AcDbSpline
 62
7
  6
BYLAYER
 70
0
 71
3
 72
9
 73
5
 74
0
 42
0.0000001
 43
0.0000001
 44
0.0000000001
 40
0.0
 40
0.0
 40
0.0
 40
0.0
 40
0.2817140686
 40
1.0
 40
1.0
 40
1.0
 40
1.0
 10
111.6335949396
 20
241.9678874235
 30
0.0
 10
111.5700838668
 20
242.004554729
 30
0.0
 10
111.3386158135
 20
242.1212579148
 30
0.0
 10
111.0672583153
 20
242.1792859286
 30
0.0
 10
110.8822559825
 20
242.1521331723
 30
0.0
  0
SPLINE
  5
326
100
AcDbEntity
  8
0
100
AcDbSpline
 62
7
  6
BYLAYER
 70
0
 71
3
 72
8
 73
4
 74
0
 42
0.0000001
 43
0.0000001
 44
0.0000000001
 40
0.0
 40
0.0
 40
0.0
 40
0.0
 40
1.0
 40
1.0
 40
1.0
 40
1.0
 10
110.7854251957
 20
242.1312450212
 30
0.0
 10
110.7326257551
 20
242.1159964788
 30
0.0
 10
110.6812489137
 20
242.094318923
 30
0.0
 10
110.6336496758
 20
242.0668487296
 30
0.0
  0
SPLINE
  5
327
100
AcDbEntity
  8
0
100
AcDbSpline
 62
7
  6
BYLAYER
 70
0
 71
3
 72
9
 73
5
 74
0
 42
0.0000001
 43
0.0000001
 44
0.0000000001
 40
0.0
 40
0.0
 40
0.0
 40
0.0
 40
0.2648588237
 40
1.0
 40
1.0
 40
1.0
 40
1.0
 10
42.9709908612
 20
221.9804195331
 30
0.0
 10
43.3421333552
 20
222.0349649637
 30
0.0
 10
44.7481917897
 20
222.1843205788
 30
0.0
 10
46.2036904531
 20
222.0775948922
 30
0.0
 10
47.1962193321
 20
221.7629534971
 30
0.0
  0
SPLINE
  5
328
100
AcDbEntity
  8
0
100
AcDbSpline
 62
7
  6
BYLAYER
 70
0
 71
3
 72
11
 73
7
 74
0
 42
0.0000001
 43
0.0000001
 44
0.0000000001
 40
0.0
 40
0.0
 40
0.0
 40
0.0
 40
0.2976772148
 40
0.5603426869
 40
0.7904006505
 40
1.0
 40
1.0
 40
1.0
 40
1.0
 10
47.1962193321
 20
221.7629534971
 30
0.0
 10
47.6743192521
 20
221.5609091716
 30
0.0
 10
48.546343147
 20
221.1050683628
 30
0.0
 10
49.6124597217
 20
220.2104423994
 30
0.0
 10
50.3044569587
 20
219.1744393191
 30
0.0
 10
50.4709205976
 20
218.4014282343
 30
0.0
 10
50.4709774422
 20
218.0359644976
 30
0.0
  0
SPLINE
  5
329
100
AcDbEntity
  8
0
100
AcDbSpline
 62
7
  6
BYLAYER
 70
0
 71
3
 72
11
 73
7
 74
0
 42
0.0000001
 43
0.0000001
 44
0.0000000001
 40
0.0
 40
0.0
 40
0.0
 40
0.0
 40
0.2346410897
 40
0.4834614354
 40
0.7424592114
 40
1.0
 40
1.0
 40
1.0
 40
1.0
 10
102.8397008148
 20
224.6389425456
 30
0.0
 10
102.9373417948
 20
224.8002641928
 30
0.0
 10
103.2041865336
 20
225.0973705228
 30
0.0
 10
103.7472626513
 20
225.3709129348
 30
0.0
 10
104.3618565579
 20
225.4719764163
 30
0.0
 10
104.7794833136
 20
225.4334304165
 30
0.0
 10
104.9824355332
 20
225.3928331749
 30
0.0
  0
SPLINE
  5
32A
100
AcDbEntity
  8
0
100
AcDbSpline
 62
7
  6
BYLAYER
 70
0
 71
3
 72
9
 73
5
 74
0
 42
0.0000001
 43
0.0000001
 44
0.0000000001
 40
0.0
 40
0.0
 40
0.0
 40
0.0
 40
0.2397940635
 40
1.0
 40
1.0
 40
1.0
 40
1.0
 10
146.3978497791
 20
154.5596780724
 30
0.0
 10
145.861734212
 20
154.6717702601
 30
0.0
 10
143.6141131477
 20
155.08107005
 30
0.0
 10
141.3268213756
 20
155.2668668396
 30
0.0
 10
139.5906088919
 20
155.2902566726
 30
0.0
  0
SPLINE
  5
32B
100
AcDbEntity
  8
0
100
AcDbSpline
 62
7
  6
BYLAYER
 70
0
 71
3
 72
9
 73
5
 74
0
 42
0.0000001
 43
0.0000001
 44
0.0000000001
 40
0.0
 40
0.0
 40
0.0
 40
0.0
 40
0.2580408908
 40
1.0
 40
1.0
 40
1.0
 40
1.0
 10
138.5766662076
 20
155.2902589315
 30
0.0
 10
137.9873065761
 20
155.2823218331
 30
0.0
 10
135.704551676
 20
155.1982335582
 30
0.0
 10
133.4279484976
 20
154.906493066
 30
0.0
 10
131.7690503706
 20
154.5596384404
 30
0.0
  0
SPLINE
  5
32C
100
AcDbEntity
  8
0
100
AcDbSpline
 62
7
  6
BYLAYER
 70
0
 71
3
 72
11
 73
7
 74
0
 42
0.0000001
 43
0.0000001
 44
0.0000000001
 40
0.0
 40
0.0
 40
0.0
 40
0.0
 40
0.2969853263
 40
0.5592547599
 40
0.789585278
 40
1.0
 40
1.0
 40
1.0
 40
1.0
 10
200.4606674917
 20
196.7995173405
 30
0.0
 10
199.9963702556
 20
197.0025203101
 30
0.0
 10
199.1500667443
 20
197.4577678925
 30
0.0
 10
198.1178907484
 20
198.343979859
 30
0.0
 10
197.4497941499
 20
199.3646890161
 30
0.0
 10
197.2896606324
 20
200.1229065178
 30
0.0
 10
197.2896047894
 20
200.4819305526
 30
0.0
  0
SPLINE
  5
32D
100
AcDbEntity
  8
0
100
AcDbSpline
 62
7
  6
BYLAYER
 70
0
 71
3
 72
15
 73
11
 74
0
 42
0.0000001
 43
0.0000001
 44
0.0000000001
 40
0.0
 40
0.0
 40
0.0
 40
0.0
 40
0.1140565162
 40
0.2370732725
 40
0.3667552303
 40
0.4999622658
 40
0.6331707481
 40
0.7628639747
 40
0.8859090094
 40
1.0
 40
1.0
 40
1.0
 40
1.0
 10
147.9391637033
 20
151.7434932256
 30
0.0
 10
147.3345231451
 20
151.3938503579
 30
0.0
 10
146.0081326703
 20
150.7848978333
 30
0.0
 10
143.8480156418
 20
150.1492380102
 30
0.0
 10
141.5112319247
 20
149.7622436602
 30
0.0
 10
139.084429737
 20
149.6322615331
 30
0.0
 10
136.6575455119
 20
149.7619714958
 30
0.0
 10
134.3204649237
 20
150.1487422282
 30
0.0
 10
132.1598842488
 20
150.7844503014
 30
0.0
 10
130.8331010267
 20
151.3934555041
 30
0.0
 10
130.2282331366
 20
151.7431269581
 30
0.0
  0
SPLINE
  5
32E
100
AcDbEntity
  8
0
100
AcDbSpline
 62
7
  6
BYLAYER
 70
0
 71
3
 72
9
 73
5
 74
0
 42
0.0000001
 43
0.0000001
 44
0.0000000001
 40
0.0
 40
0.0
 40
0.0
 40
0.0
 40
0.4971623916
 40
1.0
 40
1.0
 40
1.0
 40
1.0
 10
146.3977756864
 20
154.5598026893
 30
0.0
 10
146.6707600545
 20
154.1029966642
 30
0.0
 10
147.2036558152
 20
153.1743041125
 30
0.0
 10
147.6974289912
 20
152.224317676
 30
0.0
 10
147.9392508185
 20
151.7434676818
 30
0.0
  0
SPLINE
  5
32F
100
AcDbEntity
  8
0
100
AcDbSpline
 62
7
  6
BYLAYER
 70
0
 71
3
 72
9
 73
5
 74
0
 42
0.0000001
 43
0.0000001
 44
0.0000000001
 40
0.0
 40
0.0
 40
0.0
 40
0.0
 40
0.5111750329
 40
1.0
 40
1.0
 40
1.0
 40
1.0
 10
204.7895913705
 20
195.2069703104
 30
0.0
 10
204.0390242668
 20
195.3715475869
 30
0.0
 10
202.593794365
 20
195.803643265
 30
0.0
 10
201.2141008351
 20
196.4117582565
 30
0.0
 10
200.5643628996
 20
196.7549415531
 30
0.0
  0
SPLINE
  5
330
100
AcDbEntity
  8
0
100
AcDbSpline
 62
7
  6
BYLAYER
 70
0
 71
3
 72
9
 73
5
 74
0
 42
0.0000001
 43
0.0000001
 44
0.0000000001
 40
0.0
 40
0.0
 40
0.0
 40
0.0
 40
0.4492941817
 40
1.0
 40
1.0
 40
1.0
 40
1.0
 10
114.8861781475
 20
239.3172883638
 30
0.0
 10
114.8861867343
 20
239.3562385511
 30
0.0
 10
114.8521057272
 20
239.4431317606
 30
0.0
 10
114.7810832759
 20
239.4975400877
 30
0.0
 10
114.7397374645
 20
239.5214105631
 30
0.0
  0
SPLINE
  5
331
100
AcDbEntity
  8
0
100
AcDbSpline
 62
7
  6
BYLAYER
 70
0
 71
3
 72
9
 73
5
 74
0
 42
0.0000001
 43
0.0000001
 44
0.0000000001
 40
0.0
 40
0.0
 40
0.0
 40
0.0
 40
0.4538778232
 40
1.0
 40
1.0
 40
1.0
 40
1.0
 10
137.3833706845
 20
252.9850357765
 30
0.0
 10
137.3670296149
 20
252.8681034389
 30
0.0
 10
137.2463836549
 20
252.6218260714
 30
0.0
 10
137.0370374118
 20
252.4577630267
 30
0.0
 10
136.915318827
 20
252.3845039569
 30
0.0
  0
SPLINE
  5
332
100
AcDbEntity
  8
0
100
AcDbSpline
 62
7
  6
BYLAYER
 70
0
 71
3
 72
9
 73
5
 74
0
 42
0.0000001
 43
0.0000001
 44
0.0000000001
 40
0.0
 40
0.0
 40
0.0
 40
0.0
 40
0.5005526579
 40
1.0
 40
1.0
 40
1.0
 40
1.0
 10
31.9727837137
 20
208.4695699389
 30
0.0
 10
32.3048735725
 20
208.901262768
 30
0.0
 10
32.9932836327
 20
209.7445398815
 30
0.0
 10
33.7159573675
 20
210.5584424719
 30
0.0
 10
34.0861167505
 20
210.9563316083
 30
0.0
  0
SPLINE
  5
333
100
AcDbEntity
  8
0
100
AcDbSpline
 62
7
  6
BYLAYER
 70
0
 71
3
 72
11
 73
7
 74
0
 42
0.0000001
 43
0.0000001
 44
0.0000000001
 40
0.0
 40
0.0
 40
0.0
 40
0.0
 40
0.217784692
 40
0.450913785
 40
0.7102981701
 40
1.0
 40
1.0
 40
1.0
 40
1.0
 10
164.8569505184
 20
212.7699980015
 30
0.0
 10
164.856950512
 20
212.6366876781
 30
0.0
 10
164.8076835199
 20
212.358826878
 30
0.0
 10
164.5970324416
 20
211.971684474
 30
0.0
 10
164.2640345238
 20
211.6217242062
 30
0.0
 10
163.9854089987
 20
211.4298210771
 30
0.0
 10
163.8318345552
 20
211.34115536
 30
0.0
  0
SPLINE
  5
334
100
AcDbEntity
  8
0
100
AcDbSpline
 62
7
  6
BYLAYER
 70
0
 71
3
 72
9
 73
5
 74
0
 42
0.0000001
 43
0.0000001
 44
0.0000000001
 40
0.0
 40
0.0
 40
0.0
 40
0.0
 40
0.5093623577
 40
1.0
 40
1.0
 40
1.0
 40
1.0
 10
132.4491827444
 20
165.089321589
 30
0.0
 10
131.9566748638
 20
164.6340088337
 30
0.0
 10
131.1516808792
 20
163.5412352175
 30
0.0
 10
130.8504320045
 20
162.217372
 30
0.0
 10
130.834745137
 20
161.5714928372
 30
0.0
  0
SPLINE
  5
335
100
AcDbEntity
  8
0
100
AcDbSpline
 62
7
  6
BYLAYER
 70
0
 71
3
 72
9
 73
5
 74
0
 42
0.0000001
 43
0.0000001
 44
0.0000000001
 40
0.0
 40
0.0
 40
0.0
 40
0.0
 40
0.4971908837
 40
1.0
 40
1.0
 40
1.0
 40
1.0
 10
131.7691327969
 20
154.5597456322
 30
0.0
 10
131.4953280296
 20
154.103381264
 30
0.0
 10
130.9625425277
 20
153.1745451541
 30
0.0
 10
130.4698753399
 20
152.2239717751
 30
0.0
 10
130.2281140214
 20
151.7431118603
 30
0.0
  0
SPLINE
  5
336
100
AcDbEntity
  8
0
100
AcDbSpline
 62
7
  6
BYLAYER
 70
0
 71
3
 72
9
 73
5
 74
0
 42
0.0000001
 43
0.0000001
 44
0.0000000001
 40
0.0
 40
0.0
 40
0.0
 40
0.0
 40
0.2451289258
 40
1.0
 40
1.0
 40
1.0
 40
1.0
 10
34.0860516314
 20
219.4017961507
 30
0.0
 10
34.2736274637
 20
219.4442558683
 30
0.0
 10
35.0430394928
 20
219.5986349683
 30
0.0
 10
35.8270302113
 20
219.678035636
 30
0.0
 10
36.4188841614
 20
219.6997196199
 30
0.0
  0
SPLINE
  5
337
100
AcDbEntity
  8
0
100
AcDbSpline
 62
7
  6
BYLAYER
 70
0
 71
3
 72
10
 73
6
 74
0
 42
0.0000001
 43
0.0000001
 44
0.0000000001
 40
0.0
 40
0.0
 40
0.0
 40
0.0
 40
0.5351020841
 40
0.779352469
 40
1.0
 40
1.0
 40
1.0
 40
1.0
 10
108.1771896236
 20
251.6501572039
 30
0.0
 10
107.0489790464
 20
251.6909444377
 30
0.0
 10
105.3974217493
 20
251.9476352808
 30
0.0
 10
103.4295215904
 20
252.725389186
 30
0.0
 10
102.58727755
 20
253.2434910708
 30
0.0
 10
102.2217693241
 20
253.531779963
 30
0.0
  0
SPLINE
  5
338
100
AcDbEntity
  8
0
100
AcDbSpline
 62
7
  6
BYLAYER
 70
0
 71
3
 72
11
 73
7
 74
0
 42
0.0000001
 43
0.0000001
 44
0.0000000001
 40
0.0
 40
0.0
 40
0.0
 40
0.0
 40
0.2815167691
 40
0.5399368757
 40
0.7777521147
 40
1.0
 40
1.0
 40
1.0
 40
1.0
 10
36.4188833543
 20
219.699719534
 30
0.0
 10
36.1607275959
 20
219.5442701233
 30
0.0
 10
35.6825692941
 20
219.2159158188
 30
0.0
 10
35.0722382771
 20
218.6441428765
 30
0.0
 10
34.612752214
 20
218.0214287882
 30
0.0
 10
34.4105207304
 20
217.5666901954
 30
0.0
 10
34.3415237193
 20
217.3390135642
 30
0.0
  0
SPLINE
  5
339
100
AcDbEntity
  8
0
100
AcDbSpline
 62
7
  6
BYLAYER
 70
0
 71
3
 72
12
 73
8
 74
0
 42
0.0000001
 43
0.0000001
 44
0.0000000001
 40
0.0
 40
0.0
 40
0.0
 40
0.0
 40
0.317388657
 40
0.521519441
 40
0.6987826563
 40
0.8551409652
 40
1.0
 40
1.0
 40
1.0
 40
1.0
 10
102.1665325484
 20
253.5677074727
 30
0.0
 10
101.9423345458
 20
253.7148869843
 30
0.0
 10
101.5851713133
 20
253.975806507
 30
0.0
 10
101.1597575654
 20
254.3876832273
 30
0.0
 10
100.885833953
 20
254.7534921968
 30
0.0
 10
100.7162675109
 20
255.1247761343
 30
0.0
 10
100.6771561387
 20
255.3805669155
 30
0.0
 10
100.6771403575
 20
255.5029718162
 30
0.0
  0
SPLINE
  5
33A
100
AcDbEntity
  8
0
100
AcDbSpline
 62
7
  6
BYLAYER
 70
0
 71
3
 72
9
 73
5
 74
0
 42
0.0000001
 43
0.0000001
 44
0.0000000001
 40
0.0
 40
0.0
 40
0.0
 40
0.0
 40
0.4746169433
 40
1.0
 40
1.0
 40
1.0
 40
1.0
 10
114.3340341827
 20
252.9939386975
 30
0.0
 10
113.5987419653
 20
252.5694200719
 30
0.0
 10
111.9022615822
 20
251.9278575465
 30
0.0
 10
110.1164323001
 20
251.6841197793
 30
0.0
 10
109.1771896236
 20
251.6501596076
 30
0.0
  0
SPLINE
  5
33B
100
AcDbEntity
  8
0
100
AcDbSpline
 62
7
  6
BYLAYER
 70
0
 71
3
 72
9
 73
5
 74
0
 42
0.0000001
 43
0.0000001
 44
0.0000000001
 40
0.0
 40
0.0
 40
0.0
 40
0.0
 40
0.2543931825
 40
1.0
 40
1.0
 40
1.0
 40
1.0
 10
132.9676381541
 20
165.4548393368
 30
0.0
 10
132.9280821609
 20
165.4296154144
 30
0.0
 10
132.7735642474
 20
165.3289473104
 30
0.0
 10
132.6230291271
 20
165.2221358656
 30
0.0
 10
132.513563104
 20
165.138926503
 30
0.0
  0
SPLINE
  5
33C
100
AcDbEntity
  8
0
100
AcDbSpline
 62
7
  6
BYLAYER
 70
0
 71
3
 72
12
 73
8
 74
0
 42
0.0000001
 43
0.0000001
 44
0.0000000001
 40
0.0
 40
0.0
 40
0.0
 40
0.0
 40
0.3173959568
 40
0.5215569055
 40
0.698811157
 40
0.8551582194
 40
1.0
 40
1.0
 40
1.0
 40
1.0
 10
115.1865545895
 20
253.5669074646
 30
0.0
 10
115.4109323034
 20
253.7141324729
 30
0.0
 10
115.7684666746
 20
253.9750579453
 30
0.0
 10
116.1943571663
 20
254.3870273251
 30
0.0
 10
116.4684571654
 20
254.7530883464
 30
0.0
 10
116.6380301282
 20
255.124620392
 30
0.0
 10
116.6771181112
 20
255.3805484739
 30
0.0
 10
116.6771341077
 20
255.5030159345
 30
0.0
  0
SPLINE
  5
33D
100
AcDbEntity
  8
0
100
AcDbSpline
 62
7
  6
BYLAYER
 70
0
 71
3
 72
14
 73
10
 74
0
 42
0.0000001
 43
0.0000001
 44
0.0000000001
 40
0.0
 40
0.0
 40
0.0
 40
0.0
 40
0.0880032641
 40
0.1893629346
 40
0.3075690252
 40
0.440731122
 40
0.5836650909
 40
0.7294511968
 40
1.0
 40
1.0
 40
1.0
 40
1.0
 10
137.5830172737
 20
253.1497666377
 30
0.0
 10
137.5688423604
 20
253.2543042641
 30
0.0
 10
137.4798900707
 20
253.4726029581
 30
0.0
 10
137.2165016072
 20
253.7392646005
 30
0.0
 10
136.8462327377
 20
253.9513474728
 30
0.0
 10
136.3939199353
 20
254.0974510289
 30
0.0
 10
135.8905397904
 20
254.1685625051
 30
0.0
 10
135.2195212855
 20
254.156973315
 30
0.0
 10
134.7204505745
 20
254.0335803148
 30
0.0
 10
134.4314174217
 20
253.8864603643
 30
0.0
  0
SPLINE
  5
33E
100
AcDbEntity
  8
0
100
AcDbSpline
 62
7
  6
BYLAYER
 70
0
 71
3
 72
9
 73
5
 74
0
 42
0.0000001
 43
0.0000001
 44
0.0000000001
 40
0.0
 40
0.0
 40
0.0
 40
0.0
 40
0.24693183
 40
1.0
 40
1.0
 40
1.0
 40
1.0
 10
31.9730595666
 20
218.6950370309
 30
0.0
 10
32.1401870282
 20
218.770984084
 30
0.0
 10
32.8249310688
 20
219.0609076842
 30
0.0
 10
33.54001066
 20
219.278233486
 30
0.0
 10
34.0860516314
 20
219.4017961507
 30
0.0
  0
SPLINE
  5
33F
100
AcDbEntity
  8
0
100
AcDbSpline
 62
7
  6
BYLAYER
 70
0
 71
3
 72
14
 73
10
 74
0
 42
0.0000001
 43
0.0000001
 44
0.0000000001
 40
0.0
 40
0.0
 40
0.0
 40
0.0
 40
0.0707721529
 40
0.1572406865
 40
0.2607426301
 40
0.3810744128
 40
0.5172307097
 40
0.6673417004
 40
1.0
 40
1.0
 40
1.0
 40
1.0
 10
34.0860490171
 20
219.4017945225
 30
0.0
 10
33.9757685588
 20
219.2320152085
 30
0.0
 10
33.7865010477
 20
218.8188360536
 30
0.0
 10
33.6022534145
 20
218.0938417919
 30
0.0
 10
33.494065895
 20
217.2109245291
 30
0.0
 10
33.4626440617
 20
216.1806137308
 30
0.0
 10
33.5092210288
 20
215.0176403431
 30
0.0
 10
33.6772098386
 20
213.2545063821
 30
0.0
 10
33.9029283909
 20
211.8901474007
 30
0.0
 10
34.0861099202
 20
210.9563370917
 30
0.0
  0
SPLINE
  5
340
100
AcDbEntity
  8
0
100
AcDbSpline
 62
7
  6
BYLAYER
 70
0
 71
3
 72
11
 73
7
 74
0
 42
0.0000001
 43
0.0000001
 44
0.0000000001
 40
0.0
 40
0.0
 40
0.0
 40
0.0
 40
0.2441101133
 40
0.4900339547
 40
0.7406195934
 40
1.0
 40
1.0
 40
1.0
 40
1.0
 10
213.2895581284
 20
199.725054805
 30
0.0
 10
213.2895581239
 20
199.3562174734
 30
0.0
 10
213.2004801379
 20
198.6126259494
 30
0.0
 10
212.7975516281
 20
197.5567749307
 30
0.0
 10
212.1319544644
 20
196.6139869116
 30
0.0
 10
211.5357679735
 20
196.1110892655
 30
0.0
 10
211.2085547844
 20
195.895392903
 30
0.0
  0
SPLINE
  5
341
100
AcDbEntity
  8
0
100
AcDbSpline
 62
7
  6
BYLAYER
 70
0
 71
3
 72
11
 73
7
 74
0
 42
0.0000001
 43
0.0000001
 44
0.0000000001
 40
0.0
 40
0.0
 40
0.0
 40
0.0
 40
0.2329319965
 40
0.4778489825
 40
0.7344162435
 40
1.0
 40
1.0
 40
1.0
 40
1.0
 10
210.5678092252
 20
195.5348825028
 30
0.0
 10
210.2263812082
 20
195.3723573856
 30
0.0
 10
209.4906540208
 20
195.1097154835
 30
0.0
 10
208.310370944
 20
194.9103524001
 30
0.0
 10
207.0619699572
 20
194.8818473068
 30
0.0
 10
206.2162706551
 20
194.9623400389
 30
0.0
 10
205.7895913704
 20
195.0242200003
 30
0.0
  0
SPLINE
  5
342
100
AcDbEntity
  8
0
100
AcDbSpline
 62
7
  6
BYLAYER
 70
0
 71
3
 72
11
 73
7
 74
0
 42
0.0000001
 43
0.0000001
 44
0.0000000001
 40
0.0
 40
0.0
 40
0.0
 40
0.0
 40
0.2372524156
 40
0.4999996414
 40
0.7627470637
 40
1.0
 40
1.0
 40
1.0
 40
1.0
 10
125.6482214589
 20
190.9289583772
 30
0.0
 10
125.3972362635
 20
190.784052872
 30
0.0
 10
124.8136087769
 20
190.572567224
 30
0.0
 10
123.8804567723
 20
190.4714566146
 30
0.0
 10
122.9473036834
 20
190.5725631658
 30
0.0
 10
122.3636743442
 20
190.7840458655
 30
0.0
 10
122.112687553
 20
190.9289498788
 30
0.0
  0
SPLINE
  5
343
100
AcDbEntity
  8
0
100
AcDbSpline
 62
7
  6
BYLAYER
 70
0
 71
3
 72
13
 73
9
 74
0
 42
0.0000001
 43
0.0000001
 44
0.0000000001
 40
0.0
 40
0.0
 40
0.0
 40
0.0
 40
0.2830528195
 40
0.4055562917
 40
0.5190865938
 40
0.6294466929
 40
0.7431461485
 40
1.0
 40
1.0
 40
1.0
 40
1.0
 10
84.6358721202
 20
212.5657098684
 30
0.0
 10
84.4490369458
 20
212.6735767664
 30
0.0
 10
84.1959757462
 20
212.8676928504
 30
0.0
 10
83.9796543635
 20
213.2033267484
 30
0.0
 10
83.9001119353
 20
213.4590400329
 30
0.0
 10
83.9012318645
 20
213.7205141783
 30
0.0
 10
84.0141132933
 20
214.0742796382
 30
0.0
 10
84.2104513653
 20
214.2953490826
 30
0.0
 10
84.3620535446
 20
214.4192132055
 30
0.0
  0
SPLINE
  5
344
100
AcDbEntity
  8
0
100
AcDbSpline
 62
7
  6
BYLAYER
 70
0
 71
3
 72
9
 73
5
 74
0
 42
0.0000001
 43
0.0000001
 44
0.0000000001
 40
0.0
 40
0.0
 40
0.0
 40
0.0
 40
0.2419502939
 40
1.0
 40
1.0
 40
1.0
 40
1.0
 10
84.3620535446
 20
214.4192132055
 30
0.0
 10
84.3827994646
 20
214.4361633258
 30
0.0
 10
84.4700975289
 20
214.5043088625
 30
0.0
 10
84.5631674764
 20
214.5649548427
 30
0.0
 10
84.6358574004
 20
214.6069221394
 30
0.0
  0
SPLINE
  5
345
100
AcDbEntity
  8
0
100
AcDbSpline
 62
7
  6
BYLAYER
 70
0
 71
3
 72
9
 73
5
 74
0
 42
0.0000001
 43
0.0000001
 44
0.0000000001
 40
0.0
 40
0.0
 40
0.0
 40
0.0
 40
0.2581345826
 40
1.0
 40
1.0
 40
1.0
 40
1.0
 10
163.1247101114
 20
214.6071108034
 30
0.0
 10
163.1494611841
 20
214.5928210882
 30
0.0
 10
163.2443054608
 20
214.5356985351
 30
0.0
 10
163.3348962589
 20
214.4713812548
 30
0.0
 10
163.3985036305
 20
214.419413753
 30
0.0
  0
SPLINE
  5
346
100
AcDbEntity
  8
0
100
AcDbSpline
 62
7
  6
BYLAYER
 70
0
 71
3
 72
13
 73
9
 74
0
 42
0.0000001
 43
0.0000001
 44
0.0000000001
 40
0.0
 40
0.0
 40
0.0
 40
0.0
 40
0.2568564126
 40
0.3705563957
 40
0.4809164845
 40
0.5944463218
 40
0.7169489901
 40
1.0
 40
1.0
 40
1.0
 40
1.0
 10
163.3985036305
 20
214.419413753
 30
0.0
 10
163.5501105176
 20
214.2955502608
 30
0.0
 10
163.746455949
 20
214.0744818447
 30
0.0
 10
163.8593474223
 20
213.7207145083
 30
0.0
 10
163.8604731596
 20
213.4592385665
 30
0.0
 10
163.7809356599
 20
213.2035228324
 30
0.0
 10
163.5646190243
 20
212.8678853549
 30
0.0
 10
163.3115592688
 20
212.6737668013
 30
0.0
 10
163.1247248312
 20
212.5658985324
 30
0.0
  0
SPLINE
  5
347
100
AcDbEntity
  8
0
100
AcDbSpline
 62
7
  6
BYLAYER
 70
0
 71
3
 72
12
 73
8
 74
0
 42
0.0000001
 43
0.0000001
 44
0.0000000001
 40
0.0
 40
0.0
 40
0.0
 40
0.0
 40
0.2895878516
 40
0.5486338943
 40
0.7816393355
 40
0.8918391307
 40
1.0
 40
1.0
 40
1.0
 40
1.0
 10
139.7902599316
 20
204.4009933592
 30
0.0
 10
140.777893736
 20
204.9712005983
 30
0.0
 10
142.5693338365
 20
206.2049596063
 30
0.0
 10
144.7094293801
 20
208.4529817151
 30
0.0
 10
145.8586253212
 20
210.5711822205
 30
0.0
 10
146.3061426005
 20
212.2987616902
 30
0.0
 10
146.3802670824
 20
213.1604640994
 30
0.0
 10
146.3802275139
 20
213.5864100509
 30
0.0
  0
SPLINE
  5
348
100
AcDbEntity
  8
0
100
AcDbSpline
 62
7
  6
BYLAYER
 70
0
 71
3
 72
11
 73
7
 74
0
 42
0.0000001
 43
0.0000001
 44
0.0000000001
 40
0.0
 40
0.0
 40
0.0
 40
0.0
 40
0.237217774
 40
0.4999989081
 40
0.7627806366
 40
1.0
 40
1.0
 40
1.0
 40
1.0
 10
125.6482214589
 20
190.9289583772
 30
0.0
 10
125.7486019419
 20
190.8710049894
 30
0.0
 10
125.9385797761
 20
190.7111235367
 30
0.0
 10
126.1603145371
 20
190.4081209905
 30
0.0
 10
126.3118569291
 20
190.0645917535
 30
0.0
 10
126.3553311841
 20
189.8201247244
 30
0.0
 10
126.3553311841
 20
189.7042152055
 30
0.0
  0
SPLINE
  5
349
100
AcDbEntity
  8
0
100
AcDbSpline
 62
7
  6
BYLAYER
 70
0
 71
3
 72
11
 73
7
 74
0
 42
0.0000001
 43
0.0000001
 44
0.0000000001
 40
0.0
 40
0.0
 40
0.0
 40
0.0
 40
0.2372367819
 40
0.4999994739
 40
0.7627624522
 40
1.0
 40
1.0
 40
1.0
 40
1.0
 10
126.3553311841
 20
189.7042152055
 30
0.0
 10
126.0039735124
 20
189.5013599701
 30
0.0
 10
125.1868890369
 20
189.2053345593
 30
0.0
 10
123.8804613402
 20
189.0635022575
 30
0.0
 10
122.5740316722
 20
189.2053285978
 30
0.0
 10
121.7569439834
 20
189.5013499518
 30
0.0
 10
121.4055837146
 20
189.7042033085
 30
0.0
  0
SPLINE
  5
34A
100
AcDbEntity
  8
0
100
AcDbSpline
 62
7
  6
BYLAYER
 70
0
 71
3
 72
11
 73
7
 74
0
 42
0.0000001
 43
0.0000001
 44
0.0000000001
 40
0.0
 40
0.0
 40
0.0
 40
0.0
 40
0.2372196254
 40
0.500001618
 40
0.76278273
 40
1.0
 40
1.0
 40
1.0
 40
1.0
 10
121.4055837158
 20
189.7042033078
 30
0.0
 10
121.4055837158
 20
189.8201128887
 30
0.0
 10
121.4490576129
 20
190.0645800273
 30
0.0
 10
121.6005986397
 20
190.408109847
 30
0.0
 10
121.8223314115
 20
190.7111133606
 30
0.0
 10
122.0123077583
 20
190.8709959232
 30
0.0
 10
122.112687553
 20
190.9289498788
 30
0.0
  0
SPLINE
  5
34B
100
AcDbEntity
  8
0
100
AcDbSpline
 62
7
  6
BYLAYER
 70
0
 71
3
 72
11
 73
7
 74
0
 42
0.0000001
 43
0.0000001
 44
0.0000000001
 40
0.0
 40
0.0
 40
0.0
 40
0.0
 40
0.2372193634
 40
0.5000010919
 40
0.762782226
 40
1.0
 40
1.0
 40
1.0
 40
1.0
 10
163.8318345564
 20
211.3411553607
 30
0.0
 10
163.8318345564
 20
211.4570648796
 30
0.0
 10
163.7883603015
 20
211.7015319087
 30
0.0
 10
163.6368179094
 20
212.0450611457
 30
0.0
 10
163.4150831485
 20
212.3480636919
 30
0.0
 10
163.2251053142
 20
212.5079451446
 30
0.0
 10
163.1247248312
 20
212.5658985324
 30
0.0
  0
SPLINE
  5
34C
100
AcDbEntity
  8
0
100
AcDbSpline
 62
7
  6
BYLAYER
 70
0
 71
3
 72
11
 73
7
 74
0
 42
0.0000001
 43
0.0000001
 44
0.0000000001
 40
0.0
 40
0.0
 40
0.0
 40
0.0
 40
0.2880181529
 40
0.5477054048
 40
0.7821204644
 40
1.0
 40
1.0
 40
1.0
 40
1.0
 10
199.4559028959
 20
203.8499166683
 30
0.0
 10
199.1147623912
 20
203.6529602817
 30
0.0
 10
198.4924053894
 20
203.2283757222
 30
0.0
 10
197.7344760847
 20
202.4621362287
 30
0.0
 10
197.2278277525
 20
201.617787395
 30
0.0
 10
197.0736647731
 20
201.0066119854
 30
0.0
 10
197.0490239839
 20
200.7096446421
 30
0.0
  0
SPLINE
  5
34D
100
AcDbEntity
  8
0
100
AcDbSpline
 62
7
  6
BYLAYER
 70
0
 71
3
 72
10
 73
6
 74
0
 42
0.0000001
 43
0.0000001
 44
0.0000000001
 40
0.0
 40
0.0
 40
0.0
 40
0.0
 40
0.221780561
 40
0.4663197743
 40
1.0
 40
1.0
 40
1.0
 40
1.0
 10
145.6441345122
 20
165.1458639026
 30
0.0
 10
145.2661159662
 20
165.4320458147
 30
0.0
 10
144.4030068567
 20
165.9457812509
 30
0.0
 10
142.4025057255
 20
166.716363738
 30
0.0
 10
140.7320365368
 20
166.9713358383
 30
0.0
 10
139.5918446373
 20
167.0119988742
 30
0.0
  0
SPLINE
  5
34E
100
AcDbEntity
  8
0
100
AcDbSpline
 62
7
  6
BYLAYER
 70
0
 71
3
 72
9
 73
5
 74
0
 42
0.0000001
 43
0.0000001
 44
0.0000000001
 40
0.0
 40
0.0
 40
0.0
 40
0.0
 40
0.5242470032
 40
1.0
 40
1.0
 40
1.0
 40
1.0
 10
138.5595039992
 20
167.011463128
 30
0.0
 10
137.6139293124
 20
166.9766643143
 30
0.0
 10
135.8122531195
 20
166.7338636576
 30
0.0
 10
134.0973522022
 20
166.1001432324
 30
0.0
 10
133.3475985527
 20
165.681557196
 30
0.0
  0
SPLINE
  5
34F
100
AcDbEntity
  8
0
100
AcDbSpline
 62
7
  6
BYLAYER
 70
0
 71
3
 72
9
 73
5
 74
0
 42
0.0000001
 43
0.0000001
 44
0.0000000001
 40
0.0
 40
0.0
 40
0.0
 40
0.0
 40
0.2458512479
 40
1.0
 40
1.0
 40
1.0
 40
1.0
 10
213.4185777354
 20
199.7865624462
 30
0.0
 10
213.4032035891
 20
199.8371869298
 30
0.0
 10
213.3350407985
 20
200.0413689126
 30
0.0
 10
213.2446950797
 20
200.2379952291
 30
0.0
 10
213.1663736774
 20
200.3801395811
 30
0.0
  0
SPLINE
  5
350
100
AcDbEntity
  8
0
100
AcDbSpline
 62
7
  6
BYLAYER
 70
0
 71
3
 72
9
 73
5
 74
0
 42
0.0000001
 43
0.0000001
 44
0.0000000001
 40
0.0
 40
0.0
 40
0.0
 40
0.0
 40
0.2279363251
 40
1.0
 40
1.0
 40
1.0
 40
1.0
 10
213.1301961676
 20
200.4441398372
 30
0.0
 10
213.0355442553
 20
200.6074403604
 30
0.0
 10
212.5605526923
 20
201.2896712401
 30
0.0
 10
211.889363237
 20
201.8159156735
 30
0.0
 10
211.3416623211
 20
202.1457085779
 30
0.0
  0
SPLINE
  5
351
100
AcDbEntity
  8
0
100
AcDbSpline
 62
7
  6
BYLAYER
 70
0
 71
3
 72
12
 73
8
 74
0
 42
0.0000001
 43
0.0000001
 44
0.0000000001
 40
0.0
 40
0.0
 40
0.0
 40
0.0
 40
0.1734263193
 40
0.2751067505
 40
0.3902610143
 40
0.6656104305
 40
1.0
 40
1.0
 40
1.0
 40
1.0
 10
116.9231129328
 20
255.5586470947
 30
0.0
 10
116.9049765831
 20
255.7797963276
 30
0.0
 10
116.7779689083
 20
256.1235064011
 30
0.0
 10
116.4898577775
 20
256.5314169626
 30
0.0
 10
116.060011074
 20
256.994365364
 30
0.0
 10
115.3255124076
 20
257.5677793934
 30
0.0
 10
114.6579451722
 20
257.9734153024
 30
0.0
 10
114.2837577399
 20
258.1808485894
 30
0.0
  0
SPLINE
  5
352
100
AcDbEntity
  8
0
100
AcDbSpline
 62
7
  6
BYLAYER
 70
0
 71
3
 72
11
 73
7
 74
0
 42
0.0000001
 43
0.0000001
 44
0.0000000001
 40
0.0
 40
0.0
 40
0.0
 40
0.0
 40
0.23721727
 40
0.499998382
 40
0.7627803746
 40
1.0
 40
1.0
 40
1.0
 40
1.0
 10
84.6358721202
 20
212.5657098684
 30
0.0
 10
84.5354923255
 20
212.5077559128
 30
0.0
 10
84.3455159787
 20
212.3478733502
 30
0.0
 10
84.1237832069
 20
212.0448698366
 30
0.0
 10
83.9722421801
 20
211.7013400169
 30
0.0
 10
83.928768283
 20
211.4568728783
 30
0.0
 10
83.928768283
 20
211.3409632974
 30
0.0
  0
SPLINE
  5
353
100
AcDbEntity
  8
0
100
AcDbSpline
 62
7
  6
BYLAYER
 70
0
 71
3
 72
11
 73
7
 74
0
 42
0.0000001
 43
0.0000001
 44
0.0000000001
 40
0.0
 40
0.0
 40
0.0
 40
0.0
 40
0.2897023113
 40
0.5490868678
 40
0.7822157677
 40
1.0
 40
1.0
 40
1.0
 40
1.0
 10
83.928768283
 20
211.3409632974
 30
0.0
 10
83.7751909668
 20
211.4296291964
 30
0.0
 10
83.4965601541
 20
211.6215330575
 30
0.0
 10
83.1635554714
 20
211.9714959187
 30
0.0
 10
82.9528998563
 20
212.3586420731
 30
0.0
 10
82.9036317069
 20
212.6365060767
 30
0.0
 10
82.9036317133
 20
212.7698178359
 30
0.0
  0
SPLINE
  5
354
100
AcDbEntity
  8
0
100
AcDbSpline
 62
7
  6
BYLAYER
 70
0
 71
3
 72
12
 73
8
 74
0
 42
0.0000001
 43
0.0000001
 44
0.0000000001
 40
0.0
 40
0.0
 40
0.0
 40
0.0
 40
0.3312078442
 40
0.6050603756
 40
0.7205416771
 40
0.8232089997
 40
1.0
 40
1.0
 40
1.0
 40
1.0
 10
102.8435011491
 20
258.0524168301
 30
0.0
 10
102.5034715302
 20
257.85610181
 30
0.0
 10
101.8961461563
 20
257.4726672539
 30
0.0
 10
101.2295472528
 20
256.9322412891
 30
0.0
 10
100.8383146382
 20
256.4973370225
 30
0.0
 10
100.5727654181
 20
256.1115605218
 30
0.0
 10
100.4538362787
 20
255.7894124243
 30
0.0
 10
100.4330696991
 20
255.5808661488
 30
0.0
  0
SPLINE
  5
355
100
AcDbEntity
  8
0
100
AcDbSpline
 62
7
  6
BYLAYER
 70
0
 71
3
 72
11
 73
7
 74
0
 42
0.0000001
 43
0.0000001
 44
0.0000000001
 40
0.0
 40
0.0
 40
0.0
 40
0.0
 40
0.2451523322
 40
0.4917512383
 40
0.7422212519
 40
1.0
 40
1.0
 40
1.0
 40
1.0
 10
147.0834502384
 20
161.501139845
 30
0.0
 10
147.0834738317
 20
161.1629342138
 30
0.0
 10
147.0081053297
 20
160.482230293
 30
0.0
 10
146.6716167344
 20
159.5062441977
 30
0.0
 10
146.1105382926
 20
158.6177827017
 30
0.0
 10
145.6029259167
 20
158.1237983138
 30
0.0
 10
145.323158796
 20
157.9042549582
 30
0.0
  0
SPLINE
  5
356
100
AcDbEntity
  8
0
100
AcDbSpline
 62
7
  6
BYLAYER
 70
0
 71
3
 72
9
 73
5
 74
0
 42
0.0000001
 43
0.0000001
 44
0.0000000001
 40
0.0
 40
0.0
 40
0.0
 40
0.0
 40
0.4754811318
 40
1.0
 40
1.0
 40
1.0
 40
1.0
 10
144.6289851226
 20
157.4463417724
 30
0.0
 10
143.9134120552
 20
157.0531425041
 30
0.0
 10
142.2068390447
 20
156.5905935073
 30
0.0
 10
140.4748271767
 20
156.6710475494
 30
0.0
 10
139.5834590921
 20
156.8003198733
 30
0.0
  0
SPLINE
  5
357
100
AcDbEntity
  8
0
100
AcDbSpline
 62
7
  6
BYLAYER
 70
0
 71
3
 72
11
 73
7
 74
0
 42
0.0000001
 43
0.0000001
 44
0.0000000001
 40
0.0
 40
0.0
 40
0.0
 40
0.0
 40
0.2372405738
 40
0.5000004574
 40
0.7627600882
 40
1.0
 40
1.0
 40
1.0
 40
1.0
 10
121.4055837158
 20
186.1932429142
 30
0.0
 10
121.7569481052
 20
185.9903871783
 30
0.0
 10
122.5740386435
 20
185.6943740133
 30
0.0
 10
123.8804610406
 20
185.5525547945
 30
0.0
 10
125.1868816558
 20
185.6943798632
 30
0.0
 10
126.0039692378
 20
185.9903971085
 30
0.0
 10
126.3553311841
 20
186.1932548119
 30
0.0
  0
SPLINE
  5
358
100
AcDbEntity
  8
0
100
AcDbSpline
 62
7
  6
BYLAYER
 70
0
 71
3
 72
10
 73
6
 74
0
 42
0.0000001
 43
0.0000001
 44
0.0000000001
 40
0.0
 40
0.0
 40
0.0
 40
0.0
 40
0.2429914622
 40
0.4866079415
 40
1.0
 40
1.0
 40
1.0
 40
1.0
 10
145.1403786579
 20
215.3186434843
 30
0.0
 10
145.344289918
 20
215.6584296437
 30
0.0
 10
145.7081292769
 20
216.3671560178
 30
0.0
 10
146.241359906
 20
217.9131443823
 30
0.0
 10
146.3802761563
 20
219.1591894115
 30
0.0
 10
146.3802901573
 20
219.9964402316
 30
0.0
  0
SPLINE
  5
359
100
AcDbEntity
  8
0
100
AcDbSpline
 62
7
  6
BYLAYER
 70
0
 71
3
 72
11
 73
7
 74
0
 42
0.0000001
 43
0.0000001
 44
0.0000000001
 40
0.0
 40
0.0
 40
0.0
 40
0.0
 40
0.242719708
 40
0.4876033832
 40
0.7383554134
 40
1.0
 40
1.0
 40
1.0
 40
1.0
 10
131.083448099
 20
161.5011841721
 30
0.0
 10
131.0834205767
 20
161.0995980251
 30
0.0
 10
131.1896300757
 20
160.2888445321
 30
0.0
 10
131.6676877344
 20
159.1487822969
 30
0.0
 10
132.4587714892
 20
158.1569415655
 30
0.0
 10
133.1565237705
 20
157.6552927761
 30
0.0
 10
133.5362970113
 20
157.447512024
 30
0.0
  0
SPLINE
  5
35A
100
AcDbEntity
  8
0
100
AcDbSpline
 62
7
  6
BYLAYER
 70
0
 71
3
 72
11
 73
7
 74
0
 42
0.0000001
 43
0.0000001
 44
0.0000000001
 40
0.0
 40
0.0
 40
0.0
 40
0.0
 40
0.2316444175
 40
0.4760774616
 40
0.7330204174
 40
1.0
 40
1.0
 40
1.0
 40
1.0
 10
133.5362970113
 20
157.447512024
 30
0.0
 10
133.8865511187
 20
157.2558817192
 30
0.0
 10
134.6531753817
 20
156.9438446601
 30
0.0
 10
135.8987624076
 20
156.699420262
 30
0.0
 10
137.2266108581
 20
156.650641923
 30
0.0
 10
138.1280723454
 20
156.734272
 30
0.0
 10
138.5834590922
 20
156.8003174696
 30
0.0
  0
SPLINE
  5
35B
100
AcDbEntity
  8
0
100
AcDbSpline
 62
7
  6
BYLAYER
 70
0
 71
3
 72
10
 73
6
 74
0
 42
0.0000001
 43
0.0000001
 44
0.0000000001
 40
0.0
 40
0.0
 40
0.0
 40
0.0
 40
0.2636526789
 40
0.4897318161
 40
1.0
 40
1.0
 40
1.0
 40
1.0
 10
140.3364425075
 20
253.3043803873
 30
0.0
 10
140.3682178256
 20
253.2796987711
 30
0.0
 10
140.4218544416
 20
253.2235873983
 30
0.0
 10
140.4549028679
 20
253.0635968324
 30
0.0
 10
140.356263984
 20
252.9669103872
 30
0.0
 10
140.2888370384
 20
252.927957347
 30
0.0
  0
SPLINE
  5
35C
100
AcDbEntity
  8
0
100
AcDbSpline
 62
7
  6
BYLAYER
 70
0
 71
3
 72
11
 73
7
 74
0
 42
0.0000001
 43
0.0000001
 44
0.0000000001
 40
0.0
 40
0.0
 40
0.0
 40
0.0
 40
0.2897048043
 40
0.5490913404
 40
0.7822177947
 40
1.0
 40
1.0
 40
1.0
 40
1.0
 10
163.8318345564
 20
207.8301949671
 30
0.0
 10
163.9854096998
 20
207.9188610881
 30
0.0
 10
164.2640337234
 20
208.1107687191
 30
0.0
 10
164.5970282507
 20
208.4607307946
 30
0.0
 10
164.8076696716
 20
208.8478736393
 30
0.0
 10
164.8569330785
 20
209.1257295677
 30
0.0
 10
164.8569330538
 20
209.2590376079
 30
0.0
  0
SPLINE
  5
35D
100
AcDbEntity
  8
0
100
AcDbSpline
 62
7
  6
BYLAYER
 70
0
 71
3
 72
9
 73
5
 74
0
 42
0.0000001
 43
0.0000001
 44
0.0000000001
 40
0.0
 40
0.0
 40
0.0
 40
0.0
 40
0.4913561239
 40
1.0
 40
1.0
 40
1.0
 40
1.0
 10
135.4529271951
 20
255.7199032247
 30
0.0
 10
135.5476294894
 20
255.7745486872
 30
0.0
 10
135.7736930047
 20
255.8243619087
 30
0.0
 10
136.0009091732
 20
255.792030931
 30
0.0
 10
136.1049203269
 20
255.7473951987
 30
0.0
  0
SPLINE
  5
35E
100
AcDbEntity
  8
0
100
AcDbSpline
 62
7
  6
BYLAYER
 70
0
 71
3
 72
9
 73
5
 74
0
 42
0.0000001
 43
0.0000001
 44
0.0000000001
 40
0.0
 40
0.0
 40
0.0
 40
0.0
 40
0.2623463957
 40
1.0
 40
1.0
 40
1.0
 40
1.0
 10
136.6831638835
 20
255.490039251
 30
0.0
 10
137.021560487
 20
255.333805877
 30
0.0
 10
138.2962094649
 20
254.7066620934
 30
0.0
 10
139.5089619042
 20
253.9474830547
 30
0.0
 10
140.3364425075
 20
253.3043803873
 30
0.0
  0
SPLINE
  5
35F
100
AcDbEntity
  8
0
100
AcDbSpline
 62
7
  6
BYLAYER
 70
0
 71
3
 72
11
 73
7
 74
0
 42
0.0000001
 43
0.0000001
 44
0.0000000001
 40
0.0
 40
0.0
 40
0.0
 40
0.0
 40
0.282760908
 40
0.5408207691
 40
0.7767978229
 40
1.0
 40
1.0
 40
1.0
 40
1.0
 10
140.3364583777
 20
253.3043590243
 30
0.0
 10
140.4477751243
 20
253.3521125143
 30
0.0
 10
140.6696662553
 20
253.4247205286
 30
0.0
 10
141.0040729579
 20
253.4571878713
 30
0.0
 10
141.3110053304
 20
253.4038653272
 30
0.0
 10
141.4881608537
 20
253.3091268846
 30
0.0
 10
141.5636964369
 20
253.2505061492
 30
0.0
  0
SPLINE
  5
360
100
AcDbEntity
  8
0
100
AcDbSpline
 62
7
  6
BYLAYER
 70
0
 71
3
 72
11
 73
7
 74
0
 42
0.0000001
 43
0.0000001
 44
0.0000000001
 40
0.0
 40
0.0
 40
0.0
 40
0.0
 40
0.239361874
 40
0.5020840852
 40
0.7637080783
 40
1.0
 40
1.0
 40
1.0
 40
1.0
 10
141.7021619166
 20
250.5359403468
 30
0.0
 10
141.6953472071
 20
250.7652125796
 30
0.0
 10
141.6004444131
 20
251.2442021931
 30
0.0
 10
141.2948192629
 20
251.9148985631
 30
0.0
 10
140.8569198529
 20
252.504088012
 30
0.0
 10
140.4849006345
 20
252.8147243553
 30
0.0
 10
140.2888039709
 20
252.9279382556
 30
0.0
  0
SPLINE
  5
361
100
AcDbEntity
  8
0
100
AcDbSpline
 62
7
  6
BYLAYER
 70
0
 71
3
 72
11
 73
7
 74
0
 42
0.0000001
 43
0.0000001
 44
0.0000000001
 40
0.0
 40
0.0
 40
0.0
 40
0.0
 40
0.2171859134
 40
0.4758766013
 40
0.7493101772
 40
1.0
 40
1.0
 40
1.0
 40
1.0
 10
145.1403786469
 20
215.318643466
 30
0.0
 10
145.140378647
 20
215.5859406576
 30
0.0
 10
145.004578335
 20
216.1744096577
 30
0.0
 10
144.4740057528
 20
216.9506528806
 30
0.0
 10
143.6959511354
 20
217.5440455201
 30
0.0
 10
143.0806847319
 20
217.7719072794
 30
0.0
 10
142.7781466993
 20
217.832425019
 30
0.0
  0
SPLINE
  5
362
100
AcDbEntity
  8
0
100
AcDbSpline
 62
7
  6
BYLAYER
 70
0
 71
3
 72
11
 73
7
 74
0
 42
0.0000001
 43
0.0000001
 44
0.0000000001
 40
0.0
 40
0.0
 40
0.0
 40
0.0
 40
0.27554969
 40
0.5354044536
 40
0.7753263023
 40
1.0
 40
1.0
 40
1.0
 40
1.0
 10
142.0466003995
 20
236.6580429082
 30
0.0
 10
142.1507194338
 20
236.7173841638
 30
0.0
 10
142.3451620321
 20
236.847773815
 30
0.0
 10
142.5856428048
 20
237.0881433577
 30
0.0
 10
142.7454633291
 20
237.3650877928
 30
0.0
 10
142.7813976007
 20
237.5696531222
 30
0.0
 10
142.7788387447
 20
237.667334819
 30
0.0
  0
SPLINE
  5
363
100
AcDbEntity
  8
0
100
AcDbSpline
 62
7
  6
BYLAYER
 70
0
 71
3
 72
10
 73
6
 74
0
 42
0.0000001
 43
0.0000001
 44
0.0000000001
 40
0.0
 40
0.0
 40
0.0
 40
0.0
 40
0.2266974985
 40
0.5949233239
 40
1.0
 40
1.0
 40
1.0
 40
1.0
 10
145.1403786579
 20
215.3186434843
 30
0.0
 10
144.8547740663
 20
214.8427291413
 30
0.0
 10
144.0005454964
 20
213.6549734647
 30
0.0
 10
142.2268158614
 20
211.9446245918
 30
0.0
 10
140.649159883
 20
210.8818392348
 30
0.0
 10
139.7902599316
 20
210.3859560767
 30
0.0
  0
SPLINE
  5
364
100
AcDbEntity
  8
0
100
AcDbSpline
 62
7
  6
BYLAYER
 70
0
 71
3
 72
9
 73
5
 74
0
 42
0.0000001
 43
0.0000001
 44
0.0000000001
 40
0.0
 40
0.0
 40
0.0
 40
0.0
 40
0.4791906795
 40
1.0
 40
1.0
 40
1.0
 40
1.0
 10
139.7902599316
 20
210.3859560767
 30
0.0
 10
138.5294421144
 20
209.6580269157
 30
0.0
 10
135.7416214112
 20
208.4049166374
 30
0.0
 10
132.7980876891
 20
207.6074410544
 30
0.0
 10
131.2465171338
 20
207.2970666752
 30
0.0
  0
SPLINE
  5
365
100
AcDbEntity
  8
0
100
AcDbSpline
 62
7
  6
BYLAYER
 70
0
 71
3
 72
8
 73
4
 74
0
 42
0.0000001
 43
0.0000001
 44
0.0000000001
 40
0.0
 40
0.0
 40
0.0
 40
0.0
 40
1.0
 40
1.0
 40
1.0
 40
1.0
 10
110.463044524
 20
234.1856841576
 30
0.0
 10
110.6415284553
 20
229.572316461
 30
0.0
 10
110.820972326
 20
224.9589857428
 30
0.0
 10
111.0016398913
 20
220.3457030451
 30
0.0
  0
SPLINE
  5
366
100
AcDbEntity
  8
0
100
AcDbSpline
 62
7
  6
BYLAYER
 70
0
 71
3
 72
15
 73
11
 74
0
 42
0.0000001
 43
0.0000001
 44
0.0000000001
 40
0.0
 40
0.0
 40
0.0
 40
0.0
 40
0.112617601
 40
0.2341709091
 40
0.3605670529
 40
0.4888089855
 40
0.6175128054
 40
0.7461299762
 40
0.8740129182
 40
1.0
 40
1.0
 40
1.0
 40
1.0
 10
111.0016398913
 20
220.3457030451
 30
0.0
 10
111.0422884033
 20
219.315437097
 30
0.0
 10
111.4290395406
 20
217.1799537874
 30
0.0
 10
112.7556861386
 20
214.1281763583
 30
0.0
 10
114.8365549515
 20
211.3415703698
 30
0.0
 10
117.5848409422
 20
209.1005785164
 30
0.0
 10
120.8126723715
 20
207.5900511348
 30
0.0
 10
124.2852196491
 20
206.8407606728
 30
0.0
 10
127.8029028725
 20
206.7619090471
 30
0.0
 10
130.1154487203
 20
207.0708353067
 30
0.0
 10
131.2465171338
 20
207.2970666752
 30
0.0
  0
SPLINE
  5
367
100
AcDbEntity
  8
0
100
AcDbSpline
 62
7
  6
BYLAYER
 70
0
 71
3
 72
8
 73
4
 74
0
 42
0.0000001
 43
0.0000001
 44
0.0000000001
 40
0.0
 40
0.0
 40
0.0
 40
0.0
 40
1.0
 40
1.0
 40
1.0
 40
1.0
 10
105.4307278251
 20
223.5619978631
 30
0.0
 10
105.5585178307
 20
227.9970674578
 30
0.0
 10
105.6879420039
 20
232.4320901427
 30
0.0
 10
105.8186339873
 20
236.8670751709
 30
0.0
  0
SPLINE
  5
368
100
AcDbEntity
  8
0
100
AcDbSpline
 62
7
  6
BYLAYER
 70
0
 71
3
 72
9
 73
5
 74
0
 42
0.0000001
 43
0.0000001
 44
0.0000000001
 40
0.0
 40
0.0
 40
0.0
 40
0.0
 40
0.2637590324
 40
1.0
 40
1.0
 40
1.0
 40
1.0
 10
110.463044524
 20
234.1856841576
 30
0.0
 10
110.0290813572
 20
234.3718024943
 30
0.0
 10
108.4039274268
 20
235.1219359572
 30
0.0
 10
106.8593359666
 20
236.0582607819
 30
0.0
 10
105.8186339873
 20
236.8670751709
 30
0.0
  0
SPLINE
  5
369
100
AcDbEntity
  8
0
100
AcDbSpline
 62
7
  6
BYLAYER
 70
0
 71
3
 72
9
 73
5
 74
0
 42
0.0000001
 43
0.0000001
 44
0.0000000001
 40
0.0
 40
0.0
 40
0.0
 40
0.0
 40
0.2637589178
 40
1.0
 40
1.0
 40
1.0
 40
1.0
 10
111.6556620026
 20
236.7456187971
 30
0.0
 10
111.2602783802
 20
236.9151911226
 30
0.0
 10
109.77960171
 20
237.5986395323
 30
0.0
 10
108.3723233915
 20
238.4517227959
 30
0.0
 10
107.4241397807
 20
239.188633615
 30
0.0
  0
SPLINE
  5
36A
100
AcDbEntity
  8
0
100
AcDbSpline
 62
7
  6
BYLAYER
 70
0
 71
3
 72
10
 73
6
 74
0
 42
0.0000001
 43
0.0000001
 44
0.0000000001
 40
0.0
 40
0.0
 40
0.0
 40
0.0
 40
0.2636525971
 40
0.489732025
 40
1.0
 40
1.0
 40
1.0
 40
1.0
 10
107.4241397807
 20
239.188633615
 30
0.0
 10
107.392364402
 20
239.2133151179
 30
0.0
 10
107.3387278479
 20
239.2694265823
 30
0.0
 10
107.305679285
 20
239.4294171094
 30
0.0
 10
107.4043182502
 20
239.5261033632
 30
0.0
 10
107.471745026
 20
239.5650565985
 30
0.0
  0
SPLINE
  5
36B
100
AcDbEntity
  8
0
100
AcDbSpline
 62
7
  6
BYLAYER
 70
0
 71
3
 72
9
 73
5
 74
0
 42
0.0000001
 43
0.0000001
 44
0.0000000001
 40
0.0
 40
0.0
 40
0.0
 40
0.0
 40
0.2456868491
 40
1.0
 40
1.0
 40
1.0
 40
1.0
 10
47.2291859099
 20
221.9111023043
 30
0.0
 10
47.1585219493
 20
221.9319730407
 30
0.0
 10
46.8695127497
 20
222.012174095
 30
0.0
 10
46.5754658703
 20
222.0739204428
 30
0.0
 10
46.3523244185
 20
222.1111079667
 30
0.0
  0
SPLINE
  5
36C
100
AcDbEntity
  8
0
100
AcDbSpline
 62
7
  6
BYLAYER
 70
0
 71
3
 72
9
 73
5
 74
0
 42
0.0000001
 43
0.0000001
 44
0.0000000001
 40
0.0
 40
0.0
 40
0.0
 40
0.0
 40
0.2444729677
 40
1.0
 40
1.0
 40
1.0
 40
1.0
 10
46.3523244185
 20
222.1111079667
 30
0.0
 10
46.2288470869
 20
222.1316860179
 30
0.0
 10
45.7218401578
 20
222.2041496627
 30
0.0
 10
45.2087542117
 20
222.2312463023
 30
0.0
 10
44.8218934875
 20
222.2306521382
 30
0.0
  0
SPLINE
  5
36D
100
AcDbEntity
  8
0
100
AcDbSpline
 62
7
  6
BYLAYER
 70
0
 71
3
 72
9
 73
5
 74
0
 42
0.0000001
 43
0.0000001
 44
0.0000000001
 40
0.0
 40
0.0
 40
0.0
 40
0.0
 40
0.2455300288
 40
1.0
 40
1.0
 40
1.0
 40
1.0
 10
44.8218934875
 20
222.2306521382
 30
0.0
 10
44.6704400757
 20
222.2304195268
 30
0.0
 10
44.0536368588
 20
222.2163282325
 30
0.0
 10
43.4383805379
 20
222.1526552231
 30
0.0
 10
42.9783242822
 20
222.0823988027
 30
0.0
  0
SPLINE
  5
36E
100
AcDbEntity
  8
0
100
AcDbSpline
 62
7
  6
BYLAYER
 70
0
 71
3
 72
9
 73
5
 74
0
 42
0.0000001
 43
0.0000001
 44
0.0000000001
 40
0.0
 40
0.0
 40
0.0
 40
0.0
 40
0.5237845702
 40
1.0
 40
1.0
 40
1.0
 40
1.0
 10
41.4494885783
 20
221.7689406385
 30
0.0
 10
40.5697845175
 20
221.5446626212
 30
0.0
 10
38.9221147088
 20
220.9885976051
 30
0.0
 10
37.3521828576
 20
220.2412122874
 30
0.0
 10
36.6373688708
 20
219.8285167031
 30
0.0
  0
SPLINE
  5
36F
100
AcDbEntity
  8
0
100
AcDbSpline
 62
7
  6
BYLAYER
 70
0
 71
3
 72
9
 73
5
 74
0
 42
0.0000001
 43
0.0000001
 44
0.0000000001
 40
0.0
 40
0.0
 40
0.0
 40
0.0
 40
0.4913561091
 40
1.0
 40
1.0
 40
1.0
 40
1.0
 10
112.3076551485
 20
236.773110882
 30
0.0
 10
112.2129524314
 20
236.7184661332
 30
0.0
 10
111.9868894186
 20
236.6686510974
 30
0.0
 10
111.7596735222
 20
236.7009838754
 30
0.0
 10
111.6556620026
 20
236.7456187971
 30
0.0
  0
SPLINE
  5
370
100
AcDbEntity
  8
0
100
AcDbSpline
 62
7
  6
BYLAYER
 70
0
 71
3
 72
11
 73
7
 74
0
 42
0.0000001
 43
0.0000001
 44
0.0000000001
 40
0.0
 40
0.0
 40
0.0
 40
0.0
 40
0.2146133424
 40
0.4461954378
 40
0.7066839038
 40
1.0
 40
1.0
 40
1.0
 40
1.0
 10
142.4347084849
 20
251.5537319113
 30
0.0
 10
142.4369831914
 20
251.4598751989
 30
0.0
 10
142.4051322561
 20
251.2624226652
 30
0.0
 10
142.2551526344
 20
250.9869005921
 30
0.0
 10
142.0148115725
 20
250.7370701472
 30
0.0
 10
141.8132937677
 20
250.5997929837
 30
0.0
 10
141.7019220693
 20
250.536069562
 30
0.0
  0
SPLINE
  5
371
100
AcDbEntity
  8
0
100
AcDbSpline
 62
7
  6
BYLAYER
 70
0
 71
3
 72
11
 73
7
 74
0
 42
0.0000001
 43
0.0000001
 44
0.0000000001
 40
0.0
 40
0.0
 40
0.0
 40
0.0
 40
0.256687861
 40
0.5381510746
 40
0.7971386418
 40
1.0
 40
1.0
 40
1.0
 40
1.0
 10
112.2384556253
 20
240.9654936367
 30
0.0
 10
112.1715063322
 20
241.0041459547
 30
0.0
 10
112.0124799164
 20
241.052642876
 30
0.0
 10
111.7695557247
 20
241.0535851565
 30
0.0
 10
111.5514963068
 20
240.9929563593
 30
0.0
 10
111.4357293976
 20
240.9001619774
 30
0.0
 10
111.4070017289
 20
240.8462422098
 30
0.0
  0
SPLINE
  5
372
100
AcDbEntity
  8
0
100
AcDbSpline
 62
7
  6
BYLAYER
 70
0
 71
3
 72
11
 73
7
 74
0
 42
0.0000001
 43
0.0000001
 44
0.0000000001
 40
0.0
 40
0.0
 40
0.0
 40
0.0
 40
0.2458425125
 40
0.5088537227
 40
0.767021749
 40
1.0
 40
1.0
 40
1.0
 40
1.0
 10
107.4241238748
 20
239.1886555186
 30
0.0
 10
107.2015474209
 20
239.0931732607
 30
0.0
 10
106.7743620647
 20
238.8144253113
 30
0.0
 10
106.2655820588
 20
238.2457979505
 30
0.0
 10
105.9170445464
 20
237.58118577
 30
0.0
 10
105.8186419192
 20
237.0965924813
 30
0.0
 10
105.8186431557
 20
236.8670733802
 30
0.0
  0
SPLINE
  5
373
100
AcDbEntity
  8
0
100
AcDbSpline
 62
7
  6
BYLAYER
 70
0
 71
3
 72
9
 73
5
 74
0
 42
0.0000001
 43
0.0000001
 44
0.0000000001
 40
0.0
 40
0.0
 40
0.0
 40
0.0
 40
0.536298976
 40
1.0
 40
1.0
 40
1.0
 40
1.0
 10
105.8182735185
 20
236.8669177652
 30
0.0
 10
105.6701451772
 20
236.9877392679
 30
0.0
 10
105.4209591358
 20
237.2567584041
 30
0.0
 10
105.3216135176
 20
237.618957736
 30
0.0
 10
105.325951591
 20
237.7841785535
 30
0.0
  0
SPLINE
  5
374
100
AcDbEntity
  8
0
100
AcDbSpline
 62
7
  6
BYLAYER
 70
0
 71
3
 72
9
 73
5
 74
0
 42
0.0000001
 43
0.0000001
 44
0.0000000001
 40
0.0
 40
0.0
 40
0.0
 40
0.0
 40
0.4905848878
 40
1.0
 40
1.0
 40
1.0
 40
1.0
 10
147.3332178258
 20
161.5255170533
 30
0.0
 10
147.3236670419
 20
162.1788146195
 30
0.0
 10
147.0276145469
 20
163.5207180992
 30
0.0
 10
146.2158081022
 20
164.628804577
 30
0.0
 10
145.7176281207
 20
165.0893534825
 30
0.0
  0
SPLINE
  5
375
100
AcDbEntity
  8
0
100
AcDbSpline
 62
7
  6
BYLAYER
 70
0
 71
3
 72
19
 73
15
 74
0
 42
0.0000001
 43
0.0000001
 44
0.0000000001
 40
0.0
 40
0.0
 40
0.0
 40
0.0
 40
0.2107176381
 40
0.3893009356
 40
0.5337649535
 40
0.5934294891
 40
0.6451616537
 40
0.6899878401
 40
0.7296845521
 40
0.7668478923
 40
0.8044907788
 40
0.8453067606
 40
0.891036684
 40
1.0
 40
1.0
 40
1.0
 40
1.0
 10
105.4307278251
 20
223.5619978631
 30
0.0
 10
105.4122080526
 20
222.915263659
 30
0.0
 10
105.2945974555
 20
221.7189214785
 30
0.0
 10
104.8369286926
 20
220.1354151054
 30
0.0
 10
104.2578111161
 20
219.0941577452
 30
0.0
 10
103.7191786759
 20
218.5171955504
 30
0.0
 10
103.3290141554
 20
218.2322188868
 30
0.0
 10
102.9388926495
 20
218.0684658342
 30
0.0
 10
102.5608615773
 20
218.0287155394
 30
0.0
 10
102.2122352893
 20
218.1147309625
 30
0.0
 10
101.9132003319
 20
218.318380572
 30
0.0
 10
101.6761479088
 20
218.623447559
 30
0.0
 10
101.4336374274
 20
219.1773264947
 30
0.0
 10
101.3803629728
 20
219.6609143357
 30
0.0
 10
101.3802915943
 20
219.9954814359
 30
0.0
  0
SPLINE
  5
376
100
AcDbEntity
  8
0
100
AcDbSpline
 62
7
  6
BYLAYER
 70
0
 71
3
 72
8
 73
4
 74
0
 42
0.0000001
 43
0.0000001
 44
0.0000000001
 40
0.0
 40
0.0
 40
0.0
 40
0.0
 40
1.0
 40
1.0
 40
1.0
 40
1.0
 10
110.9164912049
 20
242.2301463987
 30
0.0
 10
110.9737001596
 20
242.2631624604
 30
0.0
 10
111.0364812196
 20
242.2877764165
 30
0.0
 10
111.1007333811
 20
242.3030925701
 30
0.0
  0
SPLINE
  5
377
100
AcDbEntity
  8
0
100
AcDbSpline
 62
7
  6
BYLAYER
 70
0
 71
3
 72
9
 73
5
 74
0
 42
0.0000001
 43
0.0000001
 44
0.0000000001
 40
0.0
 40
0.0
 40
0.0
 40
0.0
 40
0.2304894827
 40
1.0
 40
1.0
 40
1.0
 40
1.0
 10
111.1007333811
 20
242.3030925701
 30
0.0
 10
111.1437719257
 20
242.3133519129
 30
0.0
 10
111.3347342878
 20
242.3406647074
 30
0.0
 10
111.5306165232
 20
242.3002733525
 30
0.0
 10
111.6690496333
 20
242.2487393951
 30
0.0
  0
SPLINE
  5
378
100
AcDbEntity
  8
0
100
AcDbSpline
 62
7
  6
BYLAYER
 70
0
 71
3
 72
9
 73
5
 74
0
 42
0.0000001
 43
0.0000001
 44
0.0000000001
 40
0.0
 40
0.0
 40
0.0
 40
0.0
 40
0.2416492082
 40
1.0
 40
1.0
 40
1.0
 40
1.0
 10
111.6690496333
 20
242.2487393951
 30
0.0
 10
111.6897394933
 20
242.2410372611
 30
0.0
 10
111.7746167374
 20
242.2071848213
 30
0.0
 10
111.8564356003
 20
242.1658258223
 30
0.0
 10
111.9164364745
 20
242.1311850851
 30
0.0
  0
SPLINE
  5
379
100
AcDbEntity
  8
0
100
AcDbSpline
 62
7
  6
BYLAYER
 70
0
 71
3
 72
9
 73
5
 74
0
 42
0.0000001
 43
0.0000001
 44
0.0000000001
 40
0.0
 40
0.0
 40
0.0
 40
0.0
 40
0.747360204
 40
1.0
 40
1.0
 40
1.0
 40
1.0
 10
130.8903519614
 20
160.3666723526
 30
0.0
 10
130.9116945095
 20
160.4709667768
 30
0.0
 10
130.9480861542
 20
160.6090777796
 30
0.0
 10
130.993988671
 20
160.74392998
 30
0.0
 10
131.0061739878
 20
160.7777907915
 30
0.0
  0
SPLINE
  5
37A
100
AcDbEntity
  8
0
100
AcDbSpline
 62
7
  6
BYLAYER
 70
0
 71
3
 72
11
 73
7
 74
0
 42
0.0000001
 43
0.0000001
 44
0.0000000001
 40
0.0
 40
0.0
 40
0.0
 40
0.0
 40
0.2098577325
 40
0.440264582
 40
0.7028782762
 40
1.0
 40
1.0
 40
1.0
 40
1.0
 10
50.7206558992
 20
218.0774144122
 30
0.0
 10
50.7149868126
 20
218.4495135071
 30
0.0
 10
50.5361988136
 20
219.2338323313
 30
0.0
 10
49.8276290057
 20
220.2844386996
 30
0.0
 10
48.74411654
 20
221.1938991402
 30
0.0
 10
47.8596368202
 20
221.6593785197
 30
0.0
 10
47.3750345453
 20
221.8661918923
 30
0.0
  0
SPLINE
  5
37B
100
AcDbEntity
  8
0
100
AcDbSpline
 62
7
  6
BYLAYER
 70
0
 71
3
 72
9
 73
5
 74
0
 42
0.0000001
 43
0.0000001
 44
0.0000000001
 40
0.0
 40
0.0
 40
0.0
 40
0.0
 40
0.4406325299
 40
1.0
 40
1.0
 40
1.0
 40
1.0
 10
136.8128662283
 20
255.9787781796
 30
0.0
 10
136.7037494253
 20
256.0042279906
 30
0.0
 10
136.4365232532
 20
255.971665928
 30
0.0
 10
136.2172054407
 20
255.8346722677
 30
0.0
 10
136.1048875377
 20
255.7474011673
 30
0.0
  0
SPLINE
  5
37C
100
AcDbEntity
  8
0
100
AcDbSpline
 62
7
  6
BYLAYER
 70
0
 71
3
 72
9
 73
5
 74
0
 42
0.0000001
 43
0.0000001
 44
0.0000000001
 40
0.0
 40
0.0
 40
0.0
 40
0.0
 40
0.2475865858
 40
1.0
 40
1.0
 40
1.0
 40
1.0
 10
34.2410901809
 20
215.9182028113
 30
0.0
 10
34.2468303294
 20
215.9656021832
 30
0.0
 10
34.2749319929
 20
216.1564301559
 30
0.0
 10
34.3226334123
 20
216.3442915701
 30
0.0
 10
34.368293864
 20
216.4820186628
 30
0.0
  0
SPLINE
  5
37D
100
AcDbEntity
  8
0
100
AcDbSpline
 62
7
  6
BYLAYER
 70
0
 71
3
 72
9
 73
5
 74
0
 42
0.0000001
 43
0.0000001
 44
0.0000000001
 40
0.0
 40
0.0
 40
0.0
 40
0.0
 40
0.2588229996
 40
1.0
 40
1.0
 40
1.0
 40
1.0
 10
103.0704899467
 20
258.1808128136
 30
0.0
 10
102.9247388499
 20
258.2043497667
 30
0.0
 10
102.3592182526
 20
258.2790326795
 30
0.0
 10
101.7837601608
 20
258.2851474184
 30
0.0
 10
101.3629861928
 20
258.2439442696
 30
0.0
  0
SPLINE
  5
37E
100
AcDbEntity
  8
0
100
AcDbSpline
 62
7
  6
BYLAYER
 70
0
 71
3
 72
11
 73
7
 74
0
 42
0.0000001
 43
0.0000001
 44
0.0000000001
 40
0.0
 40
0.0
 40
0.0
 40
0.0
 40
0.289599082
 40
0.5491387388
 40
0.7822372837
 40
1.0
 40
1.0
 40
1.0
 40
1.0
 10
135.4528985791
 20
255.7198867033
 30
0.0
 10
135.3651762866
 20
255.7705320467
 30
0.0
 10
135.1905556992
 20
255.8535041736
 30
0.0
 10
134.9222790274
 20
255.9184306649
 30
0.0
 10
134.6704427528
 20
255.9121115337
 30
0.0
 10
134.5189580091
 20
255.856946141
 30
0.0
 10
134.4529815621
 20
255.8188879804
 30
0.0
  0
SPLINE
  5
37F
100
AcDbEntity
  8
0
100
AcDbSpline
 62
7
  6
BYLAYER
 70
0
 71
3
 72
9
 73
5
 74
0
 42
0.0000001
 43
0.0000001
 44
0.0000000001
 40
0.0
 40
0.0
 40
0.0
 40
0.0
 40
0.2843317847
 40
1.0
 40
1.0
 40
1.0
 40
1.0
 10
104.0644115591
 20
220.8070059274
 30
0.0
 10
104.0337836179
 20
220.7919880317
 30
0.0
 10
103.9236651476
 20
220.7455259481
 30
0.0
 10
103.796060991
 20
220.7307295548
 30
0.0
 10
103.7127166366
 20
220.7513600358
 30
0.0
  0
SPLINE
  5
380
100
AcDbEntity
  8
0
100
AcDbSpline
 62
7
  6
BYLAYER
 70
0
 71
3
 72
17
 73
13
 74
0
 42
0.0000001
 43
0.0000001
 44
0.0000000001
 40
0.0
 40
0.0
 40
0.0
 40
0.0
 40
0.0277325176
 40
0.0568671427
 40
0.0894508254
 40
0.1268018559
 40
0.2182682244
 40
0.3335437567
 40
0.471470059
 40
0.630049954
 40
0.8070016038
 40
1.0
 40
1.0
 40
1.0
 40
1.0
 10
103.7127166366
 20
220.7513600358
 30
0.0
 10
103.6738560566
 20
220.7609793131
 30
0.0
 10
103.5969310969
 20
220.7946816974
 30
0.0
 10
103.500958378
 20
220.8839286315
 30
0.0
 10
103.4254273045
 20
221.0069616547
 30
0.0
 10
103.3470994949
 20
221.227759092
 30
0.0
 10
103.3155846739
 20
221.5833218768
 30
0.0
 10
103.3671975137
 20
222.0796699803
 30
0.0
 10
103.5105941001
 20
222.6583027223
 30
0.0
 10
103.7479109429
 20
223.3003971144
 30
0.0
 10
104.0776951548
 20
223.9894520842
 30
0.0
 10
104.3477622791
 20
224.450930384
 30
0.0
 10
104.4970933561
 20
224.6861331702
 30
0.0
  0
SPLINE
  5
381
100
AcDbEntity
  8
0
100
AcDbSpline
 62
7
  6
BYLAYER
 70
0
 71
3
 72
11
 73
7
 74
0
 42
0.0000001
 43
0.0000001
 44
0.0000000001
 40
0.0
 40
0.0
 40
0.0
 40
0.0
 40
0.217343272
 40
0.4512333024
 40
0.7110537214
 40
1.0
 40
1.0
 40
1.0
 40
1.0
 10
28.3034684398
 20
213.6333443757
 30
0.0
 10
28.3034976719
 20
213.154327057
 30
0.0
 10
28.4811635408
 20
212.1535964096
 30
0.0
 10
29.2333747585
 20
210.7552926842
 30
0.0
 10
30.4215470637
 20
209.4839134424
 30
0.0
 10
31.4211966702
 20
208.7876883243
 30
0.0
 10
31.9729027997
 20
208.4696157012
 30
0.0
  0
SPLINE
  5
382
100
AcDbEntity
  8
0
100
AcDbSpline
 62
7
  6
BYLAYER
 70
0
 71
3
 72
9
 73
5
 74
0
 42
0.0000001
 43
0.0000001
 44
0.0000000001
 40
0.0
 40
0.0
 40
0.0
 40
0.0
 40
0.2550794343
 40
1.0
 40
1.0
 40
1.0
 40
1.0
 10
101.3629861928
 20
258.2439442696
 30
0.0
 10
101.2284299967
 20
258.2307074646
 30
0.0
 10
100.7029453807
 20
258.1605971356
 30
0.0
 10
100.1867650422
 20
258.0165622341
 30
0.0
 10
99.8213309689
 20
257.8670209638
 30
0.0
  0
SPLINE
  5
383
100
AcDbEntity
  8
0
100
AcDbSpline
 62
7
  6
BYLAYER
 70
0
 71
3
 72
11
 73
7
 74
0
 42
0.0000001
 43
0.0000001
 44
0.0000000001
 40
0.0
 40
0.0
 40
0.0
 40
0.0
 40
0.2362344455
 40
0.4978386538
 40
0.7606136028
 40
1.0
 40
1.0
 40
1.0
 40
1.0
 10
116.7523421524
 20
239.3392368025
 30
0.0
 10
116.9483906679
 20
239.2260506999
 30
0.0
 10
117.32035302
 20
238.9154698956
 30
0.0
 10
117.7582740554
 20
238.3263287843
 30
0.0
 10
118.063945212
 20
237.6555931061
 30
0.0
 10
118.1588847063
 20
237.1765340815
 30
0.0
 10
118.1657000984
 20
236.9472388845
 30
0.0
  0
SPLINE
  5
384
100
AcDbEntity
  8
0
100
AcDbSpline
 62
7
  6
BYLAYER
 70
0
 71
3
 72
19
 73
15
 74
0
 42
0.0000001
 43
0.0000001
 44
0.0000000001
 40
0.0
 40
0.0
 40
0.0
 40
0.0
 40
0.0428408618
 40
0.0874508096
 40
0.1352639136
 40
0.1872056195
 40
0.243687175
 40
0.3046825584
 40
0.3698215306
 40
0.4384727279
 40
0.5827548978
 40
0.7298440467
 40
0.8713711828
 40
1.0
 40
1.0
 40
1.0
 40
1.0
 10
101.3803547178
 20
213.5864106208
 30
0.0
 10
101.3804142195
 20
212.9458884009
 30
0.0
 10
101.5515180289
 20
211.6328171895
 30
0.0
 10
102.3046667135
 20
209.7368837534
 30
0.0
 10
103.5266562268
 20
207.9395937846
 30
0.0
 10
105.1828598352
 20
206.2764635549
 30
0.0
 10
107.2350803476
 20
204.7768591599
 30
0.0
 10
109.639622557
 20
203.4690439515
 30
0.0
 10
112.3463098386
 20
202.3785734479
 30
0.0
 10
116.3470059995
 20
201.2261249134
 30
0.0
 10
121.7079277502
 20
200.4740353936
 30
0.0
 10
128.207550017
 20
200.6536657072
 30
0.0
 10
134.3537754889
 20
201.8835641476
 30
0.0
 10
138.124756394
 20
203.4394201832
 30
0.0
 10
139.7902599316
 20
204.4009933592
 30
0.0
  0
SPLINE
  5
385
100
AcDbEntity
  8
0
100
AcDbSpline
 62
7
  6
BYLAYER
 70
0
 71
3
 72
11
 73
7
 74
0
 42
0.0000001
 43
0.0000001
 44
0.0000000001
 40
0.0
 40
0.0
 40
0.0
 40
0.0
 40
0.2889158324
 40
0.5488015047
 40
0.7826764932
 40
1.0
 40
1.0
 40
1.0
 40
1.0
 10
215.7874357035
 20
190.9154961701
 30
0.0
 10
216.3391248645
 20
191.2335055305
 30
0.0
 10
217.338898649
 20
191.9297701294
 30
0.0
 10
218.5270845947
 20
193.2012813127
 30
0.0
 10
219.2794079799
 20
194.5996324689
 30
0.0
 10
219.4571430695
 20
195.6003286446
 30
0.0
 10
219.4571137845
 20
196.0793180521
 30
0.0
  0
SPLINE
  5
386
100
AcDbEntity
  8
0
100
AcDbSpline
 62
7
  6
BYLAYER
 70
0
 71
3
 72
9
 73
5
 74
0
 42
0.0000001
 43
0.0000001
 44
0.0000000001
 40
0.0
 40
0.0
 40
0.0
 40
0.0
 40
0.5005504701
 40
1.0
 40
1.0
 40
1.0
 40
1.0
 10
215.7875227626
 20
190.9154519275
 30
0.0
 10
215.4552497803
 20
191.346917565
 30
0.0
 10
214.7677214564
 20
192.1907017922
 30
0.0
 10
214.0453467942
 20
193.004755761
 30
0.0
 10
213.674727352
 20
193.4021296617
 30
0.0
  0
SPLINE
  5
387
100
AcDbEntity
  8
0
100
AcDbSpline
 62
7
  6
BYLAYER
 70
0
 71
3
 72
14
 73
10
 74
0
 42
0.0000001
 43
0.0000001
 44
0.0000000001
 40
0.0
 40
0.0
 40
0.0
 40
0.0
 40
0.3411540371
 40
0.4924488131
 40
0.6281252035
 40
0.7467322356
 40
0.8478022897
 40
0.9316469004
 40
1.0
 40
1.0
 40
1.0
 40
1.0
 10
213.6747299916
 20
193.4021317916
 30
0.0
 10
213.862593828
 20
194.3598197164
 30
0.0
 10
214.0919374587
 20
195.7518613636
 30
0.0
 10
214.2570857654
 20
197.5417930684
 30
0.0
 10
214.2985399459
 20
198.7021019455
 30
0.0
 10
214.2617884892
 20
199.7190238894
 30
0.0
 10
214.1501054753
 20
200.58194299
 30
0.0
 10
213.9662456878
 20
201.2849493766
 30
0.0
 10
213.7811921405
 20
201.6837809703
 30
0.0
 10
213.6746690873
 20
201.8477562446
 30
0.0
  0
SPLINE
  5
388
100
AcDbEntity
  8
0
100
AcDbSpline
 62
7
  6
BYLAYER
 70
0
 71
3
 72
9
 73
5
 74
0
 42
0.0000001
 43
0.0000001
 44
0.0000000001
 40
0.0
 40
0.0
 40
0.0
 40
0.0
 40
0.240575447
 40
1.0
 40
1.0
 40
1.0
 40
1.0
 10
103.0704785538
 20
258.1808063988
 30
0.0
 10
103.1945047045
 20
258.2495623504
 30
0.0
 10
103.7171755921
 20
258.522402282
 30
0.0
 10
104.2655189858
 20
258.7452094502
 30
0.0
 10
104.6897507451
 20
258.8880986728
 30
0.0
  0
SPLINE
  5
389
100
AcDbEntity
  8
0
100
AcDbSpline
 62
7
  6
BYLAYER
 70
0
 71
3
 72
9
 73
5
 74
0
 42
0.0000001
 43
0.0000001
 44
0.0000000001
 40
0.0
 40
0.0
 40
0.0
 40
0.0
 40
0.2591725706
 40
1.0
 40
1.0
 40
1.0
 40
1.0
 10
112.6318626756
 20
258.8990434806
 30
0.0
 10
112.7796055692
 20
258.8497940632
 30
0.0
 10
113.3454577587
 20
258.6475790583
 30
0.0
 10
113.8944350886
 20
258.3966722999
 30
0.0
 10
114.2837715286
 20
258.1808402554
 30
0.0
  0
SPLINE
  5
38A
100
AcDbEntity
  8
0
100
AcDbSpline
 62
7
  6
BYLAYER
 70
0
 71
3
 72
9
 73
5
 74
0
 42
0.0000001
 43
0.0000001
 44
0.0000000001
 40
0.0
 40
0.0
 40
0.0
 40
0.0
 40
0.2587585412
 40
1.0
 40
1.0
 40
1.0
 40
1.0
 10
114.2837983115
 20
258.1808272963
 30
0.0
 10
114.4295126834
 20
258.2043523322
 30
0.0
 10
114.9950280139
 20
258.2790339024
 30
0.0
 10
115.5704783348
 20
258.2851502999
 30
0.0
 10
115.9912874695
 20
258.2439697514
 30
0.0
  0
SPLINE
  5
38B
100
AcDbEntity
  8
0
100
AcDbSpline
 62
7
  6
BYLAYER
 70
0
 71
3
 72
11
 73
7
 74
0
 42
0.0000001
 43
0.0000001
 44
0.0000000001
 40
0.0
 40
0.0
 40
0.0
 40
0.0
 40
0.2362119495
 40
0.4977626585
 40
0.7605550554
 40
1.0
 40
1.0
 40
1.0
 40
1.0
 10
112.3076836525
 20
236.7731273388
 30
0.0
 10
112.5037139547
 20
236.6599517514
 30
0.0
 10
112.8756338212
 20
236.3494355764
 30
0.0
 10
113.31354169
 20
235.7603541884
 30
0.0
 10
113.6192640887
 20
235.0896155766
 30
0.0
 10
113.7142245189
 20
234.6104812705
 30
0.0
 10
113.7210415974
 20
234.3811294609
 30
0.0
  0
SPLINE
  5
38C
100
AcDbEntity
  8
0
100
AcDbSpline
 62
7
  6
BYLAYER
 70
0
 71
3
 72
11
 73
7
 74
0
 42
0.0000001
 43
0.0000001
 44
0.0000000001
 40
0.0
 40
0.0
 40
0.0
 40
0.0
 40
0.2342033579
 40
0.4931363725
 40
0.7557370577
 40
1.0
 40
1.0
 40
1.0
 40
1.0
 10
113.7207601415
 20
234.3812827058
 30
0.0
 10
113.4944051721
 20
234.2494065487
 30
0.0
 10
112.9739048677
 20
234.0461280919
 30
0.0
 10
112.1338080843
 20
233.9141173305
 30
0.0
 10
111.272757332
 20
233.9462766416
 30
0.0
 10
110.716364223
 20
234.08388468
 30
0.0
 10
110.4627116806
 20
234.1854245787
 30
0.0
  0
SPLINE
  5
38D
100
AcDbEntity
  8
0
100
AcDbSpline
 62
7
  6
BYLAYER
 70
0
 71
3
 72
11
 73
7
 74
0
 42
0.0000001
 43
0.0000001
 44
0.0000000001
 40
0.0
 40
0.0
 40
0.0
 40
0.0
 40
0.2419800175
 40
0.5092891041
 40
0.7716437586
 40
1.0
 40
1.0
 40
1.0
 40
1.0
 10
110.4630662351
 20
234.185723288
 30
0.0
 10
110.4630677398
 20
234.4195217241
 30
0.0
 10
110.5363937347
 20
234.9116872817
 30
0.0
 10
110.7891032564
 20
235.6171789367
 30
0.0
 10
111.1586615923
 20
236.2536962964
 30
0.0
 10
111.4814718998
 20
236.6102338856
 30
0.0
 10
111.655694672
 20
236.7456087661
 30
0.0
  0
SPLINE
  5
38E
100
AcDbEntity
  8
0
100
AcDbSpline
 62
7
  6
BYLAYER
 70
0
 71
3
 72
11
 73
7
 74
0
 42
0.0000001
 43
0.0000001
 44
0.0000000001
 40
0.0
 40
0.0
 40
0.0
 40
0.0
 40
0.2200859272
 40
0.4832706887
 40
0.7563241228
 40
1.0
 40
1.0
 40
1.0
 40
1.0
 10
114.1992985171
 20
220.5804916588
 30
0.0
 10
113.9908450115
 20
220.4585963501
 30
0.0
 10
113.4942583114
 20
220.2565431187
 30
0.0
 10
112.6719596291
 20
220.1109884143
 30
0.0
 10
111.8111266957
 20
220.1275813439
 30
0.0
 10
111.2525748414
 20
220.253436466
 30
0.0
 10
111.0016398932
 20
220.3457030487
 30
0.0
  0
SPLINE
  5
38F
100
AcDbEntity
  8
0
100
AcDbSpline
 62
7
  6
BYLAYER
 70
0
 71
3
 72
11
 73
7
 74
0
 42
0.0000001
 43
0.0000001
 44
0.0000000001
 40
0.0
 40
0.0
 40
0.0
 40
0.0
 40
0.2016699418
 40
0.4729336812
 40
0.759569277
 40
1.0
 40
1.0
 40
1.0
 40
1.0
 10
130.4280456105
 20
210.7021341446
 30
0.0
 10
130.5502058936
 20
210.4985789921
 30
0.0
 10
130.7743858943
 20
209.9850874782
 30
0.0
 10
131.0277665997
 20
209.1263915618
 30
0.0
 10
131.1981544402
 20
208.2004696647
 30
0.0
 10
131.2465148563
 20
207.5800919612
 30
0.0
 10
131.246514847
 20
207.2970662178
 30
0.0
  0
SPLINE
  5
390
100
AcDbEntity
  8
0
100
AcDbSpline
 62
7
  6
BYLAYER
 70
0
 71
3
 72
15
 73
11
 74
0
 42
0.0000001
 43
0.0000001
 44
0.0000000001
 40
0.0
 40
0.0
 40
0.0
 40
0.0
 40
0.1318256204
 40
0.2635369359
 40
0.393575784
 40
0.5212675578
 40
0.6467689622
 40
0.7698480621
 40
0.8886302721
 40
1.0
 40
1.0
 40
1.0
 40
1.0
 10
130.428051036
 20
210.7021298621
 30
0.0
 10
129.4873718012
 20
210.470334608
 30
0.0
 10
127.5763791509
 20
210.1175163353
 30
0.0
 10
124.6714886613
 20
210.0261592025
 30
0.0
 10
121.8249957757
 20
210.5006600713
 30
0.0
 10
119.2129588581
 20
211.640594418
 30
0.0
 10
117.0484440542
 20
213.4182311826
 30
0.0
 10
115.4716614958
 20
215.6457239467
 30
0.0
 10
114.5016564715
 20
218.075682911
 30
0.0
 10
114.2289597309
 20
219.7625439329
 30
0.0
 10
114.1992923304
 20
220.5804880281
 30
0.0
  0
SPLINE
  5
391
100
AcDbEntity
  8
0
100
AcDbSpline
 62
7
  6
BYLAYER
 70
0
 71
3
 72
15
 73
11
 74
0
 42
0.0000001
 43
0.0000001
 44
0.0000000001
 40
0.0
 40
0.0
 40
0.0
 40
0.0
 40
0.1298303339
 40
0.2708352892
 40
0.4156779865
 40
0.5553851267
 40
0.6824048837
 40
0.7949697835
 40
0.8981201952
 40
1.0
 40
1.0
 40
1.0
 40
1.0
 10
142.0466036907
 20
236.6580447942
 30
0.0
 10
142.0661262062
 20
235.8185008438
 30
0.0
 10
142.2491553008
 20
234.0701012315
 30
0.0
 10
142.802030662
 20
231.4370431259
 30
0.0
 10
143.4925245869
 20
228.7725180984
 30
0.0
 10
144.1167466833
 20
226.1838390829
 30
0.0
 10
144.4748602979
 20
223.7501004462
 30
0.0
 10
144.4121862844
 20
221.516854757
 30
0.0
 10
143.85081885
 20
219.5173791324
 30
0.0
 10
143.1699190071
 20
218.3623046428
 30
0.0
 10
142.7781510253
 20
217.8324239689
 30
0.0
  0
SPLINE
  5
392
100
AcDbEntity
  8
0
100
AcDbSpline
 62
7
  6
BYLAYER
 70
0
 71
3
 72
11
 73
7
 74
0
 42
0.0000001
 43
0.0000001
 44
0.0000000001
 40
0.0
 40
0.0
 40
0.0
 40
0.0
 40
0.2086279782
 40
0.4458971888
 40
0.7114050512
 40
1.0
 40
1.0
 40
1.0
 40
1.0
 10
142.7781467078
 20
217.8324250331
 30
0.0
 10
142.2549277451
 20
216.9605643709
 30
0.0
 10
140.8151175343
 20
215.2856701705
 30
0.0
 10
137.959837896
 20
213.2768777819
 30
0.0
 10
134.4247151185
 20
211.6872052225
 30
0.0
 10
131.807273284
 20
210.9780332061
 30
0.0
 10
130.4280475784
 20
210.7021345383
 30
0.0
  0
SPLINE
  5
393
100
AcDbEntity
  8
0
100
AcDbSpline
 62
7
  6
BYLAYER
 70
0
 71
3
 72
9
 73
5
 74
0
 42
0.0000001
 43
0.0000001
 44
0.0000000001
 40
0.0
 40
0.0
 40
0.0
 40
0.0
 40
0.2556330406
 40
1.0
 40
1.0
 40
1.0
 40
1.0
 10
115.9912722798
 20
258.2439779166
 30
0.0
 10
116.1260555304
 20
258.2305278429
 30
0.0
 10
116.6513056383
 20
258.1601995228
 30
0.0
 10
117.1674136231
 20
258.0166511625
 30
0.0
 10
117.5324680299
 20
257.8673141466
 30
0.0
  0
SPLINE
  5
394
100
AcDbEntity
  8
0
100
AcDbSpline
 62
7
  6
BYLAYER
 70
0
 71
3
 72
9
 73
5
 74
0
 42
0.0000001
 43
0.0000001
 44
0.0000000001
 40
0.0
 40
0.0
 40
0.0
 40
0.0
 40
0.2469130889
 40
1.0
 40
1.0
 40
1.0
 40
1.0
 10
215.7877983436
 20
201.1408560646
 30
0.0
 10
215.6206610987
 20
201.2167838644
 30
0.0
 10
214.9358730629
 20
201.5067282333
 30
0.0
 10
214.2208269135
 20
201.72447597
 30
0.0
 10
213.6746622856
 20
201.8477605067
 30
0.0
  0
SPLINE
  5
395
100
AcDbEntity
  8
0
100
AcDbSpline
 62
7
  6
BYLAYER
 70
0
 71
3
 72
9
 73
5
 74
0
 42
0.0000001
 43
0.0000001
 44
0.0000000001
 40
0.0
 40
0.0
 40
0.0
 40
0.0
 40
0.245172783
 40
1.0
 40
1.0
 40
1.0
 40
1.0
 10
213.6746449814
 20
201.847771354
 30
0.0
 10
213.4870219941
 20
201.8902514712
 30
0.0
 10
212.7175328264
 20
202.0445790806
 30
0.0
 10
211.9334878311
 20
202.1240676034
 30
0.0
 10
211.3416182119
 20
202.1457367671
 30
0.0
  0
SPLINE
  5
396
100
AcDbEntity
  8
0
100
AcDbSpline
 62
7
  6
BYLAYER
 70
0
 71
3
 72
10
 73
6
 74
0
 42
0.0000001
 43
0.0000001
 44
0.0000000001
 40
0.0
 40
0.0
 40
0.0
 40
0.0
 40
0.2253695666
 40
0.473761761
 40
1.0
 40
1.0
 40
1.0
 40
1.0
 10
211.3416611328
 20
202.145708409
 30
0.0
 10
210.957460968
 20
202.3770527375
 30
0.0
 10
210.1255711218
 20
202.8237238225
 30
0.0
 10
208.3069386009
 20
203.6328307133
 30
0.0
 10
206.8305607739
 20
204.1070817623
 30
0.0
 10
205.8084651953
 20
204.3349582768
 30
0.0
  0
SPLINE
  5
397
100
AcDbEntity
  8
0
100
AcDbSpline
 62
7
  6
BYLAYER
 70
0
 71
3
 72
9
 73
5
 74
0
 42
0.0000001
 43
0.0000001
 44
0.0000000001
 40
0.0
 40
0.0
 40
0.0
 40
0.0
 40
0.2527195324
 40
1.0
 40
1.0
 40
1.0
 40
1.0
 10
204.7881792996
 20
204.5273840867
 30
0.0
 10
204.6798133731
 20
204.5439684259
 30
0.0
 10
204.2502878538
 20
204.6046717639
 30
0.0
 10
203.817787283
 20
204.6450064433
 30
0.0
 10
203.4940526212
 20
204.6616849701
 30
0.0
  0
SPLINE
  5
398
100
AcDbEntity
  8
0
100
AcDbSpline
 62
7
  6
BYLAYER
 70
0
 71
3
 72
9
 73
5
 74
0
 42
0.0000001
 43
0.0000001
 44
0.0000000001
 40
0.0
 40
0.0
 40
0.0
 40
0.0
 40
0.2605202067
 40
1.0
 40
1.0
 40
1.0
 40
1.0
 10
203.1264186477
 20
204.6747044949
 30
0.0
 10
202.8985824276
 20
204.6790350964
 30
0.0
 10
202.0242373748
 20
204.6686887363
 30
0.0
 10
201.1474478826
 20
204.5395352543
 30
0.0
 10
200.5272545349
 20
204.3558467885
 30
0.0
  0
SPLINE
  5
399
100
AcDbEntity
  8
0
100
AcDbSpline
 62
7
  6
BYLAYER
 70
0
 71
3
 72
9
 73
5
 74
0
 42
0.0000001
 43
0.0000001
 44
0.0000000001
 40
0.0
 40
0.0
 40
0.0
 40
0.0
 40
0.4888244699
 40
1.0
 40
1.0
 40
1.0
 40
1.0
 10
47.1962730848
 20
214.3089984323
 30
0.0
 10
46.5465386316
 20
213.9658117597
 30
0.0
 10
45.1668511171
 20
213.3576865127
 30
0.0
 10
43.721623635
 20
212.9255876694
 30
0.0
 10
42.9710573453
 20
212.7610068773
 30
0.0
  0
SPLINE
  5
39A
100
AcDbEntity
  8
0
100
AcDbSpline
 62
7
  6
BYLAYER
 70
0
 71
3
 72
11
 73
7
 74
0
 42
0.0000001
 43
0.0000001
 44
0.0000000001
 40
0.0
 40
0.0
 40
0.0
 40
0.0
 40
0.2028620155
 40
0.4618499553
 40
0.7433129238
 40
1.0
 40
1.0
 40
1.0
 40
1.0
 10
111.4070017289
 20
240.4379910013
 30
0.0
 10
111.4357294904
 20
240.4919109431
 30
0.0
 10
111.5514967916
 20
240.58470543
 30
0.0
 10
111.7695564857
 20
240.6453340442
 30
0.0
 10
112.0124804782
 20
240.6443915469
 30
0.0
 10
112.1715065375
 20
240.5958946276
 30
0.0
 10
112.2384556253
 20
240.5572424282
 30
0.0
  0
SPLINE
  5
39B
100
AcDbEntity
  8
0
100
AcDbSpline
 62
7
  6
BYLAYER
 70
0
 71
3
 72
9
 73
5
 74
0
 42
0.0000001
 43
0.0000001
 44
0.0000000001
 40
0.0
 40
0.0
 40
0.0
 40
0.0
 40
0.4782403451
 40
1.0
 40
1.0
 40
1.0
 40
1.0
 10
104.9817034934
 20
224.450988521
 30
0.0
 10
104.978077575
 20
224.288303658
 30
0.0
 10
105.0684764047
 20
223.9425653986
 30
0.0
 10
105.2972971308
 20
223.6791056812
 30
0.0
 10
105.4307278244
 20
223.5619978587
 30
0.0
  0
SPLINE
  5
39C
100
AcDbEntity
  8
0
100
AcDbSpline
 62
7
  6
BYLAYER
 70
0
 71
3
 72
11
 73
7
 74
0
 42
0.0000001
 43
0.0000001
 44
0.0000000001
 40
0.0
 40
0.0
 40
0.0
 40
0.0
 40
0.2184997489
 40
0.4519334168
 40
0.7109728409
 40
1.0
 40
1.0
 40
1.0
 40
1.0
 10
50.4709774422
 20
218.0359644976
 30
0.0
 10
50.4710240253
 20
217.7364736036
 30
0.0
 10
50.36239913
 20
217.1129787141
 30
0.0
 10
49.8973979984
 20
216.2418028862
 30
0.0
 10
49.1606986939
 20
215.4512329147
 30
0.0
 10
48.5427838927
 20
215.0154502583
 30
0.0
 10
48.2020194133
 20
214.8134036473
 30
0.0
  0
SPLINE
  5
39D
100
AcDbEntity
  8
0
100
AcDbSpline
 62
7
  6
BYLAYER
 70
0
 71
3
 72
11
 73
7
 74
0
 42
0.0000001
 43
0.0000001
 44
0.0000000001
 40
0.0
 40
0.0
 40
0.0
 40
0.0
 40
0.2690493152
 40
0.5266655499
 40
0.7702226088
 40
1.0
 40
1.0
 40
1.0
 40
1.0
 10
41.9710573453
 20
212.5782517597
 30
0.0
 10
41.4732003539
 20
212.5060467625
 30
0.0
 10
40.4891849313
 20
212.4199323136
 30
0.0
 10
39.0450405308
 20
212.4997925151
 30
0.0
 10
37.7078973316
 20
212.8216765649
 30
0.0
 10
36.9045943588
 20
213.2160028569
 30
0.0
 10
36.5462306051
 20
213.4529882488
 30
0.0
  0
SPLINE
  5
39E
100
AcDbEntity
  8
0
100
AcDbSpline
 62
7
  6
BYLAYER
 70
0
 71
3
 72
9
 73
5
 74
0
 42
0.0000001
 43
0.0000001
 44
0.0000000001
 40
0.0
 40
0.0
 40
0.0
 40
0.0
 40
0.5069166368
 40
1.0
 40
1.0
 40
1.0
 40
1.0
 10
36.1024997046
 20
213.7836477801
 30
0.0
 10
35.7865231893
 20
214.048692427
 30
0.0
 10
35.2296517344
 20
214.6572275451
 30
0.0
 10
34.8571295925
 20
215.3929054274
 30
0.0
 10
34.7250194557
 20
215.7716932571
 30
0.0
  0
SPLINE
  5
39F
100
AcDbEntity
  8
0
100
AcDbSpline
 62
7
  6
BYLAYER
 70
0
 71
3
 72
11
 73
7
 74
0
 42
0.0000001
 43
0.0000001
 44
0.0000000001
 40
0.0
 40
0.0
 40
0.0
 40
0.0
 40
0.2177817009
 40
0.4509079353
 40
0.7102947134
 40
1.0
 40
1.0
 40
1.0
 40
1.0
 10
82.9036491778
 20
209.2588574423
 30
0.0
 10
82.9036492025
 20
209.1255479942
 30
0.0
 10
82.9529136459
 20
208.847688907
 30
0.0
 10
83.1635596193
 20
208.4605422937
 30
0.0
 10
83.4965609527
 20
208.110577641
 30
0.0
 10
83.7751902668
 20
207.9186692068
 30
0.0
 10
83.928768283
 20
207.8300029037
 30
0.0
  0
SPLINE
  5
3A0
100
AcDbEntity
  8
0
100
AcDbSpline
 62
7
  6
BYLAYER
 70
0
 71
3
 72
9
 73
5
 74
0
 42
0.0000001
 43
0.0000001
 44
0.0000000001
 40
0.0
 40
0.0
 40
0.0
 40
0.0
 40
0.2541745386
 40
1.0
 40
1.0
 40
1.0
 40
1.0
 10
213.1383673359
 20
199.4994711655
 30
0.0
 10
213.1585994555
 20
199.4633891843
 30
0.0
 10
213.2357315847
 20
199.3200682658
 30
0.0
 10
213.3027305397
 20
199.1712471831
 30
0.0
 10
213.3460514667
 20
199.0578567686
 30
0.0
  0
SPLINE
  5
3A1
100
AcDbEntity
  8
0
100
AcDbSpline
 62
7
  6
BYLAYER
 70
0
 71
3
 72
11
 73
7
 74
0
 42
0.0000001
 43
0.0000001
 44
0.0000000001
 40
0.0
 40
0.0
 40
0.0
 40
0.0
 40
0.2177143166
 40
0.4508428017
 40
0.7104423103
 40
1.0
 40
1.0
 40
1.0
 40
1.0
 10
106.4718258354
 20
239.6640496947
 30
0.0
 10
106.5377770372
 20
239.702123647
 30
0.0
 10
106.6892657416
 20
239.7572894191
 30
0.0
 10
106.9411251195
 20
239.7636306229
 30
0.0
 10
107.2094252017
 20
239.6986755298
 30
0.0
 10
107.3840651015
 20
239.615715857
 30
0.0
 10
107.4717782607
 20
239.5650757865
 30
0.0
  0
ENDSEC
  0
SECTION
  2
OBJECTS
  0
DICTIONARY
  5
C
100
AcDbDictionary
280
0
281
1
  3
ACAD_GROUP
350
D
  3
ACAD_MLINESTYLE
350
17
  3
ACAD_LAYOUT
350
1A
  3
ACAD_PLOTSETTINGS
350
19
  3
ACAD_PLOTSTYLENAME
350
E
  0
DICTIONARY
  5
D
102
{ACAD_REACTORS
330
C
102
}
100
AcDbDictionary
280
0
281
1
  0
ACDBDICTIONARYWDFLT
  5
E
102
{ACAD_REACTORS
330
C
102
}
100
AcDbDictionary
281
1
  3
Normal
350
F
100
AcDbDictionaryWithDefault
340
F
  0
DICTIONARY
  5
17
102
{ACAD_REACTORS
330
C
102
}
100
AcDbDictionary
280
0
281
1
  3
Standard
350
18
  0
DICTIONARY
  5
19
102
{ACAD_REACTORS
330
C
102
}
100
AcDbDictionary
281
1
  0
DICTIONARY
  5
1A
102
{ACAD_REACTORS
330
C
102
}
100
AcDbDictionary
281
1
  3
Model
350
3A2
  3
Layout1
350
3A3
  0
ACDBPLACEHOLDER
  5
F
102
{ACAD_REACTORS
330
E
102
}
  0
MLINESTYLE
  5
18
102
{ACAD_REACTORS
330
17
102
}
100
AcDbMlineStyle
  2
STANDARD
 70
0
  3

 62
256
 51
90.0
 52
90.0
 71
2
 49
0.5
 62
256
  6
BYLAYER
 49
-0.5
 62
256
  6
BYLAYER
  0
LAYOUT
  5
3A2
102
{ACAD_REACTORS
330
1A
102
}
100
AcDbPlotSettings
  1

  2
none_device
  4

  6

 40
0.0
 41
0.0
 42
0.0
 43
0.0
 44
210.0
 45
297.0
 46
0.0
 47
0.0
 48
0.0
 49
0.0
140
0.0
141
0.0
142
1.0
143
1.0
 70
1024
 72
1
 73
0
 74
0
  7

 75
0
147
1.0
148
0.0
149
0.0
100
AcDbLayout
  1
Model
 70
0
 71
0
 10
0.0
 20
0.0
 11
210.0
 21
297.0
 12
0.0
 22
0.0
 32
0.0
 14
0.0
 24
0.0
 34
0.0
 15
0.0
 25
0.0
 35
0.0
146
0.0
 13
0.0
 23
0.0
 33
0.0
 16
1.0
 26
0.0
 36
0.0
 17
0.0
 27
1.0
 37
0.0
 76
0
330
210
345
0
346
0
  0
LAYOUT
  5
3A3
102
{ACAD_REACTORS
330
1A
102
}
100
AcDbPlotSettings
  1

  2
none_device
  4

  6

 40
0.0
 41
0.0
 42
0.0
 43
0.0
 44
210.0
 45
297.0
 46
0.0
 47
0.0
 48
0.0
 49
0.0
140
0.0
141
0.0
142
1.0
143
1.0
 70
0
 72
1
 73
0
 74
0
  7

 75
0
147
1.0
148
0.0
149
0.0
100
AcDbLayout
  1
Layout1
 70
0
 71
1
 10
0.0
 20
0.0
 11
210.0
 21
297.0
 12
0.0
 22
0.0
 32
0.0
 14
0.0
 24
0.0
 34
0.0
 15
0.0
 25
0.0
 35
0.0
146
0.0
 13
0.0
 23
0.0
 33
0.0
 16
1.0
 26
0.0
 36
0.0
 17
0.0
 27
1.0
 37
0.0
 76
0
330
211
345
0
346
0
  0
ENDSEC
  0
EOF
