999
DXF file: C:\Users\sesa63760\Dev\_Creo\CAD\MCADPP0003729_3D-CAD\drw0001_6.dxf
999
Pro/ENGINEER 2019471 by Parametric Technology Corporation
  0
SECTION
  2
HEADER
  9
$ACADVER
  1
AC1024
  9
$DWGCODEPAGE
  3
ANSI_1252
  9
$EXTMAX
 10
127.480748403
 20
180.2942013129
 30
0.0
  9
$EXTMIN
 10
0.0
 20
0.0
 30
0.0
  9
$LIMMIN
 10
0.0
 20
0.0
  9
$LIMMAX
 10
127.480748403
 20
180.2942013129
  9
$VIEWCTR
 10
63.7403742015
 20
90.1471006564
  9
$VIEWSIZE
 40
180.2942013129
  9
$CLAYER
  8
0
  9
$LTSCALE
 40
11.7525109004
  9
$CELTYPE
  6
BYLAYER
  9
$DIMSCALE
 40
1.0
  9
$DIMASZ
 40
1.5176279572
  9
$DIMEXO
 40
1.0
  9
$DIMDLI
 40
8.1199166221
  9
$DIMEXE
 40
1.0
  9
$DIMCEN
 40
1.9231381473
  9
$DIMLFAC
 40
1.0
  9
$DIMBLK
  1
_FILLED
  9
$DIMALT
 70
0
  9
$DIMALTF
 40
0.0393700787
  9
$DIMTXT
 40
2.1246791401
  9
$DIMTOL
 70
1
  9
$DIMLIM
 70
0
  9
$DIMTFAC
 40
1.0
  9
$DIMTP
 40
0.01
  9
$DIMTM
 40
0.01
  9
$DIMGAP
 40
0.625
  9
$DIMDSEP
 70
46
  9
$AUNITS
 70
0
  9
$PDMODE
 70
3
  9
$PDSIZE
 40
0.3125
  9
$HANDSEED
  5
288
  9
$TILEMODE
 70
1
  9
$MEASUREMENT
 70
1
  9
$INSUNITS
 70
4
  0
ENDSEC
  0
SECTION
  2
CLASSES
  0
CLASS
  1
ACDBDICTIONARYWDFLT
  2
AcDbDictionaryWithDefault
  3
AutoCAD 2000
 90
0
 91
1
280
0
281
0
  0
CLASS
  1
ACDBPLACEHOLDER
  2
AcDbPlaceHolder
  3
AutoCAD 2000
 90
0
 91
1
280
0
281
0
  0
CLASS
  1
LAYOUT
  2
AcDbLayout
  3
AutoCAD 2000
 90
0
 91
0
280
0
281
0
  0
ENDSEC
  0
SECTION
  2
TABLES
  0
TABLE
  2
VPORT
  5
8
100
AcDbSymbolTable
 70
2
  0
VPORT
  5
1F4
100
AcDbSymbolTableRecord
100
AcDbViewportTableRecord
  2
*ACTIVE
 70
0
 10
0.0
 20
0.0
 11
1.0
 21
1.0
 12
63.7403742015
 22
90.1471006564
 13
0.0
 23
0.0
 14
1.0
 24
1.0
 15
0.0
 25
0.0
 16
0.0
 26
0.0
 36
1.0
 17
0.0
 27
0.0
 37
0.0
 40
180.2942013129
 41
0.7070707071
 42
50.0
 43
0.0
 44
0.0
 50
0.0
 51
0.0
 71
0
 72
100
 73
1
 74
1
 75
0
 76
0
 77
0
 78
0
  0
ENDTAB
  0
TABLE
  2
LTYPE
  5
5
100
AcDbSymbolTable
 70
6
  0
LTYPE
  5
14
100
AcDbSymbolTableRecord
100
AcDbLinetypeTableRecord
  2
BYBLOCK
 70
0
  3

 72
65
 73
0
 40
0.0
  0
LTYPE
  5
15
100
AcDbSymbolTableRecord
100
AcDbLinetypeTableRecord
  2
BYLAYER
 70
0
  3

 72
65
 73
0
 40
0.0
  0
LTYPE
  5
16
100
AcDbSymbolTableRecord
100
AcDbLinetypeTableRecord
  2
CONTINUOUS
 70
64
  3
Solid line
 72
65
 73
0
 40
0.0
  0
LTYPE
  5
1F5
100
AcDbSymbolTableRecord
100
AcDbLinetypeTableRecord
  2
CENTER
 70
64
  3
____ _ ____ _ ____ _ ____ _ ____ _ ____ _ ____
 72
65
 73
4
 40
0.6
 49
0.375
 74
0
 49
-0.075
 74
0
 49
0.075
 74
0
 49
-0.075
 74
0
  0
LTYPE
  5
1F6
100
AcDbSymbolTableRecord
100
AcDbLinetypeTableRecord
  2
HIDDEN
 70
64
  3
- - - - - - - - - - - - - - - - - - - -
 72
65
 73
2
 40
0.2
 49
0.1
 74
0
 49
-0.1
 74
0
  0
LTYPE
  5
1F7
100
AcDbSymbolTableRecord
100
AcDbLinetypeTableRecord
  2
PHANTOM
 70
64
  3
_____ _ _ _____ _ _ _____ _ _ _____
 72
65
 73
6
 40
0.8
 49
0.45
 74
0
 49
-0.05
 74
0
 49
0.1
 74
0
 49
-0.05
 74
0
 49
0.1
 74
0
 49
-0.05
 74
0
  0
LTYPE
  5
1F8
100
AcDbSymbolTableRecord
100
AcDbLinetypeTableRecord
  2
DOT
 70
64
  3
. . . . . . . . . . . . . . . . . . . .
 72
65
 73
2
 40
0.2
 49
0.1
 74
0
 49
-0.1
 74
0
  0
LTYPE
  5
1F9
100
AcDbSymbolTableRecord
100
AcDbLinetypeTableRecord
  2
DASHED
 70
64
  3
- - - - - - - - - - - - - - - - - - - -
 72
65
 73
2
 40
0.2
 49
0.1
 74
0
 49
-0.1
 74
0
  0
ENDTAB
  0
TABLE
  2
LAYER
  5
2
100
AcDbSymbolTable
 70
36
  0
LAYER
  5
10
100
AcDbSymbolTableRecord
100
AcDbLayerTableRecord
  2
0
 70
0
 62
7
  6
CONTINUOUS
370
-3
390
F
  0
LAYER
  5
1FA
100
AcDbSymbolTableRecord
100
AcDbLayerTableRecord
  2
DEFAULT_1
 70
0
 62
7
  6
CENTER
370
-3
390
F
  0
LAYER
  5
1FB
100
AcDbSymbolTableRecord
100
AcDbLayerTableRecord
  2
DEFAULT_2
 70
0
 62
8
  6
HIDDEN
370
-3
390
F
  0
LAYER
  5
1FC
100
AcDbSymbolTableRecord
100
AcDbLayerTableRecord
  2
DEFAULT_3
 70
0
 62
7
  6
PHANTOM
370
-3
390
F
  0
LAYER
  5
1FD
100
AcDbSymbolTableRecord
100
AcDbLayerTableRecord
  2
00_COMPONENTS
 70
0
 62
7
  6
CONTINUOUS
370
-3
390
F
  0
LAYER
  5
1FE
100
AcDbSymbolTableRecord
100
AcDbLayerTableRecord
  2
00_COMPONENTS_1
 70
0
 62
7
  6
CONTINUOUS
370
-3
390
F
  0
LAYER
  5
1FF
100
AcDbSymbolTableRecord
100
AcDbLayerTableRecord
  2
01_1_DEFAULT_DATUMS
 70
0
 62
7
  6
CONTINUOUS
370
-3
390
F
  0
LAYER
  5
200
100
AcDbSymbolTableRecord
100
AcDbLayerTableRecord
  2
01_PLANES
 70
0
 62
7
  6
CONTINUOUS
370
-3
390
F
  0
LAYER
  5
201
100
AcDbSymbolTableRecord
100
AcDbLayerTableRecord
  2
02_COORD_SYS
 70
0
 62
7
  6
CONTINUOUS
370
-3
390
F
  0
LAYER
  5
202
100
AcDbSymbolTableRecord
100
AcDbLayerTableRecord
  2
03_AXES
 70
0
 62
7
  6
CONTINUOUS
370
-3
390
F
  0
LAYER
  5
203
100
AcDbSymbolTableRecord
100
AcDbLayerTableRecord
  2
03_AXES_1
 70
0
 62
7
  6
CONTINUOUS
370
-3
390
F
  0
LAYER
  5
204
100
AcDbSymbolTableRecord
100
AcDbLayerTableRecord
  2
04_POINTS
 70
0
 62
7
  6
CONTINUOUS
370
-3
390
F
  0
LAYER
  5
205
100
AcDbSymbolTableRecord
100
AcDbLayerTableRecord
  2
05_CURVES
 70
0
 62
7
  6
CONTINUOUS
370
-3
390
F
  0
LAYER
  5
206
100
AcDbSymbolTableRecord
100
AcDbLayerTableRecord
  2
06_SURFS
 70
0
 62
7
  6
CONTINUOUS
370
-3
390
F
  0
LAYER
  5
207
100
AcDbSymbolTableRecord
100
AcDbLayerTableRecord
  2
07_COSMETICS
 70
0
 62
7
  6
CONTINUOUS
370
-3
390
F
  0
LAYER
  5
208
100
AcDbSymbolTableRecord
100
AcDbLayerTableRecord
  2
10_NOTES
 70
0
 62
7
  6
CONTINUOUS
370
-3
390
F
  0
LAYER
  5
209
100
AcDbSymbolTableRecord
100
AcDbLayerTableRecord
  2
11_NOTES_PUB
 70
0
 62
7
  6
CONTINUOUS
370
-3
390
F
  0
LAYER
  5
20A
100
AcDbSymbolTableRecord
100
AcDbLayerTableRecord
  2
13_REF_GTOL
 70
0
 62
7
  6
CONTINUOUS
370
-3
390
F
  0
LAYER
  5
20B
100
AcDbSymbolTableRecord
100
AcDbLayerTableRecord
  2
16_MISC
 70
0
 62
7
  6
CONTINUOUS
370
-3
390
F
  0
LAYER
  5
20C
100
AcDbSymbolTableRecord
100
AcDbLayerTableRecord
  2
17_NO_PRINT
 70
0
 62
7
  6
CONTINUOUS
370
-3
390
F
  0
LAYER
  5
20D
100
AcDbSymbolTableRecord
100
AcDbLayerTableRecord
  2
18_DATUM_CAMS_JOINTS
 70
0
 62
7
  6
CONTINUOUS
370
-3
390
F
  0
LAYER
  5
20E
100
AcDbSymbolTableRecord
100
AcDbLayerTableRecord
  2
19_DATUM_FUNCTIONAL
 70
0
 62
7
  6
CONTINUOUS
370
-3
390
F
  0
LAYER
  5
20F
100
AcDbSymbolTableRecord
100
AcDbLayerTableRecord
  2
20_DATUM_KINEMATIC_SCHEME
 70
0
 62
7
  6
CONTINUOUS
370
-3
390
F
  0
LAYER
  5
210
100
AcDbSymbolTableRecord
100
AcDbLayerTableRecord
  2
INTFCLR_11
 70
0
 62
7
  6
CONTINUOUS
370
-3
390
F
  0
LAYER
  5
211
100
AcDbSymbolTableRecord
100
AcDbLayerTableRecord
  2
INTF_BLANK
 70
0
 62
7
  6
CONTINUOUS
370
-3
390
F
  0
LAYER
  5
212
100
AcDbSymbolTableRecord
100
AcDbLayerTableRecord
  2
INTF_YELLOW
 70
0
 62
7
  6
CONTINUOUS
370
-3
390
F
  0
LAYER
  5
213
100
AcDbSymbolTableRecord
100
AcDbLayerTableRecord
  2
_BLACK_HOLE
 70
0
 62
7
  6
CONTINUOUS
370
-3
390
F
  0
ENDTAB
  0
TABLE
  2
STYLE
  5
3
100
AcDbSymbolTable
 70
1
  0
STYLE
  5
11
100
AcDbSymbolTableRecord
100
AcDbTextStyleTableRecord
  2
STANDARD
 70
0
 40
0.0
 41
0.8
 50
0.0
 71
0
 42
0.2
  3
txt
  4

  0
STYLE
  5
214
100
AcDbSymbolTableRecord
100
AcDbTextStyleTableRecord
  2
TEXTSTYLE_1
 70
0
 40
0.0
 41
0.8
 50
0.0
 71
0
 42
0.2
  3
gdt
  4

  0
ENDTAB
  0
TABLE
  2
VIEW
  5
6
100
AcDbSymbolTable
 70
0
  0
ENDTAB
  0
TABLE
  2
UCS
  5
7
100
AcDbSymbolTable
 70
0
  0
ENDTAB
  0
TABLE
  2
APPID
  5
9
100
AcDbSymbolTable
 70
1
  0
APPID
  5
215
100
AcDbSymbolTableRecord
100
AcDbRegAppTableRecord
  2
ACAD
 70
0
  0
ENDTAB
  0
TABLE
  2
BLOCK_RECORD
  5
1
100
AcDbSymbolTable
 70
0
  0
BLOCK_RECORD
  5
216
100
AcDbSymbolTableRecord
100
AcDbBlockTableRecord
  2
*Model_Space
  0
BLOCK_RECORD
  5
217
100
AcDbSymbolTableRecord
100
AcDbBlockTableRecord
  2
*Paper_Space
  0
BLOCK_RECORD
  5
218
100
AcDbSymbolTableRecord
100
AcDbBlockTableRecord
  2
_FILLED
  0
ENDTAB
  0
TABLE
  2
DIMSTYLE
  5
A
100
AcDbSymbolTable
 70
1
100
AcDbDimStyleTable
 71
0
  0
DIMSTYLE
105
219
100
AcDbSymbolTableRecord
100
AcDbDimStyleTableRecord
  2
STANDARD
 70
0
  3

  4

 40
1.0
 41
1.5176279572
 42
1.0
 43
0.38
 44
1.0
 45
0.0
 46
0.0
 47
0.01
 48
0.01
140
2.1246791401
141
0.09
142
0.0
143
25.4
144
1.0
145
0.0
146
1.0
147
0.625
 71
1
 72
0
 73
0
 74
0
 75
0
 76
0
 77
1
 78
8
 79
2
170
0
171
1
172
0
173
0
174
0
175
0
176
0
177
0
178
0
270
2
179
2
271
2
272
2
273
2
274
2
275
0
280
0
281
0
282
0
283
1
284
8
285
0
286
0
287
3
288
0
340
11
278
46
341
218
342
218
343
218
344
218
  0
ENDTAB
  0
ENDSEC
  0
SECTION
  2
BLOCKS
  0
BLOCK
  5
20
100
AcDbEntity
  8
0
100
AcDbBlockBegin
  2
*Model_Space
 70
0
 10
0.0
 20
0.0
 30
0.0
  3
*Model_Space
  1

  0
ENDBLK
  5
21
100
AcDbEntity
  8
0
100
AcDbBlockEnd
  0
BLOCK
  5
1C
100
AcDbEntity
  8
0
100
AcDbBlockBegin
  2
*Paper_Space
 70
0
 10
0.0
 20
0.0
 30
0.0
  3
*Paper_Space
  1

  0
ENDBLK
  5
1D
100
AcDbEntity
  8
0
100
AcDbBlockEnd
  0
BLOCK
  5
21A
100
AcDbEntity
  8
0
100
AcDbBlockBegin
  2
_FILLED
 70
64
 10
0.0
 20
0.0
  3
_FILLED
  1

  0
SOLID
  5
21B
100
AcDbEntity
  8
0
  6
BYBLOCK
 62
0
100
AcDbTrace
 10
0.0
 20
0.0
 11
-1.0
 21
0.25
 12
-1.0
 22
-0.25
 13
-1.0
 23
-0.25
  0
ENDBLK
  5
21C
100
AcDbEntity
  8
0
  6
BYBLOCK
 62
0
100
AcDbBlockEnd
  0
ENDSEC
  0
SECTION
  2
ENTITIES
  0
LINE
  5
21D
100
AcDbEntity
  8
00_COMPONENTS_1
100
AcDbLine
 62
7
  6
CONTINUOUS
 10
14.4187658864
 20
104.8171006564
 11
14.4187658864
 21
75.4471006564
  0
LINE
  5
21E
100
AcDbEntity
  8
00_COMPONENTS_1
100
AcDbLine
 62
7
  6
CONTINUOUS
 10
20.9687658864
 20
75.4471006564
 11
20.9687658864
 21
104.8171006564
  0
LINE
  5
21F
100
AcDbEntity
  8
00_COMPONENTS_1
100
AcDbLine
 62
7
  6
CONTINUOUS
 10
21.0687658864
 20
104.9471006564
 11
21.0687658864
 21
75.3471006564
  0
LINE
  5
220
100
AcDbEntity
  8
00_COMPONENTS_1
100
AcDbLine
 62
7
  6
CONTINUOUS
 10
21.3187658864
 20
64.2471006564
 11
21.3187658864
 21
75.3471006564
  0
LINE
  5
221
100
AcDbEntity
  8
00_COMPONENTS_1
100
AcDbLine
 62
7
  6
CONTINUOUS
 10
21.3187658864
 20
104.9471006564
 11
21.3187658864
 21
116.0471006564
  0
LINE
  5
222
100
AcDbEntity
  8
00_COMPONENTS_1
100
AcDbLine
 62
7
  6
CONTINUOUS
 10
23.1187658864
 20
117.0471006564
 11
23.1187658864
 21
104.9471006564
  0
LINE
  5
223
100
AcDbEntity
  8
00_COMPONENTS_1
100
AcDbLine
 62
7
  6
CONTINUOUS
 10
23.1187658864
 20
63.2471006564
 11
23.1187658864
 21
75.3471006564
  0
LINE
  5
224
100
AcDbEntity
  8
00_COMPONENTS_1
100
AcDbLine
 62
7
  6
CONTINUOUS
 10
35.8187711891
 20
47.7471006564
 11
69.1687658864
 21
47.7471006564
  0
LINE
  5
225
100
AcDbEntity
  8
00_COMPONENTS_1
100
AcDbLine
 62
7
  6
CONTINUOUS
 10
108.2687658864
 20
51.7471006564
 11
115.2687658864
 21
51.7471006564
  0
LINE
  5
226
100
AcDbEntity
  8
00_COMPONENTS_1
100
AcDbLine
 62
7
  6
CONTINUOUS
 10
108.2687658864
 20
51.9607624282
 11
115.2687658864
 21
51.9607624282
  0
LINE
  5
227
100
AcDbEntity
  8
00_COMPONENTS_1
100
AcDbLine
 62
7
  6
CONTINUOUS
 10
108.2687658864
 20
52.9180300738
 11
115.2687658864
 21
52.9180300738
  0
LINE
  5
228
100
AcDbEntity
  8
00_COMPONENTS_1
100
AcDbLine
 62
7
  6
CONTINUOUS
 10
108.2687658864
 20
53.2471006564
 11
115.2687658864
 21
53.2471006564
  0
LINE
  5
229
100
AcDbEntity
  8
00_COMPONENTS_1
100
AcDbLine
 62
7
  6
CONTINUOUS
 10
69.1687658864
 20
54.1471006564
 11
77.2687658864
 21
54.1471006564
  0
LINE
  5
22A
100
AcDbEntity
  8
00_COMPONENTS_1
100
AcDbLine
 62
7
  6
CONTINUOUS
 10
108.2687658864
 20
56.4471006564
 11
115.2687658864
 21
56.4471006564
  0
LINE
  5
22B
100
AcDbEntity
  8
00_COMPONENTS_1
100
AcDbLine
 62
7
  6
CONTINUOUS
 10
77.2687658864
 20
57.2471006564
 11
108.2687658864
 21
57.2471006564
  0
LINE
  5
22C
100
AcDbEntity
  8
03_AXES_1
100
AcDbLine
 62
2
  6
CONTINUOUS
 10
36.9784106323
 20
57.7471006564
 11
36.1756555228
 21
57.7471006564
  0
LINE
  5
22D
100
AcDbEntity
  8
03_AXES_1
100
AcDbLine
 62
2
  6
CONTINUOUS
 10
35.8758071868
 20
57.7471006564
 11
35.8185357271
 21
57.7471006564
  0
LINE
  5
22E
100
AcDbEntity
  8
00_COMPONENTS_1
100
AcDbLine
 62
7
  6
CONTINUOUS
 10
108.2687658864
 20
59.9471006564
 11
77.2687658864
 21
59.9471006564
  0
LINE
  5
22F
100
AcDbEntity
  8
00_COMPONENTS_1
100
AcDbLine
 62
7
  6
CONTINUOUS
 10
35.8187658864
 20
61.7460736867
 11
35.819621043
 21
61.7169464005
  0
LINE
  5
230
100
AcDbEntity
  8
00_COMPONENTS_1
100
AcDbLine
 62
7
  6
CONTINUOUS
 10
35.823939866
 20
126.3507008794
 11
35.8187851011
 21
126.5470891576
  0
LINE
  5
231
100
AcDbEntity
  8
00_COMPONENTS_1
100
AcDbLine
 62
7
  6
CONTINUOUS
 10
35.8187658864
 20
47.7471006564
 11
35.8187658864
 21
53.7471006564
  0
LINE
  5
232
100
AcDbEntity
  8
00_COMPONENTS_1
100
AcDbLine
 62
7
  6
CONTINUOUS
 10
35.8187658864
 20
61.7471006564
 11
35.8187658864
 21
63.2471006564
  0
LINE
  5
233
100
AcDbEntity
  8
00_COMPONENTS_1
100
AcDbLine
 62
7
  6
CONTINUOUS
 10
35.8187658864
 20
117.0471006564
 11
35.8187658864
 21
118.5471006564
  0
LINE
  5
234
100
AcDbEntity
  8
00_COMPONENTS_1
100
AcDbLine
 62
7
  6
CONTINUOUS
 10
35.8187658864
 20
126.5471006564
 11
35.8187658864
 21
132.5471006564
  0
LINE
  5
235
100
AcDbEntity
  8
00_COMPONENTS_1
100
AcDbLine
 62
7
  6
CONTINUOUS
 10
36.2586198442
 20
63.2471006564
 11
36.2586198442
 21
64.2471006564
  0
LINE
  5
236
100
AcDbEntity
  8
00_COMPONENTS_1
100
AcDbLine
 62
7
  6
CONTINUOUS
 10
36.2586198442
 20
116.0471006564
 11
36.2586198442
 21
117.0471006564
  0
LINE
  5
237
100
AcDbEntity
  8
00_COMPONENTS_1
100
AcDbLine
 62
7
  6
CONTINUOUS
 10
37.6187658864
 20
132.5471006564
 11
37.6187658864
 21
116.0471006564
  0
LINE
  5
238
100
AcDbEntity
  8
00_COMPONENTS_1
100
AcDbLine
 62
7
  6
CONTINUOUS
 10
37.6187658864
 20
64.2471006564
 11
37.6187658864
 21
47.7471006564
  0
LINE
  5
239
100
AcDbEntity
  8
00_COMPONENTS_1
100
AcDbLine
 62
7
  6
CONTINUOUS
 10
35.8195770715
 20
118.5756308811
 11
35.8187709064
 21
118.5470694875
  0
LINE
  5
23A
100
AcDbEntity
  8
00_COMPONENTS_1
100
AcDbLine
 62
7
  6
CONTINUOUS
 10
36.2586198442
 20
63.2471006564
 11
23.1187658864
 21
63.2471006564
  0
LINE
  5
23B
100
AcDbEntity
  8
00_COMPONENTS_1
100
AcDbLine
 62
7
  6
CONTINUOUS
 10
21.3187711891
 20
64.2471006564
 11
37.6187658864
 21
64.2471006564
  0
LINE
  5
23C
100
AcDbEntity
  8
03_AXES_1
100
AcDbLine
 62
2
  6
CONTINUOUS
 10
22.6320430237
 20
70.9471006564
 11
21.8903074459
 21
70.9471006564
  0
LINE
  5
23D
100
AcDbEntity
  8
03_AXES_1
100
AcDbLine
 62
2
  6
CONTINUOUS
 10
21.5795716991
 20
70.9471006564
 11
21.3337458942
 21
70.9471006564
  0
LINE
  5
23E
100
AcDbEntity
  8
00_COMPONENTS_1
100
AcDbLine
 62
7
  6
CONTINUOUS
 10
110.4687657976
 20
71.3457673818
 11
110.3673950765
 21
71.3457673818
  0
LINE
  5
23F
100
AcDbEntity
  8
00_COMPONENTS_1
100
AcDbLine
 62
7
  6
CONTINUOUS
 10
111.770131153
 20
73.7469445278
 11
109.7673950765
 21
73.7469445278
  0
LINE
  5
240
100
AcDbEntity
  8
00_COMPONENTS_1
100
AcDbLine
 62
7
  6
CONTINUOUS
 10
23.1187658864
 20
75.3471006564
 11
21.0687658864
 21
75.3471006564
  0
LINE
  5
241
100
AcDbEntity
  8
00_COMPONENTS_1
100
AcDbLine
 62
7
  6
CONTINUOUS
 10
20.9687658864
 20
75.4471006564
 11
14.4187658864
 21
75.4471006564
  0
LINE
  5
242
100
AcDbEntity
  8
00_COMPONENTS_1
100
AcDbLine
 62
7
  6
CONTINUOUS
 10
14.4187658864
 20
79.4471006564
 11
20.9687658864
 21
79.4471006564
  0
LINE
  5
243
100
AcDbEntity
  8
00_COMPONENTS_1
100
AcDbLine
 62
7
  6
CONTINUOUS
 10
110.7673950765
 20
89.2471006564
 11
109.7673950765
 21
89.2471006564
  0
LINE
  5
244
100
AcDbEntity
  8
00_COMPONENTS_1
100
AcDbLine
 62
7
  6
CONTINUOUS
 10
69.1687658864
 20
54.1471006564
 11
69.1687658864
 21
47.7471006564
  0
LINE
  5
245
100
AcDbEntity
  8
00_COMPONENTS_1
100
AcDbLine
 62
7
  6
CONTINUOUS
 10
69.1687658864
 20
126.1471006564
 11
69.1687658864
 21
132.5471006564
  0
LINE
  5
246
100
AcDbEntity
  8
00_COMPONENTS_1
100
AcDbLine
 62
7
  6
CONTINUOUS
 10
110.7673950765
 20
91.2471006564
 11
109.7673950765
 21
91.2471006564
  0
LINE
  5
247
100
AcDbEntity
  8
00_COMPONENTS_1
100
AcDbLine
 62
7
  6
CONTINUOUS
 10
77.2687658864
 20
126.1471006564
 11
77.2687658864
 21
120.5471006564
  0
LINE
  5
248
100
AcDbEntity
  8
00_COMPONENTS_1
100
AcDbLine
 62
7
  6
CONTINUOUS
 10
77.2687658864
 20
59.9471006564
 11
77.2687658864
 21
54.1471006564
  0
LINE
  5
249
100
AcDbEntity
  8
00_COMPONENTS_1
100
AcDbLine
 62
7
  6
CONTINUOUS
 10
20.9687658864
 20
100.8171006564
 11
14.4187658864
 21
100.8171006564
  0
LINE
  5
24A
100
AcDbEntity
  8
00_COMPONENTS_1
100
AcDbLine
 62
7
  6
CONTINUOUS
 10
111.770131153
 20
73.7469445278
 11
115.2687658864
 21
71.2972252657
  0
LINE
  5
24B
100
AcDbEntity
  8
00_COMPONENTS_1
100
AcDbLine
 62
7
  6
CONTINUOUS
 10
14.4187658864
 20
104.8171006564
 11
20.9687658864
 21
104.8171006564
  0
LINE
  5
24C
100
AcDbEntity
  8
00_COMPONENTS_1
100
AcDbLine
 62
7
  6
CONTINUOUS
 10
23.1187658864
 20
104.9471006564
 11
21.0687658864
 21
104.9471006564
  0
LINE
  5
24D
100
AcDbEntity
  8
00_COMPONENTS_1
100
AcDbLine
 62
7
  6
CONTINUOUS
 10
111.4687658864
 20
106.0471006564
 11
114.0687658864
 21
106.0471006564
  0
LINE
  5
24E
100
AcDbEntity
  8
00_COMPONENTS_1
100
AcDbLine
 62
7
  6
CONTINUOUS
 10
109.628933538
 20
106.9471006564
 11
109.0687658864
 21
106.9471006564
  0
LINE
  5
24F
100
AcDbEntity
  8
03_AXES_1
100
AcDbLine
 62
2
  6
CONTINUOUS
 10
22.6320430237
 20
109.5471006564
 11
21.8903074459
 21
109.5471006564
  0
LINE
  5
250
100
AcDbEntity
  8
03_AXES_1
100
AcDbLine
 62
2
  6
CONTINUOUS
 10
21.5795716991
 20
109.5471006564
 11
21.3337458942
 21
109.5471006564
  0
LINE
  5
251
100
AcDbEntity
  8
00_COMPONENTS_1
100
AcDbLine
 62
7
  6
CONTINUOUS
 10
115.2687658864
 20
109.9471006564
 11
109.0687658864
 21
109.9471006564
  0
LINE
  5
252
100
AcDbEntity
  8
00_COMPONENTS_1
100
AcDbLine
 62
7
  6
CONTINUOUS
 10
115.2687658864
 20
107.2471006564
 11
114.0687658864
 21
106.0471006564
  0
LINE
  5
253
100
AcDbEntity
  8
00_COMPONENTS_1
100
AcDbLine
 62
7
  6
CONTINUOUS
 10
37.6187658864
 20
116.0471006564
 11
21.3187711891
 21
116.0471006564
  0
LINE
  5
254
100
AcDbEntity
  8
00_COMPONENTS_1
100
AcDbLine
 62
7
  6
CONTINUOUS
 10
36.2586198442
 20
117.0471006564
 11
23.1187658864
 21
117.0471006564
  0
LINE
  5
255
100
AcDbEntity
  8
00_COMPONENTS_1
100
AcDbLine
 62
7
  6
CONTINUOUS
 10
108.2687658864
 20
120.5471006564
 11
77.2687658864
 21
120.5471006564
  0
LINE
  5
256
100
AcDbEntity
  8
03_AXES_1
100
AcDbLine
 62
2
  6
CONTINUOUS
 10
36.9784106323
 20
122.5471006564
 11
36.1756555228
 21
122.5471006564
  0
LINE
  5
257
100
AcDbEntity
  8
03_AXES_1
100
AcDbLine
 62
2
  6
CONTINUOUS
 10
35.8758071868
 20
122.5471006564
 11
35.8185517781
 21
122.5471006564
  0
LINE
  5
258
100
AcDbEntity
  8
00_COMPONENTS_1
100
AcDbLine
 62
7
  6
CONTINUOUS
 10
77.2687658864
 20
123.2471006564
 11
108.2687658864
 21
123.2471006564
  0
LINE
  5
259
100
AcDbEntity
  8
00_COMPONENTS_1
100
AcDbLine
 62
7
  6
CONTINUOUS
 10
69.1687658864
 20
126.1471006564
 11
77.2687658864
 21
126.1471006564
  0
LINE
  5
25A
100
AcDbEntity
  8
00_COMPONENTS_1
100
AcDbLine
 62
7
  6
CONTINUOUS
 10
115.2687658864
 20
127.4073546943
 11
108.2687658864
 21
127.4073546943
  0
LINE
  5
25B
100
AcDbEntity
  8
00_COMPONENTS_1
100
AcDbLine
 62
7
  6
CONTINUOUS
 10
108.2687658864
 20
128.7471006564
 11
115.2687658864
 21
128.7471006564
  0
LINE
  5
25C
100
AcDbEntity
  8
00_COMPONENTS_1
100
AcDbLine
 62
7
  6
CONTINUOUS
 10
108.2687658864
 20
51.7471649558
 11
108.2687658864
 21
59.9471006564
  0
LINE
  5
25D
100
AcDbEntity
  8
00_COMPONENTS_1
100
AcDbLine
 62
7
  6
CONTINUOUS
 10
108.2687658864
 20
120.5471006564
 11
108.2687658864
 21
128.7470363571
  0
LINE
  5
25E
100
AcDbEntity
  8
00_COMPONENTS_1
100
AcDbLine
 62
7
  6
CONTINUOUS
 10
109.0687658864
 20
106.9471006564
 11
109.0687658864
 21
109.9471006564
  0
LINE
  5
25F
100
AcDbEntity
  8
00_COMPONENTS_1
100
AcDbLine
 62
7
  6
CONTINUOUS
 10
35.8187711891
 20
132.5471006564
 11
69.1687658864
 21
132.5471006564
  0
LINE
  5
260
100
AcDbEntity
  8
00_COMPONENTS_1
100
AcDbLine
 62
7
  6
CONTINUOUS
 10
109.7673950765
 20
71.9457673818
 11
109.7673950765
 21
106.0471006564
  0
LINE
  5
261
100
AcDbEntity
  8
00_COMPONENTS_1
100
AcDbLine
 62
7
  6
CONTINUOUS
 10
110.7673950765
 20
89.2471006564
 11
110.7673950765
 21
91.2471006564
  0
LINE
  5
262
100
AcDbEntity
  8
00_COMPONENTS_1
100
AcDbLine
 62
7
  6
CONTINUOUS
 10
111.0687657976
 20
73.3455791724
 11
111.0687657976
 21
71.9457673818
  0
LINE
  5
263
100
AcDbEntity
  8
00_COMPONENTS_1
100
AcDbLine
 62
7
  6
CONTINUOUS
 10
111.0687657976
 20
73.3455791724
 11
111.470131153
 21
73.7469445278
  0
LINE
  5
264
100
AcDbEntity
  8
00_COMPONENTS_1
100
AcDbLine
 62
7
  6
CONTINUOUS
 10
109.628933538
 20
106.9471006564
 11
109.7673950765
 21
106.0471006564
  0
LINE
  5
265
100
AcDbEntity
  8
00_COMPONENTS_1
100
AcDbLine
 62
7
  6
CONTINUOUS
 10
111.4687658864
 20
106.0471006564
 11
110.8687658864
 21
109.9471006564
  0
LINE
  5
266
100
AcDbEntity
  8
00_COMPONENTS_1
100
AcDbLine
 62
7
  6
CONTINUOUS
 10
115.2687658864
 20
51.7471649558
 11
115.2687658864
 21
71.2972252657
  0
LINE
  5
267
100
AcDbEntity
  8
00_COMPONENTS_1
100
AcDbLine
 62
7
  6
CONTINUOUS
 10
115.2687658864
 20
107.2471006564
 11
115.2687658864
 21
128.7470363571
  0
ARC
  5
268
100
AcDbEntity
  8
00_COMPONENTS_1
100
AcDbCircle
 62
7
  6
CONTINUOUS
 10
110.3673950765
 20
71.9457673818
 40
0.6
100
AcDbArc
 50
180.0
 51
270.0
  0
ARC
  5
269
100
AcDbEntity
  8
00_COMPONENTS_1
100
AcDbCircle
 62
7
  6
CONTINUOUS
 10
110.4687657976
 20
71.9457673818
 40
0.6
100
AcDbArc
 50
270.0
 51
360.0
  0
SPLINE
  5
26A
100
AcDbEntity
  8
00_COMPONENTS_1
100
AcDbSpline
 62
7
  6
CONTINUOUS
 70
0
 71
3
 72
14
 73
10
 74
0
 42
0.0000001
 43
0.0000001
 44
0.0000000001
 40
0.0
 40
0.0
 40
0.0
 40
0.0
 40
0.382668923
 40
0.5555245314
 40
0.7070635418
 40
0.8314050178
 40
0.9238023311
 40
0.9807496389
 40
1.0
 40
1.0
 40
1.0
 40
1.0
 10
35.8758071868
 20
57.7471006564
 30
0.0
 10
35.8758071868
 20
58.2573978138
 30
0.0
 10
35.8717459227
 20
58.9982099588
 30
0.0
 10
35.8591596489
 20
59.9410127775
 30
0.0
 10
35.848325113
 20
60.5393156985
 30
0.0
 10
35.8377361638
 20
61.0303087794
 30
0.0
 10
35.8281547299
 20
61.3951514598
 30
0.0
 10
35.8228577538
 20
61.6199111053
 30
0.0
 10
35.8191494129
 20
61.7214637483
 30
0.0
 10
35.8187709069
 20
61.7471317241
 30
0.0
  0
SPLINE
  5
26B
100
AcDbEntity
  8
00_COMPONENTS_1
100
AcDbSpline
 62
7
  6
CONTINUOUS
 70
0
 71
3
 72
19
 73
15
 74
0
 42
0.0000001
 43
0.0000001
 44
0.0000000001
 40
0.0
 40
0.0
 40
0.0
 40
0.0
 40
0.0120167826
 40
0.0201469128
 40
0.030096955
 40
0.0558931308
 40
0.0898332895
 40
0.1319631223
 40
0.1821927455
 40
0.2401403972
 40
0.3052094133
 40
0.45420431
 40
0.6239950143
 40
1.0
 40
1.0
 40
1.0
 40
1.0
 10
22.2227837447
 20
106.2965888163
 30
0.0
 10
22.2360827208
 20
106.2965775129
 30
0.0
 10
22.2576872146
 20
106.3085194172
 30
0.0
 10
22.2795856566
 20
106.3332704187
 30
0.0
 10
22.3065283328
 20
106.3739960353
 30
0.0
 10
22.3381805608
 20
106.4446182377
 30
0.0
 10
22.3738846423
 20
106.5516400199
 30
0.0
 10
22.4088872179
 20
106.6870545107
 30
0.0
 10
22.4427710906
 20
106.8499526714
 30
0.0
 10
22.4750731453
 20
107.0389778758
 30
0.0
 10
22.5174766638
 20
107.337040286
 30
0.0
 10
22.5624070391
 20
107.7596083499
 30
0.0
 10
22.6167021524
 20
108.5267036311
 30
0.0
 10
22.6320430237
 20
109.1309757024
 30
0.0
 10
22.6320430237
 20
109.5471006564
 30
0.0
  0
SPLINE
  5
26C
100
AcDbEntity
  8
00_COMPONENTS_1
100
AcDbSpline
 62
7
  6
CONTINUOUS
 70
0
 71
3
 72
20
 73
16
 74
0
 42
0.0000001
 43
0.0000001
 44
0.0000000001
 40
0.0
 40
0.0
 40
0.0
 40
0.0
 40
0.1922287016
 40
0.3771320259
 40
0.5474803163
 40
0.6969729879
 40
0.7621257527
 40
0.8200913187
 40
0.8703646891
 40
0.9125743198
 40
0.9464218517
 40
0.9718274717
 40
0.9814478759
 40
0.9891454232
 40
1.0
 40
1.0
 40
1.0
 40
1.0
 10
36.9784106323
 20
57.7471006564
 30
0.0
 10
36.9784106323
 20
58.0079849742
 30
0.0
 10
36.971963285
 20
58.5198357426
 30
0.0
 10
36.9435165997
 20
59.2623946563
 30
0.0
 10
36.8982332235
 20
59.9460018172
 30
0.0
 10
36.8471351178
 20
60.4661309749
 30
0.0
 10
36.7989590237
 20
60.8329868008
 30
0.0
 10
36.7624181592
 20
61.0654855518
 30
0.0
 10
36.7242821079
 20
61.2661137961
 30
0.0
 10
36.6852928648
 20
61.4331542959
 30
0.0
 10
36.6457488567
 20
61.5651574178
 30
0.0
 10
36.6109455504
 20
61.6521595784
 30
0.0
 10
36.5811852783
 20
61.7023508796
 30
0.0
 10
36.5577757086
 20
61.7320135517
 30
0.0
 10
36.5338643838
 20
61.7471210579
 30
0.0
 10
36.5191330347
 20
61.7471318854
 30
0.0
  0
SPLINE
  5
26D
100
AcDbEntity
  8
00_COMPONENTS_1
100
AcDbSpline
 62
7
  6
CONTINUOUS
 70
0
 71
3
 72
21
 73
17
 74
0
 42
0.0000001
 43
0.0000001
 44
0.0000000001
 40
0.0
 40
0.0
 40
0.0
 40
0.0
 40
0.0022460551
 40
0.0063921035
 40
0.0214262345
 40
0.0455637862
 40
0.0786404081
 40
0.1204857853
 40
0.1708855401
 40
0.2293269402
 40
0.2951357388
 40
0.3676355374
 40
0.4461529493
 40
0.6184562823
 40
0.8056090031
 40
1.0
 40
1.0
 40
1.0
 40
1.0
 10
21.418924392
 20
106.2965874236
 30
0.0
 10
21.4213666893
 20
106.2965947553
 30
0.0
 10
21.4271554109
 20
106.3022105117
 30
0.0
 10
21.4359057942
 20
106.3231467172
 30
0.0
 10
21.447203102
 20
106.3697091615
 30
0.0
 10
21.4596916339
 20
106.4468917619
 30
0.0
 10
21.4730508016
 20
106.5539638305
 30
0.0
 10
21.4864943474
 20
106.689515178
 30
0.0
 10
21.4998622156
 20
106.8528508828
 30
0.0
 10
21.512887405
 20
107.0423104722
 30
0.0
 10
21.5253651889
 20
107.2558932493
 30
0.0
 10
21.5370552045
 20
107.4913767996
 30
0.0
 10
21.5517395451
 20
107.8426445685
 30
0.0
 10
21.5662935172
 20
108.3186809688
 30
0.0
 10
21.5770838966
 20
108.9208381099
 30
0.0
 10
21.5795716991
 20
109.3357243886
 30
0.0
 10
21.5795716991
 20
109.5471006564
 30
0.0
  0
SPLINE
  5
26E
100
AcDbEntity
  8
00_COMPONENTS_1
100
AcDbSpline
 62
7
  6
CONTINUOUS
 70
0
 71
3
 72
20
 73
16
 74
0
 42
0.0000001
 43
0.0000001
 44
0.0000000001
 40
0.0
 40
0.0
 40
0.0
 40
0.0
 40
0.0120004278
 40
0.0201263498
 40
0.0300783627
 40
0.055896389
 40
0.0898657407
 40
0.1320040811
 40
0.1822031922
 40
0.2401168431
 40
0.3051714821
 40
0.4542139457
 40
0.6239839864
 40
0.8083658088
 40
1.0
 40
1.0
 40
1.0
 40
1.0
 10
22.2227840057
 20
67.6966102985
 30
0.0
 10
22.2360653497
 20
67.6965378769
 30
0.0
 10
22.2577039837
 20
67.7084127874
 30
0.0
 10
22.2795886646
 20
67.733151975
 30
0.0
 10
22.3065375363
 20
67.7739029303
 30
0.0
 10
22.3381707634
 20
67.8446038616
 30
0.0
 10
22.3738633539
 20
67.9517028273
 30
0.0
 10
22.4088660885
 20
68.0871322486
 30
0.0
 10
22.4427783852
 20
68.2499693117
 30
0.0
 10
22.4750914424
 20
68.4389140018
 30
0.0
 10
22.5175030848
 20
68.7369904999
 30
0.0
 10
22.5623339687
 20
69.1595991708
 30
0.0
 10
22.601789457
 20
69.7151987371
 30
0.0
 10
22.6264358088
 20
70.318829029
 30
0.0
 10
22.6320430237
 20
70.7350084293
 30
0.0
 10
22.6320430237
 20
70.9471006564
 30
0.0
  0
SPLINE
  5
26F
100
AcDbEntity
  8
00_COMPONENTS_1
100
AcDbSpline
 62
7
  6
CONTINUOUS
 70
0
 71
3
 72
21
 73
17
 74
0
 42
0.0000001
 43
0.0000001
 44
0.0000000001
 40
0.0
 40
0.0
 40
0.0
 40
0.0
 40
0.0022417029
 40
0.0063843596
 40
0.0214231357
 40
0.0455816998
 40
0.0786825759
 40
0.1205314613
 40
0.1709018882
 40
0.2293141803
 40
0.2951180605
 40
0.3676483481
 40
0.4462024661
 40
0.6184815063
 40
0.8055894012
 40
1.0
 40
1.0
 40
1.0
 40
1.0
 10
21.4189244018
 20
67.6965743479
 30
0.0
 10
21.4213619896
 20
67.6965685943
 30
0.0
 10
21.42716469
 20
67.7021683542
 30
0.0
 10
21.4359044369
 20
67.7231043964
 30
0.0
 10
21.4472125532
 20
67.7696901081
 30
0.0
 10
21.4596885847
 20
67.846930394
 30
0.0
 10
21.473047088
 20
67.9540565234
 30
0.0
 10
21.486491138
 20
68.089607221
 30
0.0
 10
21.4998696497
 20
68.252883297
 30
0.0
 10
21.5129001876
 20
68.4422750066
 30
0.0
 10
21.5253768868
 20
68.6558556803
 30
0.0
 10
21.5370532819
 20
68.8914095592
 30
0.0
 10
21.5517173311
 20
69.2427275165
 30
0.0
 10
21.5662949393
 20
69.7187314102
 30
0.0
 10
21.5770990362
 20
70.3208393197
 30
0.0
 10
21.5795716991
 20
70.7357014454
 30
0.0
 10
21.5795716991
 20
70.9471006564
 30
0.0
  0
SPLINE
  5
270
100
AcDbEntity
  8
00_COMPONENTS_1
100
AcDbSpline
 62
7
  6
CONTINUOUS
 70
0
 71
3
 72
28
 73
24
 74
0
 42
0.0000001
 43
0.0000001
 44
0.0000000001
 40
0.0
 40
0.0
 40
0.0
 40
0.0
 40
0.0003013222
 40
0.0012039171
 40
0.0027075468
 40
0.0048119729
 40
0.0075169571
 40
0.0108221064
 40
0.019222132
 40
0.0299836557
 40
0.0430768277
 40
0.0584717996
 40
0.0761385029
 40
0.1181112598
 40
0.168566937
 40
0.2270454156
 40
0.2929654278
 40
0.3656806961
 40
0.4445027442
 40
0.5286567939
 40
0.6173503616
 40
0.8049778747
 40
1.0
 40
1.0
 40
1.0
 40
1.0
 10
35.8187851049
 20
126.5470891565
 30
0.0
 10
35.8191292086
 20
126.5468816746
 30
0.0
 10
35.8183735152
 20
126.5448047403
 30
0.0
 10
35.8192536288
 20
126.541651494
 30
0.0
 10
35.8189836745
 20
126.5353792227
 30
0.0
 10
35.819417915
 20
126.5270788914
 30
0.0
 10
35.8196477427
 20
126.5162179135
 30
0.0
 10
35.8202239571
 20
126.4970306086
 30
0.0
 10
35.8210361926
 20
126.4670688676
 30
0.0
 10
35.8222328814
 20
126.4240792858
 30
0.0
 10
35.8236553545
 20
126.3717567578
 30
0.0
 10
35.8253116879
 20
126.3102318307
 30
0.0
 10
35.8279667055
 20
126.2102076504
 30
0.0
 10
35.8317609819
 20
126.063443948
 30
0.0
 10
35.8366888758
 20
125.8622683742
 30
0.0
 10
35.8420197218
 20
125.6291595712
 30
0.0
 10
35.8475559055
 20
125.3663646871
 30
0.0
 10
35.8530965323
 20
125.0764360557
 30
0.0
 10
35.8584351208
 20
124.7621845214
 30
0.0
 10
35.8633644246
 20
124.4266165431
 30
0.0
 10
35.8692130149
 20
123.9459547382
 30
0.0
 10
35.8743849263
 20
123.3174323989
 30
0.0
 10
35.8758071868
 20
122.8071644726
 30
0.0
 10
35.8758071868
 20
122.5471006564
 30
0.0
  0
SPLINE
  5
271
100
AcDbEntity
  8
00_COMPONENTS_1
100
AcDbSpline
 62
7
  6
CONTINUOUS
 70
0
 71
3
 72
13
 73
9
 74
0
 42
0.0000001
 43
0.0000001
 44
0.0000000001
 40
0.0
 40
0.0
 40
0.0
 40
0.0
 40
0.0192405265
 40
0.0761962367
 40
0.2929349479
 40
0.4444813064
 40
0.6173469945
 40
1.0
 40
1.0
 40
1.0
 40
1.0
 10
35.8187709064
 20
118.5470694937
 30
0.0
 10
35.8183776677
 20
118.5214148613
 30
0.0
 10
35.8239352016
 20
118.74612095
 30
0.0
 10
35.8305272349
 20
118.9536848979
 30
0.0
 10
35.8468012477
 20
119.6609541845
 30
0.0
 10
35.8589776998
 20
120.3456621311
 30
0.0
 10
35.8718747122
 20
121.3013298589
 30
0.0
 10
35.8758071868
 20
122.0368248423
 30
0.0
 10
35.8758071868
 20
122.5471006564
 30
0.0
  0
SPLINE
  5
272
100
AcDbEntity
  8
00_COMPONENTS_1
100
AcDbSpline
 62
7
  6
CONTINUOUS
 70
0
 71
3
 72
20
 73
16
 74
0
 42
0.0000001
 43
0.0000001
 44
0.0000000001
 40
0.0
 40
0.0
 40
0.0
 40
0.0
 40
0.0108487616
 40
0.018545509
 40
0.0281662357
 40
0.0535750937
 40
0.0874296743
 40
0.1296417128
 40
0.1799146359
 40
0.2378790133
 40
0.3030280632
 40
0.4525275784
 40
0.6228866316
 40
0.8077841538
 40
1.0
 40
1.0
 40
1.0
 40
1.0
 10
36.5191330476
 20
118.547068325
 30
0.0
 10
36.5338565895
 20
118.5470559616
 30
0.0
 10
36.5577832742
 20
118.5621375238
 30
0.0
 10
36.5811829303
 20
118.5917978747
 30
0.0
 10
36.6109443319
 20
118.6419929514
 30
0.0
 10
36.6457434548
 20
118.7290136296
 30
0.0
 10
36.6852812291
 20
118.8610369221
 30
0.0
 10
36.7242712821
 20
119.0280907912
 30
0.0
 10
36.7624073432
 20
119.2287212805
 30
0.0
 10
36.7989515618
 20
119.4612134899
 30
0.0
 10
36.847140716
 20
119.8280724778
 30
0.0
 10
36.8982363251
 20
120.3482241514
 30
0.0
 10
36.9435188611
 20
121.0318512655
 30
0.0
 10
36.9719698648
 20
121.7744037295
 30
0.0
 10
36.9784106323
 20
122.2862322583
 30
0.0
 10
36.9784106323
 20
122.5471006564
 30
0.0
  0
SPLINE
  5
273
100
AcDbEntity
  8
00_COMPONENTS_1
100
AcDbSpline
 62
7
  6
CONTINUOUS
 70
0
 71
3
 72
20
 73
16
 74
0
 42
0.0000001
 43
0.0000001
 44
0.0000000001
 40
0.0
 40
0.0
 40
0.0
 40
0.0
 40
0.0108486113
 40
0.0185387077
 40
0.0281498768
 40
0.0535371906
 40
0.0873748951
 40
0.129592118
 40
0.1798863394
 40
0.2378795896
 40
0.3030574105
 40
0.4525467176
 40
0.6228863489
 40
0.8077839711
 40
1.0
 40
1.0
 40
1.0
 40
1.0
 10
36.5191454006
 20
126.5470901346
 30
0.0
 10
36.5338686104
 20
126.5470869012
 30
0.0
 10
36.5577741147
 20
126.5320117101
 30
0.0
 10
36.581184831
 20
126.5023870653
 30
0.0
 10
36.6109443762
 20
126.4522511928
 30
0.0
 10
36.6457490456
 20
126.3653029009
 30
0.0
 10
36.6852904566
 20
126.2333284546
 30
0.0
 10
36.7242702671
 20
126.0662599943
 30
0.0
 10
36.7624016155
 20
125.8655541026
 30
0.0
 10
36.7989403518
 20
125.6329546768
 30
0.0
 10
36.8471145287
 20
125.2660325072
 30
0.0
 10
36.8982779692
 20
124.7458941377
 30
0.0
 10
36.9435677319
 20
124.0623125017
 30
0.0
 10
36.9719640457
 20
123.3197908917
 30
0.0
 10
36.9784106323
 20
122.8079669454
 30
0.0
 10
36.9784106323
 20
122.5471006564
 30
0.0
  0
SPLINE
  5
274
100
AcDbEntity
  8
00_COMPONENTS_1
100
AcDbSpline
 62
7
  6
CONTINUOUS
 70
0
 71
3
 72
21
 73
17
 74
0
 42
0.0000001
 43
0.0000001
 44
0.0000000001
 40
0.0
 40
0.0
 40
0.0
 40
0.0
 40
0.1944021516
 40
0.3814981077
 40
0.5537813149
 40
0.6323495141
 40
0.7048934068
 40
0.7707037226
 40
0.8291236112
 40
0.8795182872
 40
0.9213705454
 40
0.9544455196
 40
0.9785654807
 40
0.9935891353
 40
0.9977418583
 40
1.0
 40
1.0
 40
1.0
 40
1.0
 10
21.5795716991
 20
109.5471006564
 30
0.0
 10
21.5795716991
 20
109.7584847607
 30
0.0
 10
21.5771042089
 20
110.1733131322
 30
0.0
 10
21.5662946733
 20
110.7753864909
 30
0.0
 10
21.55171258
 20
111.2513837067
 30
0.0
 10
21.5370534646
 20
111.6027266698
 30
0.0
 10
21.5253797519
 20
111.838311213
 30
0.0
 10
21.512903369
 20
112.0519160367
 30
0.0
 10
21.4998679304
 20
112.241343754
 30
0.0
 10
21.4864962109
 20
112.4046542362
 30
0.0
 10
21.4730523504
 20
112.5402029879
 30
0.0
 10
21.4597064353
 20
112.6472604853
 30
0.0
 10
21.4471916256
 20
112.7244070546
 30
0.0
 10
21.4359209948
 20
112.770944273
 30
0.0
 10
21.4271298326
 20
112.7918844772
 30
0.0
 10
21.4213797715
 20
112.7975318111
 30
0.0
 10
21.4189248201
 20
112.7975788022
 30
0.0
  0
SPLINE
  5
275
100
AcDbEntity
  8
00_COMPONENTS_1
100
AcDbSpline
 62
7
  6
CONTINUOUS
 70
0
 71
3
 72
20
 73
16
 74
0
 42
0.0000001
 43
0.0000001
 44
0.0000000001
 40
0.0
 40
0.0
 40
0.0
 40
0.0
 40
0.1916215825
 40
0.3760035163
 40
0.5457869197
 40
0.6948517555
 40
0.7599177548
 40
0.8178505232
 40
0.8680869946
 40
0.910213704
 40
0.9441306193
 40
0.9698965228
 40
0.9798384195
 40
0.9879680462
 40
1.0
 40
1.0
 40
1.0
 40
1.0
 10
22.6320430237
 20
109.5471006564
 30
0.0
 10
22.6320430237
 20
109.7591704384
 30
0.0
 10
22.6264467774
 20
110.1753195417
 30
0.0
 10
22.601787051
 20
110.778926201
 30
0.0
 10
22.5623253016
 20
111.3345425922
 30
0.0
 10
22.5174990116
 20
111.7571868209
 30
0.0
 10
22.4750872781
 20
112.0553105035
 30
0.0
 10
22.442762067
 20
112.2443209465
 30
0.0
 10
22.4088873034
 20
112.407209866
 30
0.0
 10
22.3738933374
 20
112.5426056519
 30
0.0
 10
22.3381941097
 20
112.649565519
 30
0.0
 10
22.3065169122
 20
112.7201041382
 30
0.0
 10
22.2795776602
 20
112.7607777386
 30
0.0
 10
22.2576587497
 20
112.7855276597
 30
0.0
 10
22.2360998711
 20
112.7975081911
 30
0.0
 10
22.2227841984
 20
112.7975859696
 30
0.0
  0
SPLINE
  5
276
100
AcDbEntity
  8
00_COMPONENTS_1
100
AcDbSpline
 62
7
  6
CONTINUOUS
 70
0
 71
3
 72
21
 73
17
 74
0
 42
0.0000001
 43
0.0000001
 44
0.0000000001
 40
0.0
 40
0.0
 40
0.0
 40
0.0
 40
0.1943963046
 40
0.3815374949
 40
0.5538242521
 40
0.632343434
 40
0.7048452161
 40
0.7706494695
 40
0.8290796397
 40
0.8794656241
 40
0.9213225963
 40
0.9544261701
 40
0.9785832175
 40
0.9936182808
 40
0.9977591772
 40
1.0
 40
1.0
 40
1.0
 40
1.0
 10
21.5795716991
 20
70.9471006564
 30
0.0
 10
21.5795716991
 20
71.1584837198
 30
0.0
 10
21.5770843012
 20
71.573365237
 30
0.0
 10
21.5662947971
 20
72.1755005445
 30
0.0
 10
21.5517379503
 20
72.6515104879
 30
0.0
 10
21.5370590408
 20
73.0027662172
 30
0.0
 10
21.5253732026
 20
73.2382502684
 30
0.0
 10
21.5128961053
 20
73.4518190976
 30
0.0
 10
21.4998702827
 20
73.6412474229
 30
0.0
 10
21.4864948348
 20
73.8045685865
 30
0.0
 10
21.4730505781
 20
73.9401477121
 30
0.0
 10
21.4596908174
 20
74.0472834382
 30
0.0
 10
21.4472145461
 20
74.1245210062
 30
0.0
 10
21.4359048795
 20
74.1710978308
 30
0.0
 10
21.4271653799
 20
74.1920272575
 30
0.0
 10
21.4213610574
 20
74.1976216733
 30
0.0
 10
21.4189244389
 20
74.1976139909
 30
0.0
  0
SPLINE
  5
277
100
AcDbEntity
  8
00_COMPONENTS_1
100
AcDbSpline
 62
7
  6
CONTINUOUS
 70
0
 71
3
 72
19
 73
15
 74
0
 42
0.0000001
 43
0.0000001
 44
0.0000000001
 40
0.0
 40
0.0
 40
0.0
 40
0.0
 40
0.3760107291
 40
0.5458006561
 40
0.6947907456
 40
0.7598501912
 40
0.8177872599
 40
0.8680116024
 40
0.9101508063
 40
0.9441054535
 40
0.9699092605
 40
0.979859302
 40
0.9879876499
 40
1.0
 40
1.0
 40
1.0
 40
1.0
 10
22.6320430237
 20
70.9471006564
 30
0.0
 10
22.6320430237
 20
71.3632337676
 30
0.0
 10
22.6167010833
 20
71.9675140419
 30
0.0
 10
22.5624050162
 20
72.7346125326
 30
0.0
 10
22.5174853614
 20
73.1571668663
 30
0.0
 10
22.4750785079
 20
73.455202269
 30
0.0
 10
22.4427732827
 20
73.644199299
 30
0.0
 10
22.4088817616
 20
73.807089109
 30
0.0
 10
22.3738814159
 20
73.9425258238
 30
0.0
 10
22.3381841691
 20
74.0495865222
 30
0.0
 10
22.306536135
 20
74.1202387349
 30
0.0
 10
22.2795889467
 20
74.1609697585
 30
0.0
 10
22.2576915125
 20
74.1857130488
 30
0.0
 10
22.2360779488
 20
74.197634417
 30
0.0
 10
22.222783847
 20
74.1976056363
 30
0.0
  0
SPLINE
  5
278
100
AcDbEntity
  8
00_COMPONENTS_1
100
AcDbSpline
 62
7
  6
CONTINUOUS
 70
0
 71
3
 72
20
 73
16
 74
0
 42
0.0000001
 43
0.0000001
 44
0.0000000001
 40
0.0
 40
0.0
 40
0.0
 40
0.0
 40
0.1922359229
 40
0.3771676416
 40
0.5475060083
 40
0.6969904997
 40
0.7621554385
 40
0.8201454096
 40
0.8704330763
 40
0.9126411271
 40
0.9464787356
 40
0.9718554273
 40
0.9814645005
 40
0.989157004
 40
1.0
 40
1.0
 40
1.0
 40
1.0
 10
36.9784106323
 20
57.7471006564
 30
0.0
 10
36.9784106323
 20
57.4862083696
 30
0.0
 10
36.9719305751
 20
56.9743135319
 30
0.0
 10
36.9435542067
 20
56.2317229601
 30
0.0
 10
36.89828727
 20
55.5481040203
 30
0.0
 10
36.8471078041
 20
55.0279945879
 30
0.0
 10
36.7989098629
 20
54.6611056999
 30
0.0
 10
36.7623719424
 20
54.4285385324
 30
0.0
 10
36.7242533485
 20
54.2278570552
 30
0.0
 10
36.6852727054
 20
54.0608118319
 30
0.0
 10
36.6457462414
 20
53.9288612373
 30
0.0
 10
36.6109256569
 20
53.8419372649
 30
0.0
 10
36.5811573674
 20
53.7918235067
 30
0.0
 10
36.5577674383
 20
53.7621959003
 30
0.0
 10
36.5338671647
 20
53.7471083959
 30
0.0
 10
36.5191516323
 20
53.7471117289
 30
0.0
  0
SPLINE
  5
279
100
AcDbEntity
  8
00_COMPONENTS_1
100
AcDbSpline
 62
7
  6
CONTINUOUS
 70
0
 71
3
 72
28
 73
24
 74
0
 42
0.0000001
 43
0.0000001
 44
0.0000000001
 40
0.0
 40
0.0
 40
0.0
 40
0.0
 40
0.1950415235
 40
0.3827042166
 40
0.4713990598
 40
0.5555503514
 40
0.634368908
 40
0.7070822957
 40
0.7729883625
 40
0.8314628604
 40
0.8819117333
 40
0.9238744237
 40
0.94154274
 40
0.9569360024
 40
0.970022852
 40
0.980777674
 40
0.9891748556
 40
0.9924813269
 40
0.9951887827
 40
0.9972945237
 40
0.9987981427
 40
0.9996998858
 40
1.0
 40
1.0
 40
1.0
 40
1.0
 10
35.8758071868
 20
57.7471006564
 30
0.0
 10
35.8758071868
 20
57.4870109697
 30
0.0
 10
35.874379437
 20
56.9766702671
 30
0.0
 10
35.8692069561
 20
56.3480734589
 30
0.0
 10
35.8633621793
 20
55.8673666667
 30
0.0
 10
35.8584385233
 20
55.5318052336
 30
0.0
 10
35.8530980223
 20
55.2175645647
 30
0.0
 10
35.8475521411
 20
54.9276617989
 30
0.0
 10
35.8420092103
 20
54.6648934547
 30
0.0
 10
35.8366792711
 20
54.4318176805
 30
0.0
 10
35.8317643331
 20
54.2306694329
 30
0.0
 10
35.8279787859
 20
54.083926282
 30
0.0
 10
35.8253130991
 20
53.9839152235
 30
0.0
 10
35.8236501798
 20
53.9224007261
 30
0.0
 10
35.8222122052
 20
53.8700932966
 30
0.0
 10
35.8210303006
 20
53.8271383362
 30
0.0
 10
35.8201667645
 20
53.7971570962
 30
0.0
 10
35.8196641131
 20
53.7780153094
 30
0.0
 10
35.819280516
 20
53.7670492134
 30
0.0
 10
35.8192492154
 20
53.7589974103
 30
0.0
 10
35.8186199598
 20
53.7521510431
 30
0.0
 10
35.8193309971
 20
53.7500046799
 30
0.0
 10
35.8184506817
 20
53.746892739
 30
0.0
 10
35.8187854296
 20
53.7471120742
 30
0.0
  0
SPLINE
  5
27A
100
AcDbEntity
  8
00_COMPONENTS_1
100
AcDbSpline
 62
7
  6
CONTINUOUS
 70
0
 71
3
 72
20
 73
16
 74
0
 42
0.0000001
 43
0.0000001
 44
0.0000000001
 40
0.0
 40
0.0
 40
0.0
 40
0.0
 40
0.0118510338
 40
0.0198176319
 40
0.0295841591
 40
0.0550037164
 40
0.0886139087
 40
0.1305062767
 40
0.1806092206
 40
0.2385102559
 40
0.3036050417
 40
0.4528388851
 40
0.6230350449
 40
0.8079198836
 40
1.0
 40
1.0
 40
1.0
 40
1.0
 10
22.222783847
 20
74.1976056363
 30
0.0
 10
22.2097153821
 20
74.197577344
 30
0.0
 10
22.1885103553
 20
74.1857228763
 30
0.0
 10
22.167713446
 20
74.160882278
 30
0.0
 10
22.142598656
 20
74.1201474669
 30
0.0
 10
22.1141581654
 20
74.0494958422
 30
0.0
 10
22.0832401738
 20
73.942508102
 30
0.0
 10
22.0540335774
 20
73.8070212647
 30
0.0
 10
22.0267500286
 20
73.6439586187
 30
0.0
 10
22.0015864312
 20
73.4547141887
 30
0.0
 10
21.9695664272
 20
73.1562078877
 30
0.0
 10
21.9373390617
 20
72.7333138029
 30
0.0
 10
21.910314657
 20
72.1778024529
 30
0.0
 10
21.893986353
 20
71.5746129286
 30
0.0
 10
21.8903074459
 20
71.1589132456
 30
0.0
 10
21.8903074459
 20
70.9471006564
 30
0.0
  0
SPLINE
  5
27B
100
AcDbEntity
  8
00_COMPONENTS_1
100
AcDbSpline
 62
7
  6
CONTINUOUS
 70
0
 71
3
 72
21
 73
17
 74
0
 42
0.0000001
 43
0.0000001
 44
0.0000000001
 40
0.0
 40
0.0
 40
0.0
 40
0.0
 40
0.0022012336
 40
0.0062757077
 40
0.0211638041
 40
0.0451708284
 40
0.0781412747
 40
0.1199104222
 40
0.1702667932
 40
0.2286960834
 40
0.2945203473
 40
0.367059144
 40
0.4456348062
 40
0.6180937347
 40
0.8054256811
 40
1.0
 40
1.0
 40
1.0
 40
1.0
 10
21.4189244389
 20
74.1976139909
 30
0.0
 10
21.4165340157
 20
74.1976064541
 30
0.0
 10
21.4108985151
 20
74.1919799602
 30
0.0
 10
21.403182161
 20
74.1709427641
 30
0.0
 10
21.3939220283
 20
74.1244145297
 30
0.0
 10
21.3849553883
 20
74.0472449963
 30
0.0
 10
21.3762888444
 20
73.9401845896
 30
0.0
 10
21.3685510669
 20
73.8046109266
 30
0.0
 10
21.3616716441
 20
73.6412345758
 30
0.0
 10
21.3556857689
 20
73.4517158476
 30
0.0
 10
21.3505358636
 20
73.2380670002
 30
0.0
 10
21.3461922801
 20
73.002521659
 30
0.0
 10
21.3412503532
 20
72.6511699837
 30
0.0
 10
21.3370510007
 20
72.1751405592
 30
0.0
 10
21.334327909
 20
71.5731314847
 30
0.0
 10
21.3337458942
 20
71.1583991162
 30
0.0
 10
21.3337458942
 20
70.9471006564
 30
0.0
  0
SPLINE
  5
27C
100
AcDbEntity
  8
00_COMPONENTS_1
100
AcDbSpline
 62
7
  6
CONTINUOUS
 70
0
 71
3
 72
20
 73
16
 74
0
 42
0.0000001
 43
0.0000001
 44
0.0000000001
 40
0.0
 40
0.0
 40
0.0
 40
0.0
 40
0.0106322291
 40
0.0181319412
 40
0.0275398235
 40
0.0525339789
 40
0.086037644
 40
0.128004948
 40
0.1781437682
 40
0.2360780946
 40
0.3012857014
 40
0.4510463895
 40
0.621833366
 40
0.8072501301
 40
1.0
 40
1.0
 40
1.0
 40
1.0
 10
36.5191516323
 20
53.7471117289
 30
0.0
 10
36.504779375
 20
53.747114984
 30
0.0
 10
36.4814326134
 20
53.7620655544
 30
0.0
 10
36.4597167083
 20
53.7918085929
 30
0.0
 10
36.4327246704
 20
53.8420139654
 30
0.0
 10
36.4027751753
 20
53.9290669732
 30
0.0
 10
36.3703890141
 20
54.0610399534
 30
0.0
 10
36.3401840991
 20
54.228210331
 30
0.0
 10
36.3120259573
 20
54.4290955058
 30
0.0
 10
36.286288199
 20
54.6619390274
 30
0.0
 10
36.2538006204
 20
55.0294264841
 30
0.0
 10
36.2217188912
 20
55.5499717833
 30
0.0
 10
36.1951175307
 20
56.2334334542
 30
0.0
 10
36.1791837706
 20
56.9753496211
 30
0.0
 10
36.1756555228
 20
57.4865484465
 30
0.0
 10
36.1756555228
 20
57.7471006564
 30
0.0
  0
SPLINE
  5
27D
100
AcDbEntity
  8
00_COMPONENTS_1
100
AcDbSpline
 62
7
  6
CONTINUOUS
 70
0
 71
3
 72
20
 73
16
 74
0
 42
0.0000001
 43
0.0000001
 44
0.0000000001
 40
0.0
 40
0.0
 40
0.0
 40
0.0
 40
0.0106368989
 40
0.0181429017
 40
0.0275588183
 40
0.0525707832
 40
0.0860897283
 40
0.1280519774
 40
0.1781698977
 40
0.2360754978
 40
0.3012536916
 40
0.4510239669
 40
0.6218299413
 40
0.8072492787
 40
1.0
 40
1.0
 40
1.0
 40
1.0
 10
36.5191330347
 20
61.7471318854
 30
0.0
 10
36.5047543619
 20
61.7471424538
 30
0.0
 10
36.4813762564
 20
61.7321911586
 30
0.0
 10
36.4596756994
 20
61.7024034899
 30
0.0
 10
36.4327037821
 20
61.6521384094
 30
0.0
 10
36.4027951677
 20
61.5650123476
 30
0.0
 10
36.3704368572
 20
61.4329944675
 30
0.0
 10
36.3401951053
 20
61.2658449348
 30
0.0
 10
36.3120005785
 20
61.0650375139
 30
0.0
 10
36.2862622311
 20
60.8322995536
 30
0.0
 10
36.2537960404
 20
60.4648732002
 30
0.0
 10
36.2217584894
 20
59.9443226168
 30
0.0
 10
36.1951330702
 20
59.2608150568
 30
0.0
 10
36.1791836571
 20
58.5188631953
 30
0.0
 10
36.1756555228
 20
58.0076559488
 30
0.0
 10
36.1756555228
 20
57.7471006564
 30
0.0
  0
SPLINE
  5
27E
100
AcDbEntity
  8
00_COMPONENTS_1
100
AcDbSpline
 62
7
  6
CONTINUOUS
 70
0
 71
3
 72
20
 73
16
 74
0
 42
0.0000001
 43
0.0000001
 44
0.0000000001
 40
0.0
 40
0.0
 40
0.0
 40
0.0
 40
0.1927690247
 40
0.3782204221
 40
0.5490055276
 40
0.6987602325
 40
0.7639537463
 40
0.8218845426
 40
0.8720165648
 40
0.9139739378
 40
0.9474755874
 40
0.9724560964
 40
0.9818611099
 40
0.989363787
 40
1.0
 40
1.0
 40
1.0
 40
1.0
 10
36.1756555228
 20
122.5471006564
 30
0.0
 10
36.1756555228
 20
122.8076793218
 30
0.0
 10
36.1792069793
 20
123.318951739
 30
0.0
 10
36.1951171544
 20
124.060940108
 30
0.0
 10
36.2217212148
 20
124.7444394895
 30
0.0
 10
36.253803536
 20
125.264956243
 30
0.0
 10
36.2862993526
 20
125.6324117726
 30
0.0
 10
36.3120389947
 20
125.8652223116
 30
0.0
 10
36.3402092846
 20
126.066079055
 30
0.0
 10
36.370431181
 20
126.2332200927
 30
0.0
 10
36.4027654302
 20
126.3651693736
 30
0.0
 10
36.4327056046
 20
126.4522023185
 30
0.0
 10
36.4596981493
 20
126.5023848848
 30
0.0
 10
36.4814020048
 20
126.5321441638
 30
0.0
 10
36.504767727
 20
126.5470932921
 30
0.0
 10
36.5191454006
 20
126.5470901346
 30
0.0
  0
SPLINE
  5
27F
100
AcDbEntity
  8
00_COMPONENTS_1
100
AcDbSpline
 62
7
  6
CONTINUOUS
 70
0
 71
3
 72
21
 73
17
 74
0
 42
0.0000001
 43
0.0000001
 44
0.0000000001
 40
0.0
 40
0.0
 40
0.0
 40
0.0
 40
0.1945795611
 40
0.3819007279
 40
0.5543439144
 40
0.6329211944
 40
0.7054617503
 40
0.7712814353
 40
0.829699676
 40
0.8800425992
 40
0.9218231298
 40
0.9548200189
 40
0.9788461802
 40
0.993734985
 40
0.9978041304
 40
1.0
 40
1.0
 40
1.0
 40
1.0
 10
21.3337458942
 20
109.5471006564
 30
0.0
 10
21.3337458942
 20
109.3357955212
 30
0.0
 10
21.3343275077
 20
108.9210672365
 30
0.0
 10
21.3370512525
 20
108.3190784717
 30
0.0
 10
21.3412507835
 20
107.8430738842
 30
0.0
 10
21.3461906734
 20
107.4917339788
 30
0.0
 10
21.3505329509
 20
107.2561888155
 30
0.0
 10
21.3556823486
 20
107.0425540459
 30
0.0
 10
21.3616671861
 20
106.8530659312
 30
0.0
 10
21.3685519758
 20
106.6897034284
 30
0.0
 10
21.3762888407
 20
106.5541023042
 30
0.0
 10
21.384955761
 20
106.4469800605
 30
0.0
 10
21.393913151
 20
106.3697572187
 30
0.0
 10
21.4031854172
 20
106.3232166412
 30
0.0
 10
21.4108884978
 20
106.3021850652
 30
0.0
 10
21.4165397817
 20
106.2965802651
 30
0.0
 10
21.418924392
 20
106.2965874236
 30
0.0
  0
SPLINE
  5
280
100
AcDbEntity
  8
00_COMPONENTS_1
100
AcDbSpline
 62
7
  6
CONTINUOUS
 70
0
 71
3
 72
20
 73
16
 74
0
 42
0.0000001
 43
0.0000001
 44
0.0000000001
 40
0.0
 40
0.0
 40
0.0
 40
0.0
 40
0.0118259037
 40
0.0197865394
 40
0.0295585842
 40
0.0550243775
 40
0.0886954512
 40
0.1306075442
 40
0.1806569838
 40
0.2385035926
 40
0.3035752432
 40
0.4528761866
 40
0.6230525943
 40
0.8078884434
 40
1.0
 40
1.0
 40
1.0
 40
1.0
 10
22.2227841984
 20
112.7975859696
 30
0.0
 10
22.2097432822
 20
112.7976621432
 30
0.0
 10
22.188477694
 20
112.785913234
 30
0.0
 10
22.1677034785
 20
112.7610873982
 30
0.0
 10
22.1425782867
 20
112.7202973277
 30
0.0
 10
22.1141633488
 20
112.6494968592
 30
0.0
 10
22.0832637083
 20
112.5423580845
 30
0.0
 10
22.0540576123
 20
112.4068374846
 30
0.0
 10
22.0267276259
 20
112.2438770795
 30
0.0
 10
22.0015593453
 20
112.0547732195
 30
0.0
 10
21.9695374481
 20
111.7562702896
 30
0.0
 10
21.9373933359
 20
111.3333313299
 30
0.0
 10
21.9103220476
 20
110.7778101958
 30
0.0
 10
21.8939605818
 20
110.1746455132
 30
0.0
 10
21.8903074459
 20
109.7589536793
 30
0.0
 10
21.8903074459
 20
109.5471006564
 30
0.0
  0
SPLINE
  5
281
100
AcDbEntity
  8
00_COMPONENTS_1
100
AcDbSpline
 62
7
  6
CONTINUOUS
 70
0
 71
3
 72
20
 73
16
 74
0
 42
0.0000001
 43
0.0000001
 44
0.0000000001
 40
0.0
 40
0.0
 40
0.0
 40
0.0
 40
0.1920909695
 40
0.3769878261
 40
0.5471788845
 40
0.6963916421
 40
0.7614728977
 40
0.819359627
 40
0.8694495621
 40
0.9113507954
 40
0.9449823786
 40
0.9704173002
 40
0.9801862346
 40
0.988152519
 40
1.0
 40
1.0
 40
1.0
 40
1.0
 10
21.8903074459
 20
109.5471006564
 30
0.0
 10
21.8903074459
 20
109.33527472
 30
0.0
 10
21.8939896328
 20
108.9195471191
 30
0.0
 10
21.9103194855
 20
108.3163341617
 30
0.0
 10
21.9373376904
 20
107.7608345311
 30
0.0
 10
21.9695632993
 20
107.3379813918
 30
0.0
 10
22.0015793569
 20
107.0395270276
 30
0.0
 10
22.0267381347
 20
106.8503259979
 30
0.0
 10
22.0540323147
 20
106.6872847051
 30
0.0
 10
22.0832397169
 20
106.5517779713
 30
0.0
 10
22.1141518376
 20
106.4447361391
 30
0.0
 10
22.1425881794
 20
106.3740351283
 30
0.0
 10
22.1677085264
 20
106.333280237
 30
0.0
 10
22.1885037306
 20
106.3084401355
 30
0.0
 10
22.2097190865
 20
106.2965999206
 30
0.0
 10
22.2227837447
 20
106.2965888163
 30
0.0
  0
SPLINE
  5
282
100
AcDbEntity
  8
00_COMPONENTS_1
100
AcDbSpline
 62
7
  6
CONTINUOUS
 70
0
 71
3
 72
20
 73
16
 74
0
 42
0.0000001
 43
0.0000001
 44
0.0000000001
 40
0.0
 40
0.0
 40
0.0
 40
0.0
 40
0.1927634049
 40
0.3781894009
 40
0.5489860165
 40
0.698749914
 40
0.7639312757
 40
0.821837675
 40
0.8719556932
 40
0.9139151821
 40
0.9474266876
 40
0.9724349485
 40
0.981850479
 40
0.9893574554
 40
1.0
 40
1.0
 40
1.0
 40
1.0
 10
36.1756555228
 20
122.5471006564
 30
0.0
 10
36.1756555228
 20
122.2865296832
 30
0.0
 10
36.1791866165
 20
121.7752991787
 30
0.0
 10
36.1951349494
 20
121.0333380028
 30
0.0
 10
36.2217605071
 20
120.3498464905
 30
0.0
 10
36.2538003585
 20
119.8293161493
 30
0.0
 10
36.2862574598
 20
119.461894353
 30
0.0
 10
36.3119949382
 20
119.2291520596
 30
0.0
 10
36.3401882678
 20
119.0283481763
 30
0.0
 10
36.3704276565
 20
118.8612130124
 30
0.0
 10
36.4027928886
 20
118.7292164361
 30
0.0
 10
36.4327031139
 20
118.6421089442
 30
0.0
 10
36.4596734218
 20
118.5918474204
 30
0.0
 10
36.481385109
 20
118.5620587705
 30
0.0
 10
36.5047468251
 20
118.547080405
 30
0.0
 10
36.5191330476
 20
118.547068325
 30
0.0
  0
SPLINE
  5
283
100
AcDbEntity
  8
00_COMPONENTS_1
100
AcDbSpline
 62
7
  6
CONTINUOUS
 70
0
 71
3
 72
21
 73
17
 74
0
 42
0.0000001
 43
0.0000001
 44
0.0000000001
 40
0.0
 40
0.0
 40
0.0
 40
0.0
 40
0.0021796784
 40
0.0062317631
 40
0.0211156336
 40
0.0451736154
 40
0.0782145657
 40
0.1200105431
 40
0.170313804
 40
0.228690008
 40
0.2944986684
 40
0.36707689
 40
0.4457067964
 40
0.6181364535
 40
0.8053981498
 40
1.0
 40
1.0
 40
1.0
 40
1.0
 10
21.4189248201
 20
112.7975788022
 30
0.0
 10
21.4165582046
 20
112.7976241024
 30
0.0
 10
21.4108568623
 20
112.7921029971
 30
0.0
 10
21.4031974015
 20
112.7710794165
 30
0.0
 10
21.3938928194
 20
112.7245556732
 30
0.0
 10
21.3849633201
 20
112.6472382902
 30
0.0
 10
21.3762913852
 20
112.5400226252
 30
0.0
 10
21.3685595409
 20
112.4043966153
 30
0.0
 10
21.3616631497
 20
112.2411067999
 30
0.0
 10
21.3556772844
 20
112.0517182327
 30
0.0
 10
21.3505281442
 20
111.8380992923
 30
0.0
 10
21.3461907266
 20
111.602466816
 30
0.0
 10
21.3412590194
 20
111.251041829
 30
0.0
 10
21.3370523597
 20
110.7750572614
 30
0.0
 10
21.3343223632
 20
110.1731207972
 30
0.0
 10
21.3337458942
 20
109.7584309711
 30
0.0
 10
21.3337458942
 20
109.5471006564
 30
0.0
  0
SPLINE
  5
284
100
AcDbEntity
  8
00_COMPONENTS_1
100
AcDbSpline
 62
7
  6
CONTINUOUS
 70
0
 71
3
 72
21
 73
17
 74
0
 42
0.0000001
 43
0.0000001
 44
0.0000000001
 40
0.0
 40
0.0
 40
0.0
 40
0.0
 40
0.1946033616
 40
0.3818911542
 40
0.5543084767
 40
0.6329170623
 40
0.7054850534
 40
0.7713047143
 40
0.8297068904
 40
0.8800379587
 40
0.9218151138
 40
0.9548113135
 40
0.9788357611
 40
0.9937265057
 40
0.9977997107
 40
1.0
 40
1.0
 40
1.0
 40
1.0
 10
21.3337458942
 20
70.9471006564
 30
0.0
 10
21.3337458942
 20
70.7357696515
 30
0.0
 10
21.3343223611
 20
70.3210517107
 30
0.0
 10
21.3370521687
 20
69.7191013698
 30
0.0
 10
21.3412577317
 20
69.2431271434
 30
0.0
 10
21.3461920733
 20
68.8917514219
 30
0.0
 10
21.3505305041
 20
68.6561423872
 30
0.0
 10
21.355679219
 20
68.4424952325
 30
0.0
 10
21.3616659315
 20
68.2530375373
 30
0.0
 10
21.3685513675
 20
68.0897089897
 30
0.0
 10
21.376289607
 20
67.954125451
 30
0.0
 10
21.3849532996
 20
67.8470087731
 30
0.0
 10
21.3939173185
 20
67.7697880433
 30
0.0
 10
21.4031801721
 20
67.723240068
 30
0.0
 10
21.4108969669
 20
67.7022010073
 30
0.0
 10
21.4165349875
 20
67.6965799877
 30
0.0
 10
21.4189244018
 20
67.6965743479
 30
0.0
  0
SPLINE
  5
285
100
AcDbEntity
  8
00_COMPONENTS_1
100
AcDbSpline
 62
7
  6
CONTINUOUS
 70
0
 71
3
 72
20
 73
16
 74
0
 42
0.0000001
 43
0.0000001
 44
0.0000000001
 40
0.0
 40
0.0
 40
0.0
 40
0.0
 40
0.1921017623
 40
0.3769653547
 40
0.5471506921
 40
0.6964348418
 40
0.7615241084
 40
0.8194071621
 40
0.8695062393
 40
0.9114004029
 40
0.945005688
 40
0.9704130117
 40
0.9801756085
 40
0.9881418337
 40
1.0
 40
1.0
 40
1.0
 40
1.0
 10
21.8903074459
 20
70.9471006564
 30
0.0
 10
21.8903074459
 20
70.7352670407
 30
0.0
 10
21.8939629148
 20
70.3195722998
 30
0.0
 10
21.9103185612
 20
69.7164025422
 30
0.0
 10
21.93738033
 20
69.1608811178
 30
0.0
 10
21.9695569027
 20
68.7379514291
 30
0.0
 10
22.001575458
 20
68.439418968
 30
0.0
 10
22.0267497973
 20
68.2502089969
 30
0.0
 10
22.0540325423
 20
68.0871710153
 30
0.0
 10
22.083237178
 20
67.9516935296
 30
0.0
 10
22.114153081
 20
67.8447241777
 30
0.0
 10
22.1426014881
 20
67.7741007579
 30
0.0
 10
22.1677171353
 20
67.7333898506
 30
0.0
 10
22.1885258325
 20
67.7085523188
 30
0.0
 10
22.2097080148
 20
67.6966816004
 30
0.0
 10
22.2227840057
 20
67.6966102985
 30
0.0
  0
ENDSEC
  0
SECTION
  2
OBJECTS
  0
DICTIONARY
  5
C
100
AcDbDictionary
280
0
281
1
  3
ACAD_GROUP
350
D
  3
ACAD_MLINESTYLE
350
17
  3
ACAD_LAYOUT
350
1A
  3
ACAD_PLOTSETTINGS
350
19
  3
ACAD_PLOTSTYLENAME
350
E
  0
DICTIONARY
  5
D
102
{ACAD_REACTORS
330
C
102
}
100
AcDbDictionary
280
0
281
1
  0
ACDBDICTIONARYWDFLT
  5
E
102
{ACAD_REACTORS
330
C
102
}
100
AcDbDictionary
281
1
  3
Normal
350
F
100
AcDbDictionaryWithDefault
340
F
  0
DICTIONARY
  5
17
102
{ACAD_REACTORS
330
C
102
}
100
AcDbDictionary
280
0
281
1
  3
Standard
350
18
  0
DICTIONARY
  5
19
102
{ACAD_REACTORS
330
C
102
}
100
AcDbDictionary
281
1
  0
DICTIONARY
  5
1A
102
{ACAD_REACTORS
330
C
102
}
100
AcDbDictionary
281
1
  3
Model
350
286
  3
Layout1
350
287
  0
ACDBPLACEHOLDER
  5
F
102
{ACAD_REACTORS
330
E
102
}
  0
MLINESTYLE
  5
18
102
{ACAD_REACTORS
330
17
102
}
100
AcDbMlineStyle
  2
STANDARD
 70
0
  3

 62
256
 51
90.0
 52
90.0
 71
2
 49
0.5
 62
256
  6
BYLAYER
 49
-0.5
 62
256
  6
BYLAYER
  0
LAYOUT
  5
286
102
{ACAD_REACTORS
330
1A
102
}
100
AcDbPlotSettings
  1

  2
none_device
  4

  6

 40
0.0
 41
0.0
 42
0.0
 43
0.0
 44
210.0
 45
297.0
 46
0.0
 47
0.0
 48
0.0
 49
0.0
140
0.0
141
0.0
142
1.0
143
1.0
 70
1024
 72
1
 73
0
 74
0
  7

 75
0
147
1.0
148
0.0
149
0.0
100
AcDbLayout
  1
Model
 70
0
 71
0
 10
0.0
 20
0.0
 11
210.0
 21
297.0
 12
0.0
 22
0.0
 32
0.0
 14
0.0
 24
0.0
 34
0.0
 15
0.0
 25
0.0
 35
0.0
146
0.0
 13
0.0
 23
0.0
 33
0.0
 16
1.0
 26
0.0
 36
0.0
 17
0.0
 27
1.0
 37
0.0
 76
0
330
216
345
0
346
0
  0
LAYOUT
  5
287
102
{ACAD_REACTORS
330
1A
102
}
100
AcDbPlotSettings
  1

  2
none_device
  4

  6

 40
0.0
 41
0.0
 42
0.0
 43
0.0
 44
210.0
 45
297.0
 46
0.0
 47
0.0
 48
0.0
 49
0.0
140
0.0
141
0.0
142
1.0
143
1.0
 70
0
 72
1
 73
0
 74
0
  7

 75
0
147
1.0
148
0.0
149
0.0
100
AcDbLayout
  1
Layout1
 70
0
 71
1
 10
0.0
 20
0.0
 11
210.0
 21
297.0
 12
0.0
 22
0.0
 32
0.0
 14
0.0
 24
0.0
 34
0.0
 15
0.0
 25
0.0
 35
0.0
146
0.0
 13
0.0
 23
0.0
 33
0.0
 16
1.0
 26
0.0
 36
0.0
 17
0.0
 27
1.0
 37
0.0
 76
0
330
217
345
0
346
0
  0
ENDSEC
  0
EOF
