999
DXF file: C:\Users\sesa63760\Dev\_Creo\CAD\MCADID0001742_3D-CAD\drw0001_7.dxf
999
Pro/ENGINEER 2019471 by Parametric Technology Corporation
  0
SECTION
  2
HEADER
  9
$ACADVER
  1
AC1024
  9
$DWGCODEPAGE
  3
ANSI_1252
  9
$EXTMAX
 10
90.9956766107
 20
128.6938854922
 30
0.0
  9
$EXTMIN
 10
0.0
 20
0.0
 30
0.0
  9
$LIMMIN
 10
0.0
 20
0.0
  9
$LIMMAX
 10
90.9956766107
 20
128.6938854922
  9
$VIEWCTR
 10
45.4978383053
 20
64.3469427461
  9
$VIEWSIZE
 40
128.6938854922
  9
$CLAYER
  8
0
  9
$LTSCALE
 40
8.388934758
  9
$CELTYPE
  6
BYLAYER
  9
$DIMSCALE
 40
1.0
  9
$DIMASZ
 40
1.0832818644
  9
$DIMEXO
 40
1.0
  9
$DIMDLI
 40
5.7959912874
  9
$DIMEXE
 40
1.0
  9
$DIMCEN
 40
1.3727347786
  9
$DIMLFAC
 40
1.0
  9
$DIMBLK
  1
_FILLED
  9
$DIMALT
 70
0
  9
$DIMALTF
 40
0.0393700787
  9
$DIMTXT
 40
1.5165946102
  9
$DIMTOL
 70
1
  9
$DIMLIM
 70
0
  9
$DIMTFAC
 40
1.0
  9
$DIMTP
 40
0.01
  9
$DIMTM
 40
0.01
  9
$DIMGAP
 40
0.625
  9
$DIMDSEP
 70
46
  9
$AUNITS
 70
0
  9
$PDMODE
 70
3
  9
$PDSIZE
 40
0.3125
  9
$HANDSEED
  5
345
  9
$TILEMODE
 70
1
  9
$MEASUREMENT
 70
1
  9
$INSUNITS
 70
4
  0
ENDSEC
  0
SECTION
  2
CLASSES
  0
CLASS
  1
ACDBDICTIONARYWDFLT
  2
AcDbDictionaryWithDefault
  3
AutoCAD 2000
 90
0
 91
1
280
0
281
0
  0
CLASS
  1
ACDBPLACEHOLDER
  2
AcDbPlaceHolder
  3
AutoCAD 2000
 90
0
 91
1
280
0
281
0
  0
CLASS
  1
LAYOUT
  2
AcDbLayout
  3
AutoCAD 2000
 90
0
 91
0
280
0
281
0
  0
ENDSEC
  0
SECTION
  2
TABLES
  0
TABLE
  2
VPORT
  5
8
100
AcDbSymbolTable
 70
2
  0
VPORT
  5
1F4
100
AcDbSymbolTableRecord
100
AcDbViewportTableRecord
  2
*ACTIVE
 70
0
 10
0.0
 20
0.0
 11
1.0
 21
1.0
 12
45.4978383053
 22
64.3469427461
 13
0.0
 23
0.0
 14
1.0
 24
1.0
 15
0.0
 25
0.0
 16
0.0
 26
0.0
 36
1.0
 17
0.0
 27
0.0
 37
0.0
 40
128.6938854922
 41
0.7070707071
 42
50.0
 43
0.0
 44
0.0
 50
0.0
 51
0.0
 71
0
 72
100
 73
1
 74
1
 75
0
 76
0
 77
0
 78
0
  0
ENDTAB
  0
TABLE
  2
LTYPE
  5
5
100
AcDbSymbolTable
 70
6
  0
LTYPE
  5
14
100
AcDbSymbolTableRecord
100
AcDbLinetypeTableRecord
  2
BYBLOCK
 70
0
  3

 72
65
 73
0
 40
0.0
  0
LTYPE
  5
15
100
AcDbSymbolTableRecord
100
AcDbLinetypeTableRecord
  2
BYLAYER
 70
0
  3

 72
65
 73
0
 40
0.0
  0
LTYPE
  5
16
100
AcDbSymbolTableRecord
100
AcDbLinetypeTableRecord
  2
CONTINUOUS
 70
64
  3
Solid line
 72
65
 73
0
 40
0.0
  0
LTYPE
  5
1F5
100
AcDbSymbolTableRecord
100
AcDbLinetypeTableRecord
  2
CENTER
 70
64
  3
____ _ ____ _ ____ _ ____ _ ____ _ ____ _ ____
 72
65
 73
4
 40
0.6
 49
0.375
 74
0
 49
-0.075
 74
0
 49
0.075
 74
0
 49
-0.075
 74
0
  0
LTYPE
  5
1F6
100
AcDbSymbolTableRecord
100
AcDbLinetypeTableRecord
  2
HIDDEN
 70
64
  3
- - - - - - - - - - - - - - - - - - - -
 72
65
 73
2
 40
0.2
 49
0.1
 74
0
 49
-0.1
 74
0
  0
LTYPE
  5
1F7
100
AcDbSymbolTableRecord
100
AcDbLinetypeTableRecord
  2
PHANTOM
 70
64
  3
_____ _ _ _____ _ _ _____ _ _ _____
 72
65
 73
6
 40
0.8
 49
0.45
 74
0
 49
-0.05
 74
0
 49
0.1
 74
0
 49
-0.05
 74
0
 49
0.1
 74
0
 49
-0.05
 74
0
  0
LTYPE
  5
1F8
100
AcDbSymbolTableRecord
100
AcDbLinetypeTableRecord
  2
DOT
 70
64
  3
. . . . . . . . . . . . . . . . . . . .
 72
65
 73
2
 40
0.2
 49
0.1
 74
0
 49
-0.1
 74
0
  0
LTYPE
  5
1F9
100
AcDbSymbolTableRecord
100
AcDbLinetypeTableRecord
  2
DASHED
 70
64
  3
- - - - - - - - - - - - - - - - - - - -
 72
65
 73
2
 40
0.2
 49
0.1
 74
0
 49
-0.1
 74
0
  0
ENDTAB
  0
TABLE
  2
LAYER
  5
2
100
AcDbSymbolTable
 70
36
  0
LAYER
  5
10
100
AcDbSymbolTableRecord
100
AcDbLayerTableRecord
  2
0
 70
0
 62
7
  6
CONTINUOUS
370
-3
390
F
  0
LAYER
  5
1FA
100
AcDbSymbolTableRecord
100
AcDbLayerTableRecord
  2
DEFAULT_1
 70
0
 62
7
  6
CENTER
370
-3
390
F
  0
LAYER
  5
1FB
100
AcDbSymbolTableRecord
100
AcDbLayerTableRecord
  2
DEFAULT_2
 70
0
 62
8
  6
HIDDEN
370
-3
390
F
  0
LAYER
  5
1FC
100
AcDbSymbolTableRecord
100
AcDbLayerTableRecord
  2
DEFAULT_3
 70
0
 62
7
  6
PHANTOM
370
-3
390
F
  0
LAYER
  5
1FD
100
AcDbSymbolTableRecord
100
AcDbLayerTableRecord
  2
00_COMPONENTS
 70
0
 62
7
  6
CONTINUOUS
370
-3
390
F
  0
LAYER
  5
1FE
100
AcDbSymbolTableRecord
100
AcDbLayerTableRecord
  2
01_1_DEFAULT_DATUMS
 70
0
 62
7
  6
CONTINUOUS
370
-3
390
F
  0
LAYER
  5
1FF
100
AcDbSymbolTableRecord
100
AcDbLayerTableRecord
  2
01_PLANES
 70
0
 62
7
  6
CONTINUOUS
370
-3
390
F
  0
LAYER
  5
200
100
AcDbSymbolTableRecord
100
AcDbLayerTableRecord
  2
02_COORD_SYS
 70
0
 62
7
  6
CONTINUOUS
370
-3
390
F
  0
LAYER
  5
201
100
AcDbSymbolTableRecord
100
AcDbLayerTableRecord
  2
03_AXES
 70
0
 62
7
  6
CONTINUOUS
370
-3
390
F
  0
LAYER
  5
202
100
AcDbSymbolTableRecord
100
AcDbLayerTableRecord
  2
04_POINTS
 70
0
 62
7
  6
CONTINUOUS
370
-3
390
F
  0
LAYER
  5
203
100
AcDbSymbolTableRecord
100
AcDbLayerTableRecord
  2
05_CURVES
 70
0
 62
7
  6
CONTINUOUS
370
-3
390
F
  0
LAYER
  5
204
100
AcDbSymbolTableRecord
100
AcDbLayerTableRecord
  2
06_SURFS
 70
0
 62
7
  6
CONTINUOUS
370
-3
390
F
  0
LAYER
  5
205
100
AcDbSymbolTableRecord
100
AcDbLayerTableRecord
  2
07_COSMETICS
 70
0
 62
7
  6
CONTINUOUS
370
-3
390
F
  0
LAYER
  5
206
100
AcDbSymbolTableRecord
100
AcDbLayerTableRecord
  2
10_NOTES
 70
0
 62
7
  6
CONTINUOUS
370
-3
390
F
  0
LAYER
  5
207
100
AcDbSymbolTableRecord
100
AcDbLayerTableRecord
  2
11_NOTES_PUB
 70
0
 62
7
  6
CONTINUOUS
370
-3
390
F
  0
LAYER
  5
208
100
AcDbSymbolTableRecord
100
AcDbLayerTableRecord
  2
13_REF_GTOL
 70
0
 62
7
  6
CONTINUOUS
370
-3
390
F
  0
LAYER
  5
209
100
AcDbSymbolTableRecord
100
AcDbLayerTableRecord
  2
16_MISC
 70
0
 62
7
  6
CONTINUOUS
370
-3
390
F
  0
LAYER
  5
20A
100
AcDbSymbolTableRecord
100
AcDbLayerTableRecord
  2
17_NO_PRINT
 70
0
 62
7
  6
CONTINUOUS
370
-3
390
F
  0
LAYER
  5
20B
100
AcDbSymbolTableRecord
100
AcDbLayerTableRecord
  2
18_DATUM_CAMS_JOINTS
 70
0
 62
7
  6
CONTINUOUS
370
-3
390
F
  0
LAYER
  5
20C
100
AcDbSymbolTableRecord
100
AcDbLayerTableRecord
  2
19_DATUM_FUNCTIONAL
 70
0
 62
7
  6
CONTINUOUS
370
-3
390
F
  0
LAYER
  5
20D
100
AcDbSymbolTableRecord
100
AcDbLayerTableRecord
  2
20_DATUM_KINEMATIC_SCHEME
 70
0
 62
7
  6
CONTINUOUS
370
-3
390
F
  0
ENDTAB
  0
TABLE
  2
STYLE
  5
3
100
AcDbSymbolTable
 70
1
  0
STYLE
  5
11
100
AcDbSymbolTableRecord
100
AcDbTextStyleTableRecord
  2
STANDARD
 70
0
 40
0.0
 41
0.8
 50
0.0
 71
0
 42
0.2
  3
txt
  4

  0
STYLE
  5
20E
100
AcDbSymbolTableRecord
100
AcDbTextStyleTableRecord
  2
TEXTSTYLE_1
 70
0
 40
0.0
 41
0.8
 50
0.0
 71
0
 42
0.2
  3
gdt
  4

  0
ENDTAB
  0
TABLE
  2
VIEW
  5
6
100
AcDbSymbolTable
 70
0
  0
ENDTAB
  0
TABLE
  2
UCS
  5
7
100
AcDbSymbolTable
 70
0
  0
ENDTAB
  0
TABLE
  2
APPID
  5
9
100
AcDbSymbolTable
 70
1
  0
APPID
  5
20F
100
AcDbSymbolTableRecord
100
AcDbRegAppTableRecord
  2
ACAD
 70
0
  0
ENDTAB
  0
TABLE
  2
BLOCK_RECORD
  5
1
100
AcDbSymbolTable
 70
0
  0
BLOCK_RECORD
  5
210
100
AcDbSymbolTableRecord
100
AcDbBlockTableRecord
  2
*Model_Space
  0
BLOCK_RECORD
  5
211
100
AcDbSymbolTableRecord
100
AcDbBlockTableRecord
  2
*Paper_Space
  0
BLOCK_RECORD
  5
212
100
AcDbSymbolTableRecord
100
AcDbBlockTableRecord
  2
_FILLED
  0
ENDTAB
  0
TABLE
  2
DIMSTYLE
  5
A
100
AcDbSymbolTable
 70
1
100
AcDbDimStyleTable
 71
0
  0
DIMSTYLE
105
213
100
AcDbSymbolTableRecord
100
AcDbDimStyleTableRecord
  2
STANDARD
 70
0
  3

  4

 40
1.0
 41
1.0832818644
 42
1.0
 43
0.38
 44
1.0
 45
0.0
 46
0.0
 47
0.01
 48
0.01
140
1.5165946102
141
0.09
142
0.0
143
25.4
144
1.0
145
0.0
146
1.0
147
0.625
 71
1
 72
0
 73
0
 74
0
 75
0
 76
0
 77
1
 78
8
 79
2
170
0
171
1
172
0
173
0
174
0
175
0
176
0
177
0
178
0
270
2
179
2
271
2
272
2
273
2
274
2
275
0
280
0
281
0
282
0
283
1
284
8
285
0
286
0
287
3
288
0
340
11
278
46
341
212
342
212
343
212
344
212
  0
ENDTAB
  0
ENDSEC
  0
SECTION
  2
BLOCKS
  0
BLOCK
  5
20
100
AcDbEntity
  8
0
100
AcDbBlockBegin
  2
*Model_Space
 70
0
 10
0.0
 20
0.0
 30
0.0
  3
*Model_Space
  1

  0
ENDBLK
  5
21
100
AcDbEntity
  8
0
100
AcDbBlockEnd
  0
BLOCK
  5
1C
100
AcDbEntity
  8
0
100
AcDbBlockBegin
  2
*Paper_Space
 70
0
 10
0.0
 20
0.0
 30
0.0
  3
*Paper_Space
  1

  0
ENDBLK
  5
1D
100
AcDbEntity
  8
0
100
AcDbBlockEnd
  0
BLOCK
  5
214
100
AcDbEntity
  8
0
100
AcDbBlockBegin
  2
_FILLED
 70
64
 10
0.0
 20
0.0
  3
_FILLED
  1

  0
SOLID
  5
215
100
AcDbEntity
  8
0
  6
BYBLOCK
 62
0
100
AcDbTrace
 10
0.0
 20
0.0
 11
-1.0
 21
0.25
 12
-1.0
 22
-0.25
 13
-1.0
 23
-0.25
  0
ENDBLK
  5
216
100
AcDbEntity
  8
0
  6
BYBLOCK
 62
0
100
AcDbBlockEnd
  0
ENDSEC
  0
SECTION
  2
ENTITIES
  0
LINE
  5
217
100
AcDbEntity
  8
0
100
AcDbLine
 62
7
  6
CONTINUOUS
 10
10.0986910844
 20
73.1119828575
 11
10.0986910844
 21
72.5119828529
  0
LINE
  5
218
100
AcDbEntity
  8
0
100
AcDbLine
 62
7
  6
CONTINUOUS
 10
10.0986910844
 20
56.811982873
 11
10.0986910844
 21
56.2119828575
  0
LINE
  5
219
100
AcDbEntity
  8
0
100
AcDbLine
 62
7
  6
CONTINUOUS
 10
10.7486910844
 20
57.7119828575
 11
10.7486910844
 21
57.8169828575
  0
LINE
  5
21A
100
AcDbEntity
  8
0
100
AcDbLine
 62
7
  6
CONTINUOUS
 10
10.7486910844
 20
71.5369828575
 11
10.7486910844
 21
71.6119828575
  0
LINE
  5
21B
100
AcDbEntity
  8
0
100
AcDbLine
 62
7
  6
CONTINUOUS
 10
11.0386910844
 20
57.7119828575
 11
11.0386910844
 21
57.8169828575
  0
LINE
  5
21C
100
AcDbEntity
  8
0
100
AcDbLine
 62
7
  6
CONTINUOUS
 10
11.0386910844
 20
71.5369828575
 11
11.0386910844
 21
71.6119828575
  0
LINE
  5
21D
100
AcDbEntity
  8
0
100
AcDbLine
 62
7
  6
CONTINUOUS
 10
11.8986910844
 20
55.7119828575
 11
11.8986910844
 21
57.7747988315
  0
LINE
  5
21E
100
AcDbEntity
  8
0
100
AcDbLine
 62
7
  6
CONTINUOUS
 10
11.8986910844
 20
71.5491668834
 11
11.8986910844
 21
73.6119828575
  0
LINE
  5
21F
100
AcDbEntity
  8
0
100
AcDbLine
 62
7
  6
CONTINUOUS
 10
12.3986910844
 20
59.0669828575
 11
12.3986910844
 21
57.8169828575
  0
LINE
  5
220
100
AcDbEntity
  8
0
100
AcDbLine
 62
7
  6
CONTINUOUS
 10
12.3986910844
 20
70.2869828575
 11
12.3986910844
 21
71.5369828575
  0
LINE
  5
221
100
AcDbEntity
  8
0
100
AcDbLine
 62
7
  6
CONTINUOUS
 10
12.7586910844
 20
57.7898101874
 11
12.7586910844
 21
57.8169828575
  0
LINE
  5
222
100
AcDbEntity
  8
0
100
AcDbLine
 62
7
  6
CONTINUOUS
 10
13.8664468214
 20
71.5148195793
 11
13.8664468214
 21
70.2869828575
  0
LINE
  5
223
100
AcDbEntity
  8
0
100
AcDbLine
 62
7
  6
CONTINUOUS
 10
13.8664468214
 20
59.0669828575
 11
13.8664468214
 21
57.8169828575
  0
LINE
  5
224
100
AcDbEntity
  8
0
100
AcDbLine
 62
7
  6
CONTINUOUS
 10
13.9986910844
 20
71.433895466
 11
13.9986910844
 21
70.4119828575
  0
LINE
  5
225
100
AcDbEntity
  8
0
100
AcDbLine
 62
7
  6
CONTINUOUS
 10
13.9986910844
 20
58.9119828575
 11
13.9986910844
 21
57.890070264
  0
LINE
  5
226
100
AcDbEntity
  8
0
100
AcDbLine
 62
7
  6
CONTINUOUS
 10
15.0986910844
 20
57.9116123426
 11
15.0986910844
 21
58.9119828575
  0
LINE
  5
227
100
AcDbEntity
  8
0
100
AcDbLine
 62
7
  6
CONTINUOUS
 10
15.0986910844
 20
70.4119828575
 11
15.0986910844
 21
71.4119020842
  0
LINE
  5
228
100
AcDbEntity
  8
0
100
AcDbLine
 62
7
  6
CONTINUOUS
 10
15.1486910844
 20
59.0669828575
 11
15.1486910844
 21
57.8399673151
  0
LINE
  5
229
100
AcDbEntity
  8
0
100
AcDbLine
 62
7
  6
CONTINUOUS
 10
15.1486910844
 20
70.2869828575
 11
15.1486910844
 21
71.4838511191
  0
LINE
  5
22A
100
AcDbEntity
  8
0
100
AcDbLine
 62
7
  6
CONTINUOUS
 10
15.7486910844
 20
57.842000832
 11
15.7486910844
 21
71.4819648791
  0
LINE
  5
22B
100
AcDbEntity
  8
0
100
AcDbLine
 62
7
  6
CONTINUOUS
 10
16.1486910844
 20
71.327578354
 11
16.1486910844
 21
57.9963866298
  0
LINE
  5
22C
100
AcDbEntity
  8
0
100
AcDbLine
 62
7
  6
CONTINUOUS
 10
16.6486498372
 20
58.0077213096
 11
16.6486515242
 21
71.316242156
  0
LINE
  5
22D
100
AcDbEntity
  8
0
100
AcDbLine
 62
7
  6
CONTINUOUS
 10
18.1486910844
 20
55.7119828575
 11
18.1486910844
 21
73.6119828575
  0
LINE
  5
22E
100
AcDbEntity
  8
0
100
AcDbLine
 62
7
  6
CONTINUOUS
 10
23.6486910844
 20
55.7119828575
 11
23.6486910844
 21
57.3119828575
  0
LINE
  5
22F
100
AcDbEntity
  8
0
100
AcDbLine
 62
7
  6
CONTINUOUS
 10
23.8986910844
 20
55.8119828575
 11
23.8986910844
 21
57.3119828575
  0
LINE
  5
230
100
AcDbEntity
  8
0
100
AcDbLine
 62
7
  6
CONTINUOUS
 10
25.3986910844
 20
58.7119828575
 11
25.3986910844
 21
57.1119828575
  0
LINE
  5
231
100
AcDbEntity
  8
0
100
AcDbLine
 62
7
  6
CONTINUOUS
 10
25.6486910844
 20
57.3119828575
 11
25.6486910844
 21
58.7119828575
  0
LINE
  5
232
100
AcDbEntity
  8
0
100
AcDbLine
 62
7
  6
CONTINUOUS
 10
28.6486910844
 20
58.7119828575
 11
28.6486910844
 21
57.3119828575
  0
LINE
  5
233
100
AcDbEntity
  8
0
100
AcDbLine
 62
7
  6
CONTINUOUS
 10
28.8986910844
 20
57.1119828575
 11
28.8986910844
 21
58.7119828575
  0
LINE
  5
234
100
AcDbEntity
  8
0
100
AcDbLine
 62
7
  6
CONTINUOUS
 10
30.3986910844
 20
57.3119828575
 11
30.3986910844
 21
55.8119828575
  0
LINE
  5
235
100
AcDbEntity
  8
0
100
AcDbLine
 62
7
  6
CONTINUOUS
 10
30.6486910844
 20
55.7119828575
 11
30.6486910844
 21
57.3119828575
  0
LINE
  5
236
100
AcDbEntity
  8
0
100
AcDbLine
 62
7
  6
CONTINUOUS
 10
33.3486910844
 20
73.6119828575
 11
33.3486910844
 21
73.1119828575
  0
LINE
  5
237
100
AcDbEntity
  8
0
100
AcDbLine
 62
7
  6
CONTINUOUS
 10
33.3486910844
 20
55.7119828575
 11
33.3486910844
 21
56.2119828575
  0
LINE
  5
238
100
AcDbEntity
  8
0
100
AcDbLine
 62
7
  6
CONTINUOUS
 10
33.0957708414
 20
57.3119828575
 11
33.0867330723
 21
57.3500248455
  0
LINE
  5
239
100
AcDbEntity
  8
0
100
AcDbLine
 62
7
  6
CONTINUOUS
 10
33.0721796737
 20
57.3063954644
 11
33.0631847937
 21
57.3444781908
  0
LINE
  5
23A
100
AcDbEntity
  8
0
100
AcDbLine
 62
7
  6
CONTINUOUS
 10
37.1626930142
 20
73.1119828575
 11
37.1626930142
 21
73.6119828559
  0
LINE
  5
23B
100
AcDbEntity
  8
0
100
AcDbLine
 62
7
  6
CONTINUOUS
 10
37.1626938301
 20
55.7119828589
 11
37.1626938301
 21
56.2119828575
  0
LINE
  5
23C
100
AcDbEntity
  8
0
100
AcDbLine
 62
7
  6
CONTINUOUS
 10
57.5370330212
 20
57.986984017
 11
57.3481595406
 21
57.9620268764
  0
LINE
  5
23D
100
AcDbEntity
  8
0
100
AcDbLine
 62
7
  6
CONTINUOUS
 10
58.5491098507
 20
57.9713933514
 11
58.532395566
 21
57.9699658331
  0
LINE
  5
23E
100
AcDbEntity
  8
0
100
AcDbLine
 62
7
  6
CONTINUOUS
 10
60.0602272848
 20
56.2619272295
 11
59.6491769743
 21
56.231969138
  0
LINE
  5
23F
100
AcDbEntity
  8
0
100
AcDbLine
 62
7
  6
CONTINUOUS
 10
10.5986999397
 20
55.7119828575
 11
81.6486910844
 21
55.7119828575
  0
LINE
  5
240
100
AcDbEntity
  8
0
100
AcDbLine
 62
7
  6
CONTINUOUS
 10
56.772089955
 20
55.7619828575
 11
72.2486910844
 21
55.7619828575
  0
LINE
  5
241
100
AcDbEntity
  8
0
100
AcDbLine
 62
7
  6
CONTINUOUS
 10
23.8986910844
 20
55.8119828575
 11
30.3986910844
 21
55.8119828575
  0
LINE
  5
242
100
AcDbEntity
  8
0
100
AcDbLine
 62
7
  6
CONTINUOUS
 10
79.9064622408
 20
56.2119828575
 11
72.2486910844
 21
56.2119828575
  0
LINE
  5
243
100
AcDbEntity
  8
0
100
AcDbLine
 62
7
  6
CONTINUOUS
 10
33.3486910844
 20
56.2119828575
 11
30.6486910844
 21
56.2119828575
  0
LINE
  5
244
100
AcDbEntity
  8
0
100
AcDbLine
 62
7
  6
CONTINUOUS
 10
23.6486910844
 20
56.2119828575
 11
10.0986910844
 21
56.2119828575
  0
LINE
  5
245
100
AcDbEntity
  8
0
100
AcDbLine
 62
7
  6
CONTINUOUS
 10
51.3486910844
 20
56.2119828544
 11
37.1626735811
 21
56.2119840641
  0
LINE
  5
246
100
AcDbEntity
  8
0
100
AcDbLine
 62
7
  6
CONTINUOUS
 10
72.2486910844
 20
56.2619828575
 11
60.0601676603
 21
56.2619489765
  0
LINE
  5
247
100
AcDbEntity
  8
0
100
AcDbLine
 62
7
  6
CONTINUOUS
 10
30.3986910844
 20
56.3119828575
 11
23.8986910844
 21
56.3119828575
  0
LINE
  5
248
100
AcDbEntity
  8
0
100
AcDbLine
 62
7
  6
CONTINUOUS
 10
56.188876067
 20
56.4819828575
 11
54.2486910844
 21
56.4819828575
  0
LINE
  5
249
100
AcDbEntity
  8
0
100
AcDbLine
 62
7
  6
CONTINUOUS
 10
52.7486910844
 20
56.4819828575
 11
51.4486910844
 21
56.4819828575
  0
LINE
  5
24A
100
AcDbEntity
  8
0
100
AcDbLine
 62
7
  6
CONTINUOUS
 10
72.2486910844
 20
56.4819828575
 11
73.5486910844
 21
56.4819828575
  0
LINE
  5
24B
100
AcDbEntity
  8
0
100
AcDbLine
 62
7
  6
CONTINUOUS
 10
52.7701270198
 20
56.5619828575
 11
51.3486910844
 21
56.5619828575
  0
LINE
  5
24C
100
AcDbEntity
  8
0
100
AcDbLine
 62
7
  6
CONTINUOUS
 10
72.2486910844
 20
56.5869828575
 11
73.5768257496
 21
56.5869828575
  0
LINE
  5
24D
100
AcDbEntity
  8
0
100
AcDbLine
 62
7
  6
CONTINUOUS
 10
54.4986910844
 20
56.6369835126
 11
56.1479899626
 21
56.6369868894
  0
LINE
  5
24E
100
AcDbEntity
  8
0
100
AcDbLine
 62
7
  6
CONTINUOUS
 10
25.3986910844
 20
57.1119828575
 11
28.8986910844
 21
57.1119828575
  0
LINE
  5
24F
100
AcDbEntity
  8
0
100
AcDbLine
 62
7
  6
CONTINUOUS
 10
81.6486910844
 20
57.3119828575
 11
73.7486910844
 21
57.3119828575
  0
LINE
  5
250
100
AcDbEntity
  8
0
100
AcDbLine
 62
7
  6
CONTINUOUS
 10
33.0957708414
 20
57.3119828575
 11
30.3986910844
 21
57.3119828575
  0
LINE
  5
251
100
AcDbEntity
  8
0
100
AcDbLine
 62
7
  6
CONTINUOUS
 10
23.8986910844
 20
57.3119828575
 11
18.1486910844
 21
57.3119828575
  0
LINE
  5
252
100
AcDbEntity
  8
0
100
AcDbLine
 62
7
  6
CONTINUOUS
 10
25.6486910844
 20
57.3119828575
 11
28.6486910844
 21
57.3119828575
  0
LINE
  5
253
100
AcDbEntity
  8
0
100
AcDbLine
 62
7
  6
CONTINUOUS
 10
52.9486910844
 20
57.3119828575
 11
54.4986910844
 21
57.3119828575
  0
LINE
  5
254
100
AcDbEntity
  8
0
100
AcDbLine
 62
7
  6
CONTINUOUS
 10
16.1486910844
 20
57.9963854519
 11
16.6486506803
 21
58.0077213283
  0
LINE
  5
255
100
AcDbEntity
  8
0
100
AcDbLine
 62
7
  6
CONTINUOUS
 10
16.2359757777
 20
57.8505064184
 11
15.1800872769
 21
57.8320758151
  0
LINE
  5
256
100
AcDbEntity
  8
0
100
AcDbLine
 62
7
  6
CONTINUOUS
 10
13.9196057343
 20
57.810074028
 11
11.5476607118
 21
57.7686715736
  0
LINE
  5
257
100
AcDbEntity
  8
0
100
AcDbLine
 62
7
  6
CONTINUOUS
 10
55.6699682765
 20
59.3130266293
 11
56.3320026403
 21
59.3175053618
  0
LINE
  5
258
100
AcDbEntity
  8
0
100
AcDbLine
 62
7
  6
CONTINUOUS
 10
56.3005455873
 20
59.6186617795
 11
55.6215092891
 21
59.6143989234
  0
LINE
  5
259
100
AcDbEntity
  8
0
100
AcDbLine
 62
7
  6
CONTINUOUS
 10
62.6486910844
 20
57.6869828575
 11
61.6486910844
 21
57.6869828575
  0
LINE
  5
25A
100
AcDbEntity
  8
0
100
AcDbLine
 62
7
  6
CONTINUOUS
 10
10.3398453576
 20
57.7119828575
 11
11.4328168032
 21
57.7119828575
  0
LINE
  5
25B
100
AcDbEntity
  8
0
100
AcDbLine
 62
7
  6
CONTINUOUS
 10
25.6486910844
 20
57.7119828575
 11
28.6486910844
 21
57.7119828575
  0
LINE
  5
25C
100
AcDbEntity
  8
0
100
AcDbLine
 62
7
  6
CONTINUOUS
 10
54.2486910844
 20
57.7119828575
 11
54.4986910844
 21
57.7119828575
  0
LINE
  5
25D
100
AcDbEntity
  8
0
100
AcDbLine
 62
7
  6
CONTINUOUS
 10
61.6486910844
 20
57.7869828575
 11
62.6486910844
 21
57.7869828575
  0
LINE
  5
25E
100
AcDbEntity
  8
0
100
AcDbLine
 62
7
  6
CONTINUOUS
 10
10.4435477017
 20
57.8169828575
 11
13.9439491687
 21
57.8169828575
  0
LINE
  5
25F
100
AcDbEntity
  8
0
100
AcDbLine
 62
7
  6
CONTINUOUS
 10
25.3986910844
 20
57.9191625345
 11
25.6486910844
 21
57.9191625345
  0
LINE
  5
260
100
AcDbEntity
  8
0
100
AcDbLine
 62
7
  6
CONTINUOUS
 10
28.6486910844
 20
57.9191625345
 11
28.8986910844
 21
57.9191625345
  0
LINE
  5
261
100
AcDbEntity
  8
0
100
AcDbLine
 62
7
  6
CONTINUOUS
 10
25.3986910844
 20
58.6119828575
 11
25.6486910844
 21
58.6119828575
  0
LINE
  5
262
100
AcDbEntity
  8
0
100
AcDbLine
 62
7
  6
CONTINUOUS
 10
28.6486910844
 20
58.6119828575
 11
28.8986910844
 21
58.6119828575
  0
LINE
  5
263
100
AcDbEntity
  8
0
100
AcDbLine
 62
7
  6
CONTINUOUS
 10
28.8986910844
 20
58.7119828575
 11
25.3986910844
 21
58.7119828575
  0
LINE
  5
264
100
AcDbEntity
  8
0
100
AcDbLine
 62
7
  6
CONTINUOUS
 10
72.7486910844
 20
58.7869828575
 11
62.4918234531
 21
58.7869828575
  0
LINE
  5
265
100
AcDbEntity
  8
0
100
AcDbLine
 62
7
  6
CONTINUOUS
 10
64.2675122257
 20
58.7945517098
 11
64.3486910844
 21
58.7945517098
  0
LINE
  5
266
100
AcDbEntity
  8
0
100
AcDbLine
 62
7
  6
CONTINUOUS
 10
13.9986910844
 20
58.9119828575
 11
15.0986910844
 21
58.9119828575
  0
LINE
  5
267
100
AcDbEntity
  8
0
100
AcDbLine
 62
7
  6
CONTINUOUS
 10
62.6486910844
 20
58.9369828575
 11
63.754908867
 21
58.9369828575
  0
LINE
  5
268
100
AcDbEntity
  8
0
100
AcDbLine
 62
7
  6
CONTINUOUS
 10
12.3986910844
 20
59.0669828575
 11
15.1486910844
 21
59.0669828575
  0
LINE
  5
269
100
AcDbEntity
  8
0
100
AcDbLine
 62
7
  6
CONTINUOUS
 10
56.3511290001
 20
59.1869828575
 11
55.8210866226
 21
59.1869828575
  0
LINE
  5
26A
100
AcDbEntity
  8
0
100
AcDbLine
 62
7
  6
CONTINUOUS
 10
64.250522705
 20
59.4369828583
 11
64.3486910844
 21
59.4369828583
  0
LINE
  5
26B
100
AcDbEntity
  8
0
100
AcDbLine
 62
7
  6
CONTINUOUS
 10
64.3486910844
 20
59.5369828583
 11
64.250522705
 21
59.5369828583
  0
LINE
  5
26C
100
AcDbEntity
  8
0
100
AcDbLine
 62
7
  6
CONTINUOUS
 10
55.7729868175
 20
59.7869828575
 11
56.2814750365
 21
59.7869828575
  0
LINE
  5
26D
100
AcDbEntity
  8
0
100
AcDbLine
 62
7
  6
CONTINUOUS
 10
58.5323703895
 20
57.9867779634
 11
57.5370515124
 21
57.986853859
  0
LINE
  5
26E
100
AcDbEntity
  8
0
100
AcDbLine
 62
7
  6
CONTINUOUS
 10
57.0422833925
 20
60.9733503395
 11
57.2303764871
 21
60.9869834999
  0
LINE
  5
26F
100
AcDbEntity
  8
0
100
AcDbLine
 62
7
  6
CONTINUOUS
 10
58.3332335096
 20
60.9775815884
 11
58.3524274711
 21
60.9784852365
  0
LINE
  5
270
100
AcDbEntity
  8
0
100
AcDbLine
 62
7
  6
CONTINUOUS
 10
58.3332271908
 20
60.9876873277
 11
57.2303755119
 21
60.9869989952
  0
LINE
  5
271
100
AcDbEntity
  8
0
100
AcDbLine
 62
7
  6
CONTINUOUS
 10
64.3486910844
 20
60.1794140069
 11
64.2675122257
 21
60.1794140069
  0
LINE
  5
272
100
AcDbEntity
  8
0
100
AcDbLine
 62
7
  6
CONTINUOUS
 10
64.3486910844
 20
60.3619828583
 11
64.327737249
 21
60.3619828583
  0
LINE
  5
273
100
AcDbEntity
  8
0
100
AcDbLine
 62
7
  6
CONTINUOUS
 10
62.6486910844
 20
60.4369828575
 11
63.754908867
 21
60.4369828575
  0
LINE
  5
274
100
AcDbEntity
  8
0
100
AcDbLine
 62
7
  6
CONTINUOUS
 10
62.4918234531
 20
60.5869828575
 11
72.7486910844
 21
60.5869828575
  0
LINE
  5
275
100
AcDbEntity
  8
0
100
AcDbLine
 62
7
  6
CONTINUOUS
 10
61.1486910844
 20
71.4869828575
 11
61.6486910844
 21
71.6869828575
  0
LINE
  5
276
100
AcDbEntity
  8
0
100
AcDbLine
 62
7
  6
CONTINUOUS
 10
61.6486910844
 20
71.5869828575
 11
61.1486910844
 21
71.3869828575
  0
LINE
  5
277
100
AcDbEntity
  8
0
100
AcDbLine
 62
7
  6
CONTINUOUS
 10
57.7473366252
 20
63.2869828575
 11
57.748521255
 21
63.2869850139
  0
LINE
  5
278
100
AcDbEntity
  8
0
100
AcDbLine
 62
7
  6
CONTINUOUS
 10
61.6486910844
 20
57.6869828575
 11
61.1486910844
 21
57.8869828575
  0
LINE
  5
279
100
AcDbEntity
  8
0
100
AcDbLine
 62
7
  6
CONTINUOUS
 10
61.1486910844
 20
57.9869828575
 11
61.6486910844
 21
57.7869828575
  0
LINE
  5
27A
100
AcDbEntity
  8
0
100
AcDbLine
 62
7
  6
CONTINUOUS
 10
57.748627364
 20
66.086980305
 11
57.7473384435
 21
66.0869828575
  0
LINE
  5
27B
100
AcDbEntity
  8
0
100
AcDbLine
 62
7
  6
CONTINUOUS
 10
72.7486910844
 20
68.7869828575
 11
62.4918234531
 21
68.7869828575
  0
LINE
  5
27C
100
AcDbEntity
  8
0
100
AcDbLine
 62
7
  6
CONTINUOUS
 10
62.6486910844
 20
68.9369828575
 11
63.754908867
 21
68.9369828575
  0
LINE
  5
27D
100
AcDbEntity
  8
0
100
AcDbLine
 62
7
  6
CONTINUOUS
 10
64.327737249
 20
69.0119828583
 11
64.3486910844
 21
69.0119828583
  0
LINE
  5
27E
100
AcDbEntity
  8
0
100
AcDbLine
 62
7
  6
CONTINUOUS
 10
64.2675122257
 20
69.1945517098
 11
64.3486910844
 21
69.1945517098
  0
LINE
  5
27F
100
AcDbEntity
  8
0
100
AcDbLine
 62
7
  6
CONTINUOUS
 10
56.2814790202
 20
69.5869828575
 11
55.7730007791
 21
69.5869828575
  0
LINE
  5
280
100
AcDbEntity
  8
0
100
AcDbLine
 62
7
  6
CONTINUOUS
 10
64.250522705
 20
69.8369828583
 11
64.3486910844
 21
69.8369828583
  0
LINE
  5
281
100
AcDbEntity
  8
0
100
AcDbLine
 62
7
  6
CONTINUOUS
 10
64.3486910844
 20
69.9369828583
 11
64.250522705
 21
69.9369828583
  0
LINE
  5
282
100
AcDbEntity
  8
0
100
AcDbLine
 62
7
  6
CONTINUOUS
 10
58.3332446686
 20
68.386772974
 11
57.2303679962
 21
68.3868528119
  0
LINE
  5
283
100
AcDbEntity
  8
0
100
AcDbLine
 62
7
  6
CONTINUOUS
 10
55.6215111903
 20
69.7595641055
 11
56.3005503434
 21
69.7553045098
  0
LINE
  5
284
100
AcDbEntity
  8
0
100
AcDbLine
 62
7
  6
CONTINUOUS
 10
58.3524364791
 20
68.3954797404
 11
58.3332453643
 21
68.3963829423
  0
LINE
  5
285
100
AcDbEntity
  8
0
100
AcDbLine
 62
7
  6
CONTINUOUS
 10
57.2303760889
 20
68.3869820425
 11
57.0422821618
 21
68.4006152299
  0
LWPOLYLINE
  5
286
100
AcDbEntity
  8
0
100
AcDbPolyline
 62
7
  6
CONTINUOUS
 90
5
 70
0
 10
57.7650385906
 20
62.3869706944
 10
57.8959174164
 20
62.3130595821
 10
58.0994104309
 20
62.0090693095
 10
58.2631829473
 20
61.5136979878
 10
58.3332431394
 20
60.9774163538
  0
LINE
  5
287
100
AcDbEntity
  8
0
100
AcDbLine
 62
7
  6
CONTINUOUS
 10
51.3486910844
 20
73.611982857
 11
51.3486910844
 21
72.7619828575
  0
LINE
  5
288
100
AcDbEntity
  8
0
100
AcDbLine
 62
7
  6
CONTINUOUS
 10
51.3486910844
 20
55.711982858
 11
51.3486910844
 21
56.5619828575
  0
LINE
  5
289
100
AcDbEntity
  8
0
100
AcDbLine
 62
7
  6
CONTINUOUS
 10
51.4486910844
 20
55.7119828575
 11
51.4486910844
 21
56.5619828575
  0
LINE
  5
28A
100
AcDbEntity
  8
0
100
AcDbLine
 62
7
  6
CONTINUOUS
 10
51.4486910844
 20
72.7619828575
 11
51.4486910844
 21
73.6119828575
  0
LINE
  5
28B
100
AcDbEntity
  8
0
100
AcDbLine
 62
7
  6
CONTINUOUS
 10
52.8486910844
 20
71.9619828575
 11
52.8486910844
 21
57.3619828575
  0
LINE
  5
28C
100
AcDbEntity
  8
0
100
AcDbLine
 62
7
  6
CONTINUOUS
 10
52.9486910844
 20
57.3119828575
 11
52.9486910844
 21
71.9819828575
  0
LINE
  5
28D
100
AcDbEntity
  8
0
100
AcDbLine
 62
7
  6
CONTINUOUS
 10
58.532426163
 20
71.3876773175
 11
57.5370346676
 21
71.3869983156
  0
LINE
  5
28E
100
AcDbEntity
  8
0
100
AcDbLine
 62
7
  6
CONTINUOUS
 10
55.8210530989
 20
70.1869828575
 11
56.351133976
 21
70.1869828575
  0
LINE
  5
28F
100
AcDbEntity
  8
0
100
AcDbLine
 62
7
  6
CONTINUOUS
 10
15.1486910844
 20
70.2869828575
 11
12.3986910844
 21
70.2869828575
  0
LINE
  5
290
100
AcDbEntity
  8
0
100
AcDbLine
 62
7
  6
CONTINUOUS
 10
13.9986910844
 20
70.4119828575
 11
15.0986910844
 21
70.4119828575
  0
LINE
  5
291
100
AcDbEntity
  8
0
100
AcDbLine
 62
7
  6
CONTINUOUS
 10
62.6486910844
 20
70.4369828575
 11
63.754908867
 21
70.4369828575
  0
LINE
  5
292
100
AcDbEntity
  8
0
100
AcDbLine
 62
7
  6
CONTINUOUS
 10
64.3486910844
 20
70.5794140069
 11
64.2675122257
 21
70.5794140069
  0
LINE
  5
293
100
AcDbEntity
  8
0
100
AcDbLine
 62
7
  6
CONTINUOUS
 10
62.4918234531
 20
70.5869828575
 11
72.7486910844
 21
70.5869828575
  0
LINE
  5
294
100
AcDbEntity
  8
0
100
AcDbLine
 62
7
  6
CONTINUOUS
 10
10.4435477017
 20
71.5369828575
 11
12.2958045948
 21
71.5369828575
  0
LINE
  5
295
100
AcDbEntity
  8
0
100
AcDbLine
 62
7
  6
CONTINUOUS
 10
61.6486910844
 20
71.5869828575
 11
62.6486910844
 21
71.5869828575
  0
LINE
  5
296
100
AcDbEntity
  8
0
100
AcDbLine
 62
7
  6
CONTINUOUS
 10
11.4328168032
 20
71.6119828575
 11
10.3398453576
 21
71.6119828575
  0
LINE
  5
297
100
AcDbEntity
  8
0
100
AcDbLine
 62
7
  6
CONTINUOUS
 10
61.6486910844
 20
71.6869828575
 11
62.6486910844
 21
71.6869828575
  0
LINE
  5
298
100
AcDbEntity
  8
0
100
AcDbLine
 62
7
  6
CONTINUOUS
 10
56.3320079789
 20
70.0564601725
 11
55.66996587
 21
70.0609309481
  0
LINE
  5
299
100
AcDbEntity
  8
0
100
AcDbLine
 62
7
  6
CONTINUOUS
 10
11.5476607118
 20
71.5552941414
 11
13.9186426483
 21
71.5139084977
  0
LINE
  5
29A
100
AcDbEntity
  8
0
100
AcDbLine
 62
7
  6
CONTINUOUS
 10
15.1796360577
 20
71.491897776
 11
16.2359756297
 21
71.473459292
  0
LINE
  5
29B
100
AcDbEntity
  8
0
100
AcDbLine
 62
7
  6
CONTINUOUS
 10
16.6486506803
 20
71.3162410302
 11
16.1486910844
 21
71.3275785033
  0
LWPOLYLINE
  5
29C
100
AcDbEntity
  8
0
100
AcDbPolyline
 62
7
  6
CONTINUOUS
 90
9
 70
0
 10
57.748549955
 20
66.0869738021
 10
57.8773713788
 20
66.0106755993
 10
58.0580409456
 20
65.717618284
 10
58.1963781957
 20
65.2436367779
 10
58.2460490888
 20
64.6888961187
 10
58.1969627658
 20
64.1335078782
 10
58.059027103
 20
63.6586527278
 10
57.8782128283
 20
63.3641634644
 10
57.7484519446
 20
63.2869943192
  0
LINE
  5
29D
100
AcDbEntity
  8
0
100
AcDbLine
 62
7
  6
CONTINUOUS
 10
54.2486910844
 20
57.3119828575
 11
54.2486910844
 21
56.4819828575
  0
LINE
  5
29E
100
AcDbEntity
  8
0
100
AcDbLine
 62
7
  6
CONTINUOUS
 10
54.2486910844
 20
57.7119828575
 11
54.2486910844
 21
72.8419828575
  0
LINE
  5
29F
100
AcDbEntity
  8
0
100
AcDbLine
 62
7
  6
CONTINUOUS
 10
54.4986910844
 20
72.7369822008
 11
54.4986910844
 21
56.6369835126
  0
LINE
  5
2A0
100
AcDbEntity
  8
0
100
AcDbLine
 62
7
  6
CONTINUOUS
 10
52.6343317304
 20
56.5619828575
 11
52.8486910844
 21
57.3619828575
  0
LINE
  5
2A1
100
AcDbEntity
  8
0
100
AcDbLine
 62
7
  6
CONTINUOUS
 10
52.9710889141
 20
57.3119828575
 11
52.7486910844
 21
56.4819828575
  0
LINE
  5
2A2
100
AcDbEntity
  8
0
100
AcDbLine
 62
7
  6
CONTINUOUS
 10
56.1479891461
 20
72.7369788202
 11
54.4986910844
 21
72.7369822008
  0
LINE
  5
2A3
100
AcDbEntity
  8
0
100
AcDbLine
 62
7
  6
CONTINUOUS
 10
52.7343317304
 20
72.7619828575
 11
51.3486910844
 21
72.7619828575
  0
LINE
  5
2A4
100
AcDbEntity
  8
0
100
AcDbLine
 62
7
  6
CONTINUOUS
 10
73.5343317304
 20
72.7819828575
 11
72.2486910844
 21
72.7819828575
  0
LINE
  5
2A5
100
AcDbEntity
  8
0
100
AcDbLine
 62
7
  6
CONTINUOUS
 10
52.7343317304
 20
72.7819828575
 11
51.4486910844
 21
72.7819828575
  0
LINE
  5
2A6
100
AcDbEntity
  8
0
100
AcDbLine
 62
7
  6
CONTINUOUS
 10
73.5343317304
 20
72.7869828575
 11
72.2486910844
 21
72.7869828575
  0
LINE
  5
2A7
100
AcDbEntity
  8
0
100
AcDbLine
 62
7
  6
CONTINUOUS
 10
56.1757025839
 20
72.8419828575
 11
54.2486910844
 21
72.8419828575
  0
LINE
  5
2A8
100
AcDbEntity
  8
0
100
AcDbLine
 62
7
  6
CONTINUOUS
 10
37.1626720346
 20
73.1119811497
 11
51.3486910844
 21
73.1119828609
  0
LINE
  5
2A9
100
AcDbEntity
  8
0
100
AcDbLine
 62
7
  6
CONTINUOUS
 10
10.0986910844
 20
73.1119828575
 11
33.3486910844
 21
73.1119828575
  0
LINE
  5
2AA
100
AcDbEntity
  8
0
100
AcDbLine
 62
7
  6
CONTINUOUS
 10
60.0601275033
 20
73.1120428697
 11
79.9064622408
 21
73.1119828575
  0
LINE
  5
2AB
100
AcDbEntity
  8
0
100
AcDbLine
 62
7
  6
CONTINUOUS
 10
10.5987008004
 20
73.6119828575
 11
81.6486910844
 21
73.6119828575
  0
LINE
  5
2AC
100
AcDbEntity
  8
0
100
AcDbLine
 62
7
  6
CONTINUOUS
 10
59.6487011919
 20
73.1420630176
 11
60.0601951974
 21
73.11205422
  0
LINE
  5
2AD
100
AcDbEntity
  8
0
100
AcDbLine
 62
7
  6
CONTINUOUS
 10
36.7508359676
 20
73.1421738394
 11
37.162671907
 21
73.1119788203
  0
LINE
  5
2AE
100
AcDbEntity
  8
0
100
AcDbLine
 62
7
  6
CONTINUOUS
 10
58.5324150284
 20
71.4040002635
 11
58.5491258423
 21
71.4025726801
  0
LINE
  5
2AF
100
AcDbEntity
  8
0
100
AcDbLine
 62
7
  6
CONTINUOUS
 10
57.3481615662
 20
71.411938832
 11
57.5370326718
 21
71.3869819757
  0
LINE
  5
2B0
100
AcDbEntity
  8
0
100
AcDbLine
 62
7
  6
CONTINUOUS
 10
52.8486910844
 20
71.9619828575
 11
52.6343317304
 21
72.7619828575
  0
LINE
  5
2B1
100
AcDbEntity
  8
0
100
AcDbLine
 62
7
  6
CONTINUOUS
 10
52.7343317304
 20
72.7819828575
 11
52.9486910844
 21
71.9819828575
  0
LWPOLYLINE
  5
2B2
100
AcDbEntity
  8
0
100
AcDbPolyline
 62
7
  6
CONTINUOUS
 90
5
 70
0
 10
58.333248685
 20
68.3965889787
 10
58.2636531112
 20
67.8623908377
 10
58.0999567564
 20
67.366043567
 10
57.8962256949
 20
67.0611958865
 10
57.765047934
 20
66.9869949339
  0
LINE
  5
2B3
100
AcDbEntity
  8
0
100
AcDbLine
 62
7
  6
CONTINUOUS
 10
53.8486910844
 20
57.3119828575
 11
54.2486910844
 21
57.7119828575
  0
LWPOLYLINE
  5
2B4
100
AcDbEntity
  8
0
100
AcDbPolyline
 62
7
  6
CONTINUOUS
 90
6
 70
0
 10
58.5323691331
 20
57.970300809
 10
58.5407898129
 20
57.4760669031
 10
58.4783385459
 20
57.0081479961
 10
58.4267820345
 20
56.8273402589
 10
58.3190056261
 20
56.6179523657
 10
58.2861665076
 20
56.5869837241
  0
LINE
  5
2B5
100
AcDbEntity
  8
0
100
AcDbLine
 62
7
  6
CONTINUOUS
 10
60.0601929007
 20
73.1120282924
 11
60.0601929007
 21
73.6119828575
  0
LINE
  5
2B6
100
AcDbEntity
  8
0
100
AcDbLine
 62
7
  6
CONTINUOUS
 10
60.0602256158
 20
55.7619828584
 11
60.0602256154
 21
56.2619828575
  0
LWPOLYLINE
  5
2B7
100
AcDbEntity
  8
0
100
AcDbPolyline
 62
7
  6
CONTINUOUS
 90
6
 70
0
 10
58.2861760866
 20
72.7869822076
 10
58.3188215392
 20
72.7562440514
 10
58.4264702458
 20
72.5475456623
 10
58.478040699
 20
72.3671659072
 10
58.5406705806
 20
71.9002913936
 10
58.5323707921
 20
71.4035797262
  0
LINE
  5
2B8
100
AcDbEntity
  8
0
100
AcDbLine
 62
7
  6
CONTINUOUS
 10
61.1486910844
 20
57.8869828575
 11
61.1486910844
 21
71.4869828575
  0
LINE
  5
2B9
100
AcDbEntity
  8
0
100
AcDbLine
 62
7
  6
CONTINUOUS
 10
62.4918234531
 20
70.5869828575
 11
62.4918234531
 21
68.7869828575
  0
LINE
  5
2BA
100
AcDbEntity
  8
0
100
AcDbLine
 62
7
  6
CONTINUOUS
 10
62.4918234531
 20
60.5869828575
 11
62.4918234531
 21
58.7869828575
  0
LINE
  5
2BB
100
AcDbEntity
  8
0
100
AcDbLine
 62
7
  6
CONTINUOUS
 10
62.5486910844
 20
70.5869828575
 11
62.5486910844
 21
68.7869828575
  0
LINE
  5
2BC
100
AcDbEntity
  8
0
100
AcDbLine
 62
7
  6
CONTINUOUS
 10
62.5486910844
 20
60.5869828575
 11
62.5486910844
 21
58.7869828575
  0
LINE
  5
2BD
100
AcDbEntity
  8
0
100
AcDbLine
 62
7
  6
CONTINUOUS
 10
62.6486910844
 20
70.4369828575
 11
62.6486910844
 21
68.9369828575
  0
LINE
  5
2BE
100
AcDbEntity
  8
0
100
AcDbLine
 62
7
  6
CONTINUOUS
 10
62.6486910844
 20
60.4369828575
 11
62.6486910844
 21
58.9369828575
  0
LINE
  5
2BF
100
AcDbEntity
  8
0
100
AcDbLine
 62
7
  6
CONTINUOUS
 10
62.6486910844
 20
55.7619828579
 11
62.6486910844
 21
57.7869828575
  0
LINE
  5
2C0
100
AcDbEntity
  8
0
100
AcDbLine
 62
7
  6
CONTINUOUS
 10
62.6486910844
 20
71.5869828575
 11
62.6486910844
 21
73.6119828572
  0
LINE
  5
2C1
100
AcDbEntity
  8
0
100
AcDbLine
 62
7
  6
CONTINUOUS
 10
63.1486910844
 20
70.4369828575
 11
63.1486910844
 21
68.9369828575
  0
LINE
  5
2C2
100
AcDbEntity
  8
0
100
AcDbLine
 62
7
  6
CONTINUOUS
 10
63.1486910844
 20
60.4369828575
 11
63.1486910844
 21
58.9369828575
  0
LINE
  5
2C3
100
AcDbEntity
  8
0
100
AcDbLine
 62
7
  6
CONTINUOUS
 10
64.2675122257
 20
58.7945517098
 11
64.250522705
 21
59.4369828583
  0
LINE
  5
2C4
100
AcDbEntity
  8
0
100
AcDbLine
 62
7
  6
CONTINUOUS
 10
64.2675122257
 20
69.1945517098
 11
64.250522705
 21
69.8369828583
  0
LINE
  5
2C5
100
AcDbEntity
  8
0
100
AcDbLine
 62
7
  6
CONTINUOUS
 10
63.754908867
 20
58.7869828575
 11
63.754908867
 21
58.9369828575
  0
LINE
  5
2C6
100
AcDbEntity
  8
0
100
AcDbLine
 62
7
  6
CONTINUOUS
 10
63.754908867
 20
60.4369828575
 11
63.754908867
 21
60.5869828575
  0
LINE
  5
2C7
100
AcDbEntity
  8
0
100
AcDbLine
 62
7
  6
CONTINUOUS
 10
63.754908867
 20
68.7869828575
 11
63.754908867
 21
68.9369828575
  0
LINE
  5
2C8
100
AcDbEntity
  8
0
100
AcDbLine
 62
7
  6
CONTINUOUS
 10
63.754908867
 20
70.4369828575
 11
63.754908867
 21
70.5869828575
  0
LINE
  5
2C9
100
AcDbEntity
  8
0
100
AcDbLine
 62
7
  6
CONTINUOUS
 10
64.2486910844
 20
70.5869828575
 11
64.2486910844
 21
68.7869828575
  0
LINE
  5
2CA
100
AcDbEntity
  8
0
100
AcDbLine
 62
7
  6
CONTINUOUS
 10
64.2486910844
 20
58.7869828575
 11
64.2486910844
 21
60.5869828575
  0
LINE
  5
2CB
100
AcDbEntity
  8
0
100
AcDbLine
 62
7
  6
CONTINUOUS
 10
64.2741912888
 20
69.9369828583
 11
64.2741912888
 21
69.8369828583
  0
LINE
  5
2CC
100
AcDbEntity
  8
0
100
AcDbLine
 62
7
  6
CONTINUOUS
 10
64.2741912888
 20
59.5369828583
 11
64.2741912888
 21
59.4369828583
  0
LINE
  5
2CD
100
AcDbEntity
  8
0
100
AcDbLine
 62
7
  6
CONTINUOUS
 10
64.3410785192
 20
69.0119828583
 11
64.3410785192
 21
68.7869828575
  0
LINE
  5
2CE
100
AcDbEntity
  8
0
100
AcDbLine
 62
7
  6
CONTINUOUS
 10
64.3410785192
 20
60.5869828575
 11
64.3410785192
 21
60.3619828583
  0
LINE
  5
2CF
100
AcDbEntity
  8
0
100
AcDbLine
 62
7
  6
CONTINUOUS
 10
64.3486910844
 20
70.5869828575
 11
64.3486910844
 21
68.7869828575
  0
LINE
  5
2D0
100
AcDbEntity
  8
0
100
AcDbLine
 62
7
  6
CONTINUOUS
 10
64.3486910844
 20
60.5869828575
 11
64.3486910844
 21
58.7869828575
  0
LINE
  5
2D1
100
AcDbEntity
  8
0
100
AcDbLine
 62
7
  6
CONTINUOUS
 10
64.250522705
 20
69.9369828583
 11
64.2675122257
 21
70.5794140069
  0
LINE
  5
2D2
100
AcDbEntity
  8
0
100
AcDbLine
 62
7
  6
CONTINUOUS
 10
64.250522705
 20
59.5369828583
 11
64.2675122257
 21
60.1794140069
  0
LINE
  5
2D3
100
AcDbEntity
  8
0
100
AcDbLine
 62
7
  6
CONTINUOUS
 10
72.2486910844
 20
73.6119828575
 11
72.2486910844
 21
72.7819828575
  0
LINE
  5
2D4
100
AcDbEntity
  8
0
100
AcDbLine
 62
7
  6
CONTINUOUS
 10
72.2486910844
 20
55.7119828575
 11
72.2486910844
 21
56.5869828575
  0
LINE
  5
2D5
100
AcDbEntity
  8
0
100
AcDbLine
 62
7
  6
CONTINUOUS
 10
72.7486910844
 20
70.5869828575
 11
72.7486910844
 21
68.7869828575
  0
LINE
  5
2D6
100
AcDbEntity
  8
0
100
AcDbLine
 62
7
  6
CONTINUOUS
 10
72.7486910844
 20
60.5869828575
 11
72.7486910844
 21
58.7869828575
  0
LINE
  5
2D7
100
AcDbEntity
  8
0
100
AcDbLine
 62
7
  6
CONTINUOUS
 10
73.7486910844
 20
57.3119828575
 11
73.7486910844
 21
71.9869828575
  0
LINE
  5
2D8
100
AcDbEntity
  8
0
100
AcDbLine
 62
7
  6
CONTINUOUS
 10
73.5343317304
 20
56.5869828575
 11
73.7486910844
 21
57.3869828575
  0
LINE
  5
2D9
100
AcDbEntity
  8
0
100
AcDbLine
 62
7
  6
CONTINUOUS
 10
73.7710889141
 20
57.3119828575
 11
73.5486910844
 21
56.4819828575
  0
LINE
  5
2DA
100
AcDbEntity
  8
0
100
AcDbLine
 62
7
  6
CONTINUOUS
 10
73.5343317304
 20
72.7819828575
 11
73.7486910844
 21
71.9819828575
  0
LINE
  5
2DB
100
AcDbEntity
  8
0
100
AcDbLine
 62
7
  6
CONTINUOUS
 10
73.7486910844
 20
71.9869828575
 11
73.5343317304
 21
72.7869828575
  0
LINE
  5
2DC
100
AcDbEntity
  8
0
100
AcDbLine
 62
7
  6
CONTINUOUS
 10
79.9064622408
 20
56.2119828575
 11
79.9064622408
 21
73.1119828575
  0
LINE
  5
2DD
100
AcDbEntity
  8
0
100
AcDbLine
 62
7
  6
CONTINUOUS
 10
81.6486910844
 20
55.7119828575
 11
81.6486910844
 21
73.6119828575
  0
ARC
  5
2DE
100
AcDbEntity
  8
0
100
AcDbCircle
 62
7
  6
CONTINUOUS
 10
58.396227981
 20
-170.5738303409
 40
233.7548699533
100
AcDbArc
 50
90.5842664975
 51
90.7677066452
  0
ARC
  5
2DF
100
AcDbEntity
  8
0
100
AcDbCircle
 62
7
  6
CONTINUOUS
 10
58.9722336526
 20
-137.4849701544
 40
200.0538423132
100
AcDbArc
 50
90.8397434151
 51
91.0520195063
  0
ARC
  5
2E0
100
AcDbEntity
  8
0
100
AcDbCircle
 62
7
  6
CONTINUOUS
 10
88.2479276192
 20
64.6802016701
 40
33.0194319815
100
AcDbArc
 50
171.1510812842
 51
176.2525867704
  0
ARC
  5
2E1
100
AcDbEntity
  8
0
100
AcDbCircle
 62
7
  6
CONTINUOUS
 10
88.2159569602
 20
64.6892052678
 40
32.987156426
100
AcDbArc
 50
183.7433042207
 51
188.8496436023
  0
ARC
  5
2E2
100
AcDbEntity
  8
0
100
AcDbCircle
 62
7
  6
CONTINUOUS
 10
88.1856337439
 20
64.685906486
 40
32.9568341657
100
AcDbArc
 50
177.3433405919
 51
182.652815706
  0
ARC
  5
2E3
100
AcDbEntity
  8
0
100
AcDbCircle
 62
7
  6
CONTINUOUS
 10
88.0601763316
 20
64.6648131457
 40
32.8293648549
100
AcDbArc
 50
189.382126493
 51
194.6954141071
  0
ARC
  5
2E4
100
AcDbEntity
  8
0
100
AcDbCircle
 62
7
  6
CONTINUOUS
 10
88.0250165204
 20
64.7166529997
 40
32.7934537582
100
AcDbArc
 50
165.3015980067
 51
170.6208033033
  0
ARC
  5
2E5
100
AcDbEntity
  8
0
100
AcDbCircle
 62
7
  6
CONTINUOUS
 10
86.938059037
 20
64.7196366099
 40
31.8166673498
100
AcDbArc
 50
165.2094347169
 51
165.4049785332
  0
ARC
  5
2E6
100
AcDbEntity
  8
0
100
AcDbCircle
 62
7
  6
CONTINUOUS
 10
86.9378902077
 20
64.6542876485
 40
31.8164927137
100
AcDbArc
 50
194.5950262112
 51
194.8836845098
  0
ARC
  5
2E7
100
AcDbEntity
  8
0
100
AcDbCircle
 62
7
  6
CONTINUOUS
 10
86.934956848
 20
64.7204617256
 40
31.8134573094
100
AcDbArc
 50
164.4579005196
 51
165.2094452144
  0
ARC
  5
2E8
100
AcDbEntity
  8
0
100
AcDbCircle
 62
7
  6
CONTINUOUS
 10
86.934487899
 20
64.6533785938
 40
31.8129710573
100
AcDbArc
 50
194.8836761416
 51
195.5420807221
  0
ARC
  5
2E9
100
AcDbEntity
  8
0
100
AcDbCircle
 62
7
  6
CONTINUOUS
 10
64.0154193623
 20
64.6349354002
 40
31.7992386703
100
AcDbArc
 50
193.3243171924
 51
195.3587021556
  0
ARC
  5
2EA
100
AcDbEntity
  8
0
100
AcDbCircle
 62
7
  6
CONTINUOUS
 10
63.9926587489
 20
64.6287488217
 40
31.7756523325
100
AcDbArc
 50
195.358815334
 51
195.6070973275
  0
ARC
  5
2EB
100
AcDbEntity
  8
0
100
AcDbCircle
 62
7
  6
CONTINUOUS
 10
63.9926586666
 20
64.695216916
 40
31.7756522471
100
AcDbArc
 50
164.3928973778
 51
164.6411846834
  0
ARC
  5
2EC
100
AcDbEntity
  8
0
100
AcDbCircle
 62
7
  6
CONTINUOUS
 10
39.6486910844
 20
64.6769828575
 40
30.0
100
AcDbArc
 50
166.6340291575
 51
193.4249237344
  0
ARC
  5
2ED
100
AcDbEntity
  8
0
100
AcDbCircle
 62
7
  6
CONTINUOUS
 10
39.6486910844
 20
64.6769828575
 40
28.2
100
AcDbArc
 50
165.9208291118
 51
194.0791708992
  0
ARC
  5
2EE
100
AcDbEntity
  8
0
100
AcDbCircle
 62
7
  6
CONTINUOUS
 10
64.9145345126
 20
70.5623054996
 40
0.6472484382
100
AcDbArc
 50
177.7947172091
 51
178.4853428999
  0
ARC
  5
2EF
100
AcDbEntity
  8
0
100
AcDbCircle
 62
7
  6
CONTINUOUS
 10
64.9145336694
 20
58.8116601952
 40
0.6472475947
100
AcDbArc
 50
181.514657141
 51
182.2052851586
  0
ARC
  5
2F0
100
AcDbEntity
  8
0
100
AcDbCircle
 62
7
  6
CONTINUOUS
 10
60.2502343832
 20
73.1121952585
 40
0.6022568445
100
AcDbArc
 50
170.0480438263
 51
177.1573608621
  0
ARC
  5
2F1
100
AcDbEntity
  8
0
100
AcDbCircle
 62
7
  6
CONTINUOUS
 10
10.5986910844
 20
73.1119828575
 40
0.5
100
AcDbArc
 50
90.0
 51
180.0
  0
ARC
  5
2F2
100
AcDbEntity
  8
0
100
AcDbCircle
 62
7
  6
CONTINUOUS
 10
10.5986910844
 20
56.2119828575
 40
0.5
100
AcDbArc
 50
180.0
 51
270.0
  0
ARC
  5
2F3
100
AcDbEntity
  8
0
100
AcDbCircle
 62
7
  6
CONTINUOUS
 10
56.0336910844
 20
56.6819828575
 40
0.2
100
AcDbArc
 50
277.060579478
 51
315.0017534888
  0
ARC
  5
2F4
100
AcDbEntity
  8
0
100
AcDbCircle
 62
7
  6
CONTINUOUS
 10
56.0336910844
 20
72.6419828575
 40
0.2
100
AcDbArc
 50
49.2578004878
 51
89.9965862334
  0
ARC
  5
2F5
100
AcDbEntity
  8
0
100
AcDbCircle
 62
7
  6
CONTINUOUS
 10
15.9986910844
 20
57.9963874469
 40
0.15
100
AcDbArc
 50
270.9998818343
 51
360.0
  0
ARC
  5
2F6
100
AcDbEntity
  8
0
100
AcDbCircle
 62
7
  6
CONTINUOUS
 10
11.5502785727
 20
57.6186944193
 40
0.15
100
AcDbArc
 50
90.999909861
 51
141.5433072638
  0
ARC
  5
2F7
100
AcDbEntity
  8
0
100
AcDbCircle
 62
7
  6
CONTINUOUS
 10
15.9986910844
 20
71.327578268
 40
0.15
100
AcDbArc
 50
0.0
 51
89.000127166
  0
ARC
  5
2F8
100
AcDbEntity
  8
0
100
AcDbCircle
 62
7
  6
CONTINUOUS
 10
11.5502785727
 20
71.7052712956
 40
0.15
100
AcDbArc
 50
218.4566927362
 51
269.0000901581
  0
ARC
  5
2F9
100
AcDbEntity
  8
0
100
AcDbCircle
 62
7
  6
CONTINUOUS
 10
15.1786910844
 20
71.4119020842
 40
0.08
100
AcDbArc
 50
89.3232077
 51
180.0
  0
ARC
  5
2FA
100
AcDbEntity
  8
0
100
AcDbCircle
 62
7
  6
CONTINUOUS
 10
13.9186910844
 20
71.433895466
 40
0.08
100
AcDbArc
 50
0.0
 51
89.0004939255
  0
ARC
  5
2FB
100
AcDbEntity
  8
0
100
AcDbCircle
 62
7
  6
CONTINUOUS
 10
13.9186910844
 20
57.8900702489
 40
0.08
100
AcDbArc
 50
270.6550721809
 51
0.0000107781
  0
ARC
  5
2FC
100
AcDbEntity
  8
0
100
AcDbCircle
 62
7
  6
CONTINUOUS
 10
15.1786910844
 20
57.9120636307
 40
0.08
100
AcDbArc
 50
180.3232079152
 51
271.0
  0
ARC
  5
2FD
100
AcDbEntity
  8
0
100
AcDbCircle
 62
7
  6
CONTINUOUS
 10
58.9987214773
 20
350.9577298519
 40
284.7683676361
100
AcDbArc
 50
269.2485954426
 51
269.3991727173
  0
ARC
  5
2FE
100
AcDbEntity
  8
0
100
AcDbCircle
 62
7
  6
CONTINUOUS
 10
58.3668051337
 20
230.168463157
 40
163.3585332734
100
AcDbArc
 50
268.9240177656
 51
269.1839788395
  0
ARC
  5
2FF
100
AcDbEntity
  8
0
100
AcDbCircle
 62
7
  6
CONTINUOUS
 10
108.0474228566
 20
-104.6672401203
 40
169.1140345098
100
AcDbArc
 50
107.635085881
 51
107.8161228493
  0
ARC
  5
300
100
AcDbEntity
  8
0
100
AcDbCircle
 62
7
  6
CONTINUOUS
 10
152.7794271841
 20
64.6619932563
 40
115.9251325542
100
AcDbArc
 50
175.8199021103
 51
184.1801084443
  0
ARC
  5
301
100
AcDbEntity
  8
0
100
AcDbCircle
 62
7
  6
CONTINUOUS
 10
175.6640456712
 20
64.687271439
 40
115.910493969
100
AcDbArc
 50
175.8318711844
 51
184.1684019189
  0
ARC
  5
302
100
AcDbEntity
  8
0
100
AcDbCircle
 62
7
  6
CONTINUOUS
 10
138.1629263465
 20
64.6886066709
 40
79.896687865
100
AcDbArc
 50
182.6615717987
 51
184.8227633908
  0
ARC
  5
303
100
AcDbEntity
  8
0
100
AcDbCircle
 62
7
  6
CONTINUOUS
 10
138.1157095386
 20
64.6882647396
 40
79.8493780328
100
AcDbArc
 50
175.1764645665
 51
177.3389378739
  0
ARC
  5
304
100
AcDbEntity
  8
0
100
AcDbCircle
 62
7
  6
CONTINUOUS
 10
137.2494915751
 20
64.6929548674
 40
79.0036694444
100
AcDbArc
 50
182.6954919231
 51
184.8816127968
  0
ARC
  5
305
100
AcDbEntity
  8
0
100
AcDbCircle
 62
7
  6
CONTINUOUS
 10
137.1717539291
 20
64.6859627584
 40
78.9257730445
100
AcDbArc
 50
175.1171651893
 51
177.3054454335
  0
ARC
  5
306
100
AcDbEntity
  8
0
100
AcDbCircle
 62
7
  6
CONTINUOUS
 10
108.1980111784
 20
64.6811643507
 40
51.1013381252
100
AcDbArc
 50
184.1455837042
 51
187.5274222974
  0
ARC
  5
307
100
AcDbEntity
  8
0
100
AcDbCircle
 62
7
  6
CONTINUOUS
 10
108.1977407525
 20
64.6928289746
 40
51.1010667955
100
AcDbArc
 50
172.4726973543
 51
175.8545532443
  0
ARC
  5
308
100
AcDbEntity
  8
0
100
AcDbCircle
 62
7
  6
CONTINUOUS
 10
107.8720423697
 20
64.7587081471
 40
50.9600628924
100
AcDbArc
 50
172.498176795
 51
175.901811627
  0
ARC
  5
309
100
AcDbEntity
  8
0
100
AcDbCircle
 62
7
  6
CONTINUOUS
 10
107.8593621287
 20
64.6139149704
 40
50.9473179089
100
AcDbArc
 50
184.0977017252
 51
187.5021877354
  0
ARC
  5
30A
100
AcDbEntity
  8
0
100
AcDbCircle
 62
7
  6
CONTINUOUS
 10
96.7900693515
 20
64.6869752572
 40
40.805948532
100
AcDbArc
 50
177.8680031681
 51
182.1320603009
  0
ARC
  5
30B
100
AcDbEntity
  8
0
100
AcDbCircle
 62
7
  6
CONTINUOUS
 10
96.6248996999
 20
64.67794223
 40
40.6404952391
100
AcDbArc
 50
183.0061629978
 51
187.1512270214
  0
ARC
  5
30C
100
AcDbEntity
  8
0
100
AcDbCircle
 62
7
  6
CONTINUOUS
 10
96.5360969823
 20
64.7039080286
 40
40.5513972601
100
AcDbArc
 50
172.8442051823
 51
176.9984124683
  0
ARC
  5
30D
100
AcDbEntity
  8
0
100
AcDbCircle
 62
7
  6
CONTINUOUS
 10
110.5981567313
 20
242.0435605111
 40
177.5130090779
100
AcDbArc
 50
252.1903369319
 51
252.3628089601
  0
SPLINE
  5
30E
100
AcDbEntity
  8
0
100
AcDbSpline
 62
7
  6
CONTINUOUS
 70
0
 71
3
 72
17
 73
13
 74
0
 42
0.0000001
 43
0.0000001
 44
0.0000000001
 40
0.0
 40
0.0
 40
0.0
 40
0.0
 40
0.0280107417
 40
0.0583068709
 40
0.0925838667
 40
0.1319392964
 40
0.227758276
 40
0.3470718874
 40
0.4879670268
 40
0.6468610872
 40
0.8193552415
 40
1.0
 40
1.0
 40
1.0
 40
1.0
 10
64.327737249
 20
69.0119828583
 30
0.0
 10
64.3258516435
 20
69.0119828583
 30
0.0
 10
64.3219061757
 20
69.0126190939
 30
0.0
 10
64.3162295586
 20
69.0153466251
 30
0.0
 10
64.3107349453
 20
69.0197528371
 30
0.0
 10
64.3031829332
 20
69.0283574321
 30
0.0
 10
64.2946208406
 20
69.0433584963
 30
0.0
 10
64.2859980053
 20
69.0657652737
 30
0.0
 10
64.2787114997
 20
69.0930681559
 30
0.0
 10
64.2730135682
 20
69.1243725222
 30
0.0
 10
64.269121119
 20
69.1586429098
 30
0.0
 10
64.267833706
 20
69.1823954557
 30
0.0
 10
64.2675122257
 20
69.1945517098
 30
0.0
  0
SPLINE
  5
30F
100
AcDbEntity
  8
0
100
AcDbSpline
 62
7
  6
CONTINUOUS
 70
0
 71
3
 72
17
 73
13
 74
0
 42
0.0000001
 43
0.0000001
 44
0.0000000001
 40
0.0
 40
0.0
 40
0.0
 40
0.0
 40
0.1806447187
 40
0.3531388048
 40
0.5120328563
 40
0.652928007
 40
0.772241643
 40
0.8680606505
 40
0.9074161
 40
0.9416931118
 40
0.971989254
 40
1.0
 40
1.0
 40
1.0
 40
1.0
 10
64.2675122257
 20
60.1794140069
 30
0.0
 10
64.2678337059
 20
60.1915702582
 30
0.0
 10
64.2691211174
 20
60.2153227969
 30
0.0
 10
64.2730135659
 20
60.2495931765
 30
0.0
 10
64.278711495
 20
60.2808975386
 30
0.0
 10
64.285997999
 20
60.308200423
 30
0.0
 10
64.2946208332
 20
60.3306072054
 30
0.0
 10
64.3031829267
 20
60.3456082744
 30
0.0
 10
64.3107349395
 20
60.3542128746
 30
0.0
 10
64.3162295561
 20
60.3586190878
 30
0.0
 10
64.3219061743
 20
60.3613466214
 30
0.0
 10
64.3258516432
 20
60.3619828583
 30
0.0
 10
64.327737249
 20
60.3619828583
 30
0.0
  0
SPLINE
  5
310
100
AcDbEntity
  8
0
100
AcDbSpline
 62
7
  6
CONTINUOUS
 70
0
 71
3
 72
11
 73
7
 74
0
 42
0.0000001
 43
0.0000001
 44
0.0000000001
 40
0.0
 40
0.0
 40
0.0
 40
0.0
 40
0.0829868486
 40
0.3073275435
 40
0.6274529663
 40
1.0
 40
1.0
 40
1.0
 40
1.0
 10
10.0986910924
 20
56.8119828575
 30
0.0
 10
10.1103185081
 20
56.8352178355
 30
0.0
 10
10.152376715
 20
56.9217879002
 30
0.0
 10
10.2297708865
 20
57.1025713731
 30
0.0
 10
10.3146546664
 20
57.3778112477
 30
0.0
 10
10.3398453576
 20
57.5953292117
 30
0.0
 10
10.3398453576
 20
57.7119828575
 30
0.0
  0
SPLINE
  5
311
100
AcDbEntity
  8
0
100
AcDbSpline
 62
7
  6
CONTINUOUS
 70
0
 71
3
 72
12
 73
8
 74
0
 42
0.0000001
 43
0.0000001
 44
0.0000000001
 40
0.0
 40
0.0
 40
0.0
 40
0.0
 40
0.1899716882
 40
0.3728365524
 40
0.6927830802
 40
0.91702852
 40
1.0
 40
1.0
 40
1.0
 40
1.0
 10
10.3398453576
 20
71.6119828575
 30
0.0
 10
10.3398453576
 20
71.6715002251
 30
0.0
 10
10.3330807263
 20
71.7884192165
 30
0.0
 10
10.2970574225
 20
72.0027883199
 30
0.0
 10
10.2298871108
 20
72.2214382899
 30
0.0
 10
10.1523864822
 20
72.4021521704
 30
0.0
 10
10.1103172077
 20
72.4887342616
 30
0.0
 10
10.0986910875
 20
72.5119828575
 30
0.0
  0
SPLINE
  5
312
100
AcDbEntity
  8
0
100
AcDbSpline
 62
7
  6
CONTINUOUS
 70
0
 71
3
 72
10
 73
6
 74
0
 42
0.0000001
 43
0.0000001
 44
0.0000000001
 40
0.0
 40
0.0
 40
0.0
 40
0.0
 40
0.2500379957
 40
0.5002510711
 40
1.0
 40
1.0
 40
1.0
 40
1.0
 10
16.2359756297
 20
71.473459292
 30
0.0
 10
16.273125169
 20
71.4728110759
 30
0.0
 10
16.3473059807
 20
71.460310474
 30
0.0
 10
16.4870932894
 20
71.4087143607
 30
0.0
 10
16.5841063244
 20
71.352967219
 30
0.0
 10
16.6486515242
 20
71.316242156
 30
0.0
  0
SPLINE
  5
313
100
AcDbEntity
  8
0
100
AcDbSpline
 62
7
  6
CONTINUOUS
 70
0
 71
3
 72
10
 73
6
 74
0
 42
0.0000001
 43
0.0000001
 44
0.0000000001
 40
0.0
 40
0.0
 40
0.0
 40
0.0
 40
0.4997396808
 40
0.7499581141
 40
1.0
 40
1.0
 40
1.0
 40
1.0
 10
16.6486498372
 20
58.0077213096
 30
0.0
 10
16.5841040872
 20
57.970999459
 30
0.0
 10
16.4870911706
 20
57.9152594924
 30
0.0
 10
16.3473137612
 20
57.8636253858
 30
0.0
 10
16.2731260261
 20
57.8511546936
 30
0.0
 10
16.2359757777
 20
57.8505064184
 30
0.0
  0
SPLINE
  5
314
100
AcDbEntity
  8
0
100
AcDbSpline
 62
7
  6
CONTINUOUS
 70
0
 71
3
 72
9
 73
5
 74
0
 42
0.0000001
 43
0.0000001
 44
0.0000000001
 40
0.0
 40
0.0
 40
0.0
 40
0.0
 40
0.250016889
 40
1.0
 40
1.0
 40
1.0
 40
1.0
 10
56.8385907642
 20
73.0001342795
 30
0.0
 10
56.787161745
 20
72.7565422449
 30
0.0
 10
56.5907070285
 20
71.7803086463
 30
0.0
 10
56.4310825586
 20
70.7966776776
 30
0.0
 10
56.3320079789
 20
70.0564601725
 30
0.0
  0
SPLINE
  5
315
100
AcDbEntity
  8
0
100
AcDbSpline
 62
7
  6
CONTINUOUS
 70
0
 71
3
 72
9
 73
5
 74
0
 42
0.0000001
 43
0.0000001
 44
0.0000000001
 40
0.0
 40
0.0
 40
0.0
 40
0.0
 40
0.5000058891
 40
1.0
 40
1.0
 40
1.0
 40
1.0
 10
56.3320026403
 20
59.3175053618
 30
0.0
 10
56.3979841866
 20
58.8239804836
 30
0.0
 10
56.5485836657
 20
57.8393519415
 30
0.0
 10
56.7356673856
 20
56.8609922075
 30
0.0
 10
56.838582123
 20
56.3738400272
 30
0.0
  0
SPLINE
  5
316
100
AcDbEntity
  8
0
100
AcDbSpline
 62
7
  6
CONTINUOUS
 70
0
 71
3
 72
11
 73
7
 74
0
 42
0.0000001
 43
0.0000001
 44
0.0000000001
 40
0.0
 40
0.0
 40
0.0
 40
0.0
 40
0.2499973372
 40
0.4999636381
 40
0.7499568846
 40
1.0
 40
1.0
 40
1.0
 40
1.0
 10
56.2848055083
 20
73.2447589314
 30
0.0
 10
56.29938765
 20
73.2971269239
 30
0.0
 10
56.3463155315
 20
73.397777606
 30
0.0
 10
56.4612832483
 20
73.5173580194
 30
0.0
 10
56.6081817944
 20
73.5943250832
 30
0.0
 10
56.7177107953
 20
73.6119595489
 30
0.0
 10
56.7720810746
 20
73.6119828383
 30
0.0
  0
SPLINE
  5
317
100
AcDbEntity
  8
0
100
AcDbSpline
 62
7
  6
CONTINUOUS
 70
0
 71
3
 72
11
 73
7
 74
0
 42
0.0000001
 43
0.0000001
 44
0.0000000001
 40
0.0
 40
0.0
 40
0.0
 40
0.0
 40
0.2500418542
 40
0.5000365684
 40
0.7500049744
 40
1.0
 40
1.0
 40
1.0
 40
1.0
 10
56.772089955
 20
55.7619828765
 30
0.0
 10
56.7177183548
 20
55.7620061953
 30
0.0
 10
56.6081859972
 20
55.7796410525
 30
0.0
 10
56.4612834868
 20
55.8566129377
 30
0.0
 10
56.3463150384
 20
55.9761992591
 30
0.0
 10
56.299385366
 20
56.076852859
 30
0.0
 10
56.2848046226
 20
56.1292223746
 30
0.0
  0
SPLINE
  5
318
100
AcDbEntity
  8
0
100
AcDbSpline
 62
7
  6
CONTINUOUS
 70
0
 71
3
 72
11
 73
7
 74
0
 42
0.0000001
 43
0.0000001
 44
0.0000000001
 40
0.0
 40
0.0
 40
0.0
 40
0.0
 40
0.2500000014
 40
0.500000111
 40
0.7499999881
 40
1.0
 40
1.0
 40
1.0
 40
1.0
 10
56.0498312327
 20
66.974260709
 30
0.0
 10
55.9872812069
 20
66.9628672829
 30
0.0
 10
55.8621727167
 20
66.9401266685
 30
0.0
 10
55.6745404092
 20
66.9058486008
 30
0.0
 10
55.4868315582
 20
66.8719919237
 30
0.0
 10
55.3616572597
 20
66.8496160697
 30
0.0
 10
55.29909531
 20
66.8382882866
 30
0.0
  0
SPLINE
  5
319
100
AcDbEntity
  8
0
100
AcDbSpline
 62
7
  6
CONTINUOUS
 70
0
 71
3
 72
19
 73
15
 74
0
 42
0.0000001
 43
0.0000001
 44
0.0000000001
 40
0.0
 40
0.0
 40
0.0
 40
0.0
 40
0.1732629169
 40
0.3399380629
 40
0.4945759221
 40
0.6330314077
 40
0.6952993933
 40
0.7526058254
 40
0.8048473132
 40
0.8520724682
 40
0.8945285997
 40
0.9327129743
 40
0.9674631443
 40
1.0
 40
1.0
 40
1.0
 40
1.0
 10
57.5370345515
 20
71.3869983155
 30
0.0
 10
57.5516020056
 20
71.4822577543
 30
0.0
 10
57.587329006
 20
71.6681525022
 30
0.0
 10
57.6603195223
 20
71.9336513584
 30
0.0
 10
57.7472676946
 20
72.1744170679
 30
0.0
 10
57.8308939978
 20
72.3539233649
 30
0.0
 10
57.9026027638
 20
72.4783324832
 30
0.0
 10
57.9557214437
 20
72.5578702475
 30
0.0
 10
58.0097585008
 20
72.6264402396
 30
0.0
 10
58.0644395704
 20
72.6835747424
 30
0.0
 10
58.1195410075
 20
72.7288653591
 30
0.0
 10
58.1749243232
 20
72.7618909036
 30
0.0
 10
58.2303639804
 20
72.782226296
 30
0.0
 10
58.2679080592
 20
72.7869800236
 30
0.0
 10
58.2860046873
 20
72.7869798759
 30
0.0
  0
SPLINE
  5
31A
100
AcDbEntity
  8
0
100
AcDbSpline
 62
7
  6
CONTINUOUS
 70
0
 71
3
 72
20
 73
16
 74
0
 42
0.0000001
 43
0.0000001
 44
0.0000000001
 40
0.0
 40
0.0
 40
0.0
 40
0.0
 40
0.1732176165
 40
0.3392940938
 40
0.4922187402
 40
0.5623497366
 40
0.6277291542
 40
0.6881532265
 40
0.7436997816
 40
0.7945988774
 40
0.8412068058
 40
0.884080241
 40
0.9240968828
 40
0.9623393767
 40
1.0
 40
1.0
 40
1.0
 40
1.0
 10
57.2303867447
 20
68.3867205872
 30
0.0
 10
57.2226242782
 20
68.2928222919
 30
0.0
 10
57.2154906904
 20
68.1080988046
 30
0.0
 10
57.2304697983
 20
67.84038937
 30
0.0
 10
57.2647661936
 20
67.6309582234
 30
0.0
 10
57.3053744421
 20
67.4792990753
 30
0.0
 10
57.3403839301
 20
67.3785230935
 30
0.0
 10
57.3804440675
 20
67.2882405312
 30
0.0
 10
57.4250433846
 20
67.2090078892
 30
0.0
 10
57.4736906816
 20
67.1412122101
 30
0.0
 10
57.5259522246
 20
67.085201532
 30
0.0
 10
57.5814949348
 20
67.0413779434
 30
0.0
 10
57.6398422888
 20
67.0099707544
 30
0.0
 10
57.7004239117
 20
66.9911168109
 30
0.0
 10
57.741833902
 20
66.9869868307
 30
0.0
 10
57.7623187202
 20
66.9869837684
 30
0.0
  0
SPLINE
  5
31B
100
AcDbEntity
  8
0
100
AcDbSpline
 62
7
  6
CONTINUOUS
 70
0
 71
3
 72
11
 73
7
 74
0
 42
0.0000001
 43
0.0000001
 44
0.0000000001
 40
0.0
 40
0.0
 40
0.0
 40
0.0
 40
0.2500137234
 40
0.5000569313
 40
0.7500533412
 40
1.0
 40
1.0
 40
1.0
 40
1.0
 10
55.8210530989
 20
70.1869827988
 30
0.0
 10
55.8033113986
 20
70.1869600595
 30
0.0
 10
55.7675321957
 20
70.180804386
 30
0.0
 10
55.7203309546
 20
70.1540339764
 30
0.0
 10
55.6850677755
 20
70.1127126388
 30
0.0
 10
55.6728277855
 20
70.078432533
 30
0.0
 10
55.6699350032
 20
70.0609330641
 30
0.0
  0
SPLINE
  5
31C
100
AcDbEntity
  8
0
100
AcDbSpline
 62
7
  6
CONTINUOUS
 70
0
 71
3
 72
14
 73
10
 74
0
 42
0.0000001
 43
0.0000001
 44
0.0000000001
 40
0.0
 40
0.0
 40
0.0
 40
0.0
 40
0.2709323778
 40
0.4025051741
 40
0.5299256352
 40
0.6527906907
 40
0.7713506249
 40
0.8866318992
 40
1.0
 40
1.0
 40
1.0
 40
1.0
 10
59.6491769743
 20
56.231969138
 30
0.0
 10
59.6522369235
 20
56.1700799447
 30
0.0
 10
59.6711197325
 20
56.0778685898
 30
0.0
 10
59.7239643257
 20
55.9683249824
 30
0.0
 10
59.775220201
 20
55.896993269
 30
0.0
 10
59.8367341051
 20
55.8385049121
 30
0.0
 10
59.9064225176
 20
55.7949343203
 30
0.0
 10
59.9818165711
 20
55.7680760934
 30
0.0
 10
60.0342985431
 20
55.7619897017
 30
0.0
 10
60.0602268971
 20
55.7619828575
 30
0.0
  0
SPLINE
  5
31D
100
AcDbEntity
  8
0
100
AcDbSpline
 62
7
  6
CONTINUOUS
 70
0
 71
3
 72
11
 73
7
 74
0
 42
0.0000001
 43
0.0000001
 44
0.0000000001
 40
0.0
 40
0.0
 40
0.0
 40
0.0
 40
0.2499449823
 40
0.4999159664
 40
0.7499565563
 40
1.0
 40
1.0
 40
1.0
 40
1.0
 10
55.6699617041
 20
59.3130284776
 30
0.0
 10
55.6728542782
 20
59.2955302921
 30
0.0
 10
55.6851278983
 20
59.261267553
 30
0.0
 10
55.7203679129
 20
59.2199405846
 30
0.0
 10
55.7675669645
 20
59.1931720423
 30
0.0
 10
55.8033439894
 20
59.1870009262
 30
0.0
 10
55.8210866226
 20
59.1869829412
 30
0.0
  0
SPLINE
  5
31E
100
AcDbEntity
  8
0
100
AcDbSpline
 62
7
  6
CONTINUOUS
 70
0
 71
3
 72
13
 73
9
 74
0
 42
0.0000001
 43
0.0000001
 44
0.0000000001
 40
0.0
 40
0.0
 40
0.0
 40
0.0
 40
0.2706419552
 40
0.527379802
 40
0.6500753711
 40
0.7690706156
 40
0.8853651544
 40
1.0
 40
1.0
 40
1.0
 40
1.0
 10
59.657057216
 20
73.2162786868
 30
0.0
 10
59.6666082519
 20
73.2706147396
 30
0.0
 10
59.7000760987
 20
73.3745886503
 30
0.0
 10
59.7782386319
 20
73.4847110174
 30
0.0
 10
59.8569331522
 20
73.5497659681
 30
0.0
 10
59.9211981111
 20
73.585305258
 30
0.0
 10
59.9896137407
 20
73.6070465699
 30
0.0
 10
60.0368230535
 20
73.6119775463
 30
0.0
 10
60.0601908288
 20
73.6119828545
 30
0.0
  0
SPLINE
  5
31F
100
AcDbEntity
  8
0
100
AcDbSpline
 62
7
  6
CONTINUOUS
 70
0
 71
3
 72
16
 73
12
 74
0
 42
0.0000001
 43
0.0000001
 44
0.0000000001
 40
0.0
 40
0.0
 40
0.0
 40
0.0
 40
0.0714795763
 40
0.1582922128
 40
0.2580283269
 40
0.3702414571
 40
0.4953600055
 40
0.6358052128
 40
0.7973774908
 40
0.8910093478
 40
1.0
 40
1.0
 40
1.0
 40
1.0
 10
56.2848023948
 20
73.2447830331
 30
0.0
 10
56.364848073
 20
73.2399686281
 30
0.0
 10
56.5422088261
 20
73.230977138
 30
0.0
 10
56.831424037
 20
73.2187634488
 30
0.0
 10
57.1663619613
 20
73.2062535049
 30
0.0
 10
57.5442967796
 20
73.1936536598
 30
0.0
 10
57.9679212109
 20
73.1809509268
 30
0.0
 10
58.4469372014
 20
73.1680709608
 30
0.0
 10
58.8906788617
 20
73.1575912768
 30
0.0
 10
59.2991618114
 20
73.1488297436
 30
0.0
 10
59.5264302537
 20
73.1442325357
 30
0.0
 10
59.6486735911
 20
73.1415558445
 30
0.0
  0
SPLINE
  5
320
100
AcDbEntity
  8
0
100
AcDbSpline
 62
7
  6
CONTINUOUS
 70
0
 71
3
 72
29
 73
25
 74
0
 42
0.0000001
 43
0.0000001
 44
0.0000000001
 40
0.0
 40
0.0
 40
0.0
 40
0.0
 40
0.0988352273
 40
0.1962104265
 40
0.2903860989
 40
0.3799168978
 40
0.4641391435
 40
0.5417815264
 40
0.611482686
 40
0.6434411162
 40
0.6735560168
 40
0.7279931559
 40
0.7522331007
 40
0.7744526502
 40
0.7947142426
 40
0.8132924649
 40
0.8471380588
 40
0.8632998904
 40
0.8794053969
 40
0.8959560727
 40
0.913520911
 40
0.9325113755
 40
0.9531720356
 40
1.0
 40
1.0
 40
1.0
 40
1.0
 10
57.3481581174
 20
57.9620277514
 30
0.0
 10
57.3575069174
 20
57.8915144784
 30
0.0
 10
57.3792864259
 20
57.7519386481
 30
0.0
 10
57.4203088909
 20
57.5469580264
 30
0.0
 10
57.4687651538
 20
57.350474852
 30
0.0
 10
57.5243420438
 20
57.1657510901
 30
0.0
 10
57.5846038582
 20
56.9950865235
 30
0.0
 10
57.6484211663
 20
56.8410127801
 30
0.0
 10
57.7066947932
 20
56.725709529
 30
0.0
 10
57.7547461991
 20
56.6439124041
 30
0.0
 10
57.8002417901
 20
56.5734730167
 30
0.0
 10
57.8473611845
 20
56.5106504207
 30
0.0
 10
57.8971680071
 20
56.4577085713
 30
0.0
 10
57.9331167076
 20
56.4257581795
 30
0.0
 10
57.969153774
 20
56.400387305
 30
0.0
 10
58.0157433385
 20
56.3763233355
 30
0.0
 10
58.0642325184
 20
56.3633077717
 30
0.0
 10
58.1119630842
 20
56.3617988798
 30
0.0
 10
58.1469373971
 20
56.3668852301
 30
0.0
 10
58.181272031
 20
56.3788755695
 30
0.0
 10
58.2145312028
 20
56.3980864387
 30
0.0
 10
58.2467435128
 20
56.423942827
 30
0.0
 10
58.290165041
 20
56.4686887005
 30
0.0
 10
58.3183918111
 20
56.5086230546
 30
0.0
 10
58.3359995796
 20
56.5373589632
 30
0.0
  0
SPLINE
  5
321
100
AcDbEntity
  8
0
100
AcDbSpline
 62
7
  6
CONTINUOUS
 70
0
 71
3
 72
14
 73
10
 74
0
 42
0.0000001
 43
0.0000001
 44
0.0000000001
 40
0.0
 40
0.0
 40
0.0
 40
0.0
 40
0.0849873922
 40
0.1835533203
 40
0.2954987043
 40
0.4198330918
 40
0.5548597546
 40
0.6982845088
 40
1.0
 40
1.0
 40
1.0
 40
1.0
 10
58.3359995796
 20
56.5373589632
 30
0.0
 10
58.3577373832
 20
56.5728350961
 30
0.0
 10
58.3984348596
 20
56.6533102575
 30
0.0
 10
58.4488180469
 20
56.7891362083
 30
0.0
 10
58.4917194295
 20
56.9475538677
 30
0.0
 10
58.5258047388
 20
57.1262541783
 30
0.0
 10
58.5498323117
 20
57.322111712
 30
0.0
 10
58.5675351797
 20
57.6056975585
 30
0.0
 10
58.5616004012
 20
57.8242146017
 30
0.0
 10
58.5491144475
 20
57.971393476
 30
0.0
  0
SPLINE
  5
322
100
AcDbEntity
  8
0
100
AcDbSpline
 62
7
  6
CONTINUOUS
 70
0
 71
3
 72
13
 73
9
 74
0
 42
0.0000001
 43
0.0000001
 44
0.0000000001
 40
0.0
 40
0.0
 40
0.0
 40
0.0
 40
0.2301128486
 40
0.3562675797
 40
0.4870129543
 40
0.6199659989
 40
0.7520910833
 40
1.0
 40
1.0
 40
1.0
 40
1.0
 10
57.7473389881
 20
66.0869737554
 30
0.0
 10
57.7238807016
 20
66.0869741652
 30
0.0
 10
57.6870195685
 20
66.0947472556
 30
0.0
 10
57.6438266859
 20
66.1197554541
 30
0.0
 10
57.6139467403
 20
66.1464414271
 30
0.0
 10
57.5901912501
 20
66.1794298198
 30
0.0
 10
57.5681631042
 20
66.2271196846
 30
0.0
 10
57.5621491056
 20
66.2664914943
 30
0.0
 10
57.562707532
 20
66.2917577868
 30
0.0
  0
SPLINE
  5
323
100
AcDbEntity
  8
0
100
AcDbSpline
 62
7
  6
CONTINUOUS
 70
0
 71
3
 72
32
 73
28
 74
0
 42
0.0000001
 43
0.0000001
 44
0.0000000001
 40
0.0
 40
0.0
 40
0.0
 40
0.0
 40
0.0170072522
 40
0.0346750634
 40
0.0536431781
 40
0.0744296079
 40
0.0974097144
 40
0.1228355116
 40
0.1508708042
 40
0.1815453982
 40
0.250331033
 40
0.327866238
 40
0.4121381762
 40
0.5000240161
 40
0.5879193059
 40
0.6722081076
 40
0.7496192171
 40
0.7853005354
 40
0.8185634002
 40
0.8491725962
 40
0.8771509167
 40
0.9025741888
 40
0.9255646146
 40
0.9463556777
 40
0.9653259558
 40
0.9829941717
 40
1.0
 40
1.0
 40
1.0
 40
1.0
 10
57.562707532
 20
66.2917577868
 30
0.0
 10
57.5416832133
 20
66.2917608653
 30
0.0
 10
57.4986697349
 20
66.2868187294
 30
0.0
 10
57.4356295634
 20
66.2647644146
 30
0.0
 10
57.3742557796
 20
66.2282881506
 30
0.0
 10
57.3149841341
 20
66.177810883
 30
0.0
 10
57.2580438662
 20
66.1136781918
 30
0.0
 10
57.2037856744
 20
66.0360953831
 30
0.0
 10
57.1527513951
 20
65.945305868
 30
0.0
 10
57.0870468057
 20
65.801889945
 30
0.0
 10
57.017355055
 20
65.5938418063
 30
0.0
 10
56.9556076034
 20
65.3151278339
 30
0.0
 10
56.9174292682
 20
65.0083860835
 30
0.0
 10
56.9051690877
 20
64.6868020136
 30
0.0
 10
56.917565715
 20
64.3652174957
 30
0.0
 10
56.9553022214
 20
64.0585469906
 30
0.0
 10
57.0089615756
 20
63.8200583674
 30
0.0
 10
57.0620161308
 20
63.6470127002
 30
0.0
 10
57.1051510643
 20
63.5316488157
 30
0.0
 10
57.1527370137
 20
63.4284278907
 30
0.0
 10
57.2039233921
 20
63.3379114614
 30
0.0
 10
57.2581032014
 20
63.2603572593
 30
0.0
 10
57.3149748617
 20
63.1961414366
 30
0.0
 10
57.3742395845
 20
63.1456190438
 30
0.0
 10
57.435617171
 20
63.1091302669
 30
0.0
 10
57.4986617045
 20
63.0870788307
 30
0.0
 10
57.5416823165
 20
63.0821732023
 30
0.0
 10
57.5627048463
 20
63.0822081221
 30
0.0
  0
SPLINE
  5
324
100
AcDbEntity
  8
0
100
AcDbSpline
 62
7
  6
CONTINUOUS
 70
0
 71
3
 72
12
 73
8
 74
0
 42
0.0000001
 43
0.0000001
 44
0.0000000001
 40
0.0
 40
0.0
 40
0.0
 40
0.0
 40
0.2142882576
 40
0.462500637
 40
0.5968070653
 40
0.7337179812
 40
1.0
 40
1.0
 40
1.0
 40
1.0
 10
57.7473371396
 20
63.2869918277
 30
0.0
 10
57.7255208043
 20
63.2869914198
 30
0.0
 10
57.6780164278
 20
63.2777123711
 30
0.0
 10
57.6262777973
 20
63.2423364973
 30
0.0
 10
57.5936367025
 20
63.2003182202
 30
0.0
 10
57.5690282592
 20
63.1511202318
 30
0.0
 10
57.5621067129
 20
63.1093112599
 30
0.0
 10
57.5627056831
 20
63.0822081431
 30
0.0
  0
SPLINE
  5
325
100
AcDbEntity
  8
0
100
AcDbSpline
 62
7
  6
CONTINUOUS
 70
0
 71
3
 72
15
 73
11
 74
0
 42
0.0000001
 43
0.0000001
 44
0.0000000001
 40
0.0
 40
0.0
 40
0.0
 40
0.0
 40
0.2026516981
 40
0.3642273072
 40
0.504666658
 40
0.6297783063
 40
0.7419868086
 40
0.8417202022
 40
0.9285289431
 40
1.0
 40
1.0
 40
1.0
 40
1.0
 10
59.6491598687
 20
56.2324336746
 30
0.0
 10
59.42183152
 20
56.2275573239
 30
0.0
 10
59.0132415938
 20
56.2193082647
 30
0.0
 10
58.4471496828
 20
56.2058988202
 30
0.0
 10
57.9680743251
 20
56.1930274321
 30
0.0
 10
57.5444076716
 20
56.1803247565
 30
0.0
 10
57.1664337813
 20
56.1677248706
 30
0.0
 10
56.8314596015
 20
56.1552168928
 30
0.0
 10
56.5422191717
 20
56.1430031616
 30
0.0
 10
56.364846699
 20
56.1340088021
 30
0.0
 10
56.2847985885
 20
56.1291996412
 30
0.0
  0
SPLINE
  5
326
100
AcDbEntity
  8
0
100
AcDbSpline
 62
7
  6
CONTINUOUS
 70
0
 71
3
 72
33
 73
29
 74
0
 42
0.0000001
 43
0.0000001
 44
0.0000000001
 40
0.0
 40
0.0
 40
0.0
 40
0.0
 40
0.0170133003
 40
0.0348620702
 40
0.054139585
 40
0.0752888014
 40
0.098603431
 40
0.124271107
 40
0.1524094937
 40
0.1830739917
 40
0.2518241745
 40
0.2894299082
 40
0.3288373806
 40
0.4125547546
 40
0.5000086884
 40
0.5874594484
 40
0.6712395799
 40
0.7106061358
 40
0.7481666217
 40
0.8169274796
 40
0.8475852386
 40
0.8757225849
 40
0.9014010993
 40
0.924719551
 40
0.9458628443
 40
0.965136626
 40
0.9829860889
 40
1.0
 40
1.0
 40
1.0
 40
1.0
 10
57.5627056831
 20
63.0822081431
 30
0.0
 10
57.5839674977
 20
63.0822083556
 30
0.0
 10
57.6276740421
 20
63.0873414124
 30
0.0
 10
57.6919867692
 20
63.1097698684
 30
0.0
 10
57.7552571231
 20
63.1465969494
 30
0.0
 10
57.8170717402
 20
63.1972704551
 30
0.0
 10
57.8771725946
 20
63.2613456662
 30
0.0
 10
57.9351531061
 20
63.3385338889
 30
0.0
 10
57.9905559359
 20
63.4285450592
 30
0.0
 10
58.0628461747
 20
63.5707919359
 30
0.0
 10
58.1224460131
 20
63.7319279826
 30
0.0
 10
58.1728304126
 20
63.9069986104
 30
0.0
 10
58.2187417738
 20
64.1026511101
 30
0.0
 10
58.2566980223
 20
64.3636532522
 30
0.0
 10
58.2702793898
 20
64.6870201527
 30
0.0
 10
58.2562192413
 20
65.0103899758
 30
0.0
 10
58.2191153996
 20
65.2715471893
 30
0.0
 10
58.1729454391
 20
65.4671237974
 30
0.0
 10
58.1222296051
 20
65.6419925514
 30
0.0
 10
58.0628671176
 20
65.8031535777
 30
0.0
 10
57.9905448012
 20
65.9453948713
 30
0.0
 10
57.9351263862
 20
66.0353977239
 30
0.0
 10
57.8771921905
 20
66.1126400502
 30
0.0
 10
57.8171111973
 20
66.1767533616
 30
0.0
 10
57.7552660708
 20
66.2273833564
 30
0.0
 10
57.6919776587
 20
66.2641521901
 30
0.0
 10
57.6276738366
 20
66.2865850618
 30
0.0
 10
57.5839695451
 20
66.2917446604
 30
0.0
 10
57.5627069712
 20
66.291757801
 30
0.0
  0
SPLINE
  5
327
100
AcDbEntity
  8
0
100
AcDbSpline
 62
7
  6
CONTINUOUS
 70
0
 71
3
 72
31
 73
27
 74
0
 42
0.0000001
 43
0.0000001
 44
0.0000000001
 40
0.0
 40
0.0
 40
0.0
 40
0.0
 40
0.0187058042
 40
0.0378047667
 40
0.0579604669
 40
0.0796658047
 40
0.1288860176
 40
0.1871901711
 40
0.2548880432
 40
0.3310645495
 40
0.4137338028
 40
0.4999665307
 40
0.5433293478
 40
0.586224087
 40
0.6282152446
 40
0.6689044346
 40
0.7079633651
 40
0.7450998656
 40
0.8127727315
 40
0.8431301972
 40
0.8711274207
 40
0.9203405624
 40
0.9420407511
 40
0.9621966344
 40
0.9812999429
 40
1.0
 40
1.0
 40
1.0
 40
1.0
 10
57.7473389927
 20
66.0869828575
 30
0.0
 10
57.726574596
 20
66.0869828575
 30
0.0
 10
57.6844885066
 20
66.0828343928
 30
0.0
 10
57.6225898703
 20
66.0639639161
 30
0.0
 10
57.5621920759
 20
66.032716042
 30
0.0
 10
57.480610513
 20
65.9723931223
 30
0.0
 10
57.3848839426
 20
65.8634784042
 30
0.0
 10
57.2876936638
 20
65.694026143
 30
0.0
 10
57.2061613391
 20
65.4841848077
 30
0.0
 10
57.14415648
 20
65.2399287596
 30
0.0
 10
57.1054436942
 20
64.9701945249
 30
0.0
 10
57.0944207372
 20
64.7344453374
 30
0.0
 10
57.0989677485
 20
64.542969234
 30
0.0
 10
57.1090046959
 20
64.4009054973
 30
0.0
 10
57.1255862331
 20
64.2624396283
 30
0.0
 10
57.1487070526
 20
64.1292329254
 30
0.0
 10
57.1777298165
 20
64.0026963542
 30
0.0
 10
57.2219897283
 20
63.8492125595
 30
0.0
 10
57.2763085034
 20
63.7087357939
 30
0.0
 10
57.3421442255
 20
63.585088273
 30
0.0
 10
57.4073384709
 20
63.484996637
 30
0.0
 10
57.4806457566
 20
63.4015735198
 30
0.0
 10
57.5621959326
 20
63.3412467978
 30
0.0
 10
57.6225963812
 20
63.3099998059
 30
0.0
 10
57.6844947631
 20
63.2911363548
 30
0.0
 10
57.7265786168
 20
63.2869828575
 30
0.0
 10
57.747336634
 20
63.2869828575
 30
0.0
  0
SPLINE
  5
328
100
AcDbEntity
  8
0
100
AcDbSpline
 62
7
  6
CONTINUOUS
 70
0
 71
3
 72
11
 73
7
 74
0
 42
0.0000001
 43
0.0000001
 44
0.0000000001
 40
0.0
 40
0.0
 40
0.0
 40
0.0
 40
0.2499275754
 40
0.4998623047
 40
0.7498524721
 40
1.0
 40
1.0
 40
1.0
 40
1.0
 10
55.6215126268
 20
69.7595651269
 30
0.0
 10
55.6181956801
 20
69.7382633337
 30
0.0
 10
55.6212016818
 20
69.6935497722
 30
0.0
 10
55.6539051888
 20
69.635404532
 30
0.0
 10
55.7077505121
 20
69.5961783632
 30
0.0
 10
55.7514233266
 20
69.5870050404
 30
0.0
 10
55.7730007791
 20
69.5869829484
 30
0.0
  0
SPLINE
  5
329
100
AcDbEntity
  8
0
100
AcDbSpline
 62
7
  6
CONTINUOUS
 70
0
 71
3
 72
11
 73
7
 74
0
 42
0.0000001
 43
0.0000001
 44
0.0000000001
 40
0.0
 40
0.0
 40
0.0
 40
0.0
 40
0.2500000076
 40
0.4999998927
 40
0.7499999982
 40
1.0
 40
1.0
 40
1.0
 40
1.0
 10
55.2642208521
 20
66.2134834667
 30
0.0
 10
55.3261825447
 20
66.1963873849
 30
0.0
 10
55.4500323844
 20
66.1619295316
 30
0.0
 10
55.6358803299
 20
66.1105064731
 30
0.0
 10
55.8218471128
 20
66.0595150088
 30
0.0
 10
55.9458049782
 20
66.0254480138
 30
0.0
 10
56.0077877531
 20
66.008428531
 30
0.0
  0
SPLINE
  5
32A
100
AcDbEntity
  8
0
100
AcDbSpline
 62
7
  6
CONTINUOUS
 70
0
 71
3
 72
11
 73
7
 74
0
 42
0.0000001
 43
0.0000001
 44
0.0000000001
 40
0.0
 40
0.0
 40
0.0
 40
0.0
 40
0.2499990624
 40
0.5000000587
 40
0.7500010264
 40
1.0
 40
1.0
 40
1.0
 40
1.0
 10
59.6490962252
 20
56.2319635853
 30
0.0
 10
59.5521417865
 20
57.6388352665
 30
0.0
 10
59.406704859
 20
60.4561722463
 30
0.0
 10
59.3343280524
 20
64.6869982941
 30
0.0
 10
59.4064318582
 20
68.9178291512
 30
0.0
 10
59.5517262609
 20
71.7351728782
 30
0.0
 10
59.6485985895
 20
73.1420497135
 30
0.0
  0
SPLINE
  5
32B
100
AcDbEntity
  8
0
100
AcDbSpline
 62
7
  6
CONTINUOUS
 70
0
 71
3
 72
9
 73
5
 74
0
 42
0.0000001
 43
0.0000001
 44
0.0000000001
 40
0.0
 40
0.0
 40
0.0
 40
0.0
 40
0.4597896963
 40
1.0
 40
1.0
 40
1.0
 40
1.0
 10
56.3047338822
 20
73.037366836
 30
0.0
 10
56.3864661383
 20
73.0304941159
 30
0.0
 10
56.5643710085
 20
73.0172807513
 30
0.0
 10
56.7423978582
 20
73.0059197396
 30
0.0
 10
56.8385907642
 20
73.0001342795
 30
0.0
  0
SPLINE
  5
32C
100
AcDbEntity
  8
0
100
AcDbSpline
 62
7
  6
CONTINUOUS
 70
0
 71
3
 72
11
 73
7
 74
0
 42
0.0000001
 43
0.0000001
 44
0.0000000001
 40
0.0
 40
0.0
 40
0.0
 40
0.0
 40
0.2500000032
 40
0.5000000994
 40
0.7499999899
 40
1.0
 40
1.0
 40
1.0
 40
1.0
 10
56.0077854484
 20
63.3655914359
 30
0.0
 10
55.9457954547
 20
63.3485680172
 30
0.0
 10
55.821824856
 20
63.3144869505
 30
0.0
 10
55.635835709
 20
63.2634862936
 30
0.0
 10
55.4499588497
 20
63.2120777428
 30
0.0
 10
55.3260883016
 20
63.1776346464
 30
0.0
 10
55.2641184482
 20
63.1605380501
 30
0.0
  0
SPLINE
  5
32D
100
AcDbEntity
  8
0
100
AcDbSpline
 62
7
  6
CONTINUOUS
 70
0
 71
3
 72
9
 73
5
 74
0
 42
0.0000001
 43
0.0000001
 44
0.0000000001
 40
0.0
 40
0.0
 40
0.0
 40
0.0
 40
0.5402074211
 40
1.0
 40
1.0
 40
1.0
 40
1.0
 10
56.838582123
 20
56.3738400272
 30
0.0
 10
56.742390492
 20
56.3680394232
 30
0.0
 10
56.5643710136
 20
56.3565751487
 30
0.0
 10
56.386450921
 20
56.3435553771
 30
0.0
 10
56.3047203056
 20
56.3366555214
 30
0.0
  0
SPLINE
  5
32E
100
AcDbEntity
  8
0
100
AcDbSpline
 62
7
  6
CONTINUOUS
 70
0
 71
3
 72
32
 73
28
 74
0
 42
0.0000001
 43
0.0000001
 44
0.0000000001
 40
0.0
 40
0.0
 40
0.0
 40
0.0
 40
0.0877113508
 40
0.1717653408
 40
0.2489014581
 40
0.2840907807
 40
0.3167459303
 40
0.3467295171
 40
0.3739696234
 40
0.3985447729
 40
0.4206568928
 40
0.4406449495
 40
0.4589710341
 40
0.4761910181
 40
0.4930073873
 40
0.5102205255
 40
0.5285129454
 40
0.5483895533
 40
0.5702121312
 40
0.5942232176
 40
0.6205913761
 40
0.6494232335
 40
0.6806967739
 40
0.7501688913
 40
0.8280657536
 40
0.9122735585
 40
1.0
 40
1.0
 40
1.0
 40
1.0
 10
57.042359224
 20
60.972173394
 30
0.0
 10
57.0350587445
 20
61.0807789202
 30
0.0
 10
57.027437539
 20
61.294054848
 30
0.0
 10
57.04307254
 20
61.6029262324
 30
0.0
 10
57.0780183239
 20
61.8446214485
 30
0.0
 10
57.1195426304
 20
62.0197959067
 30
0.0
 10
57.1552173436
 20
62.1359445929
 30
0.0
 10
57.1959179805
 20
62.2399279571
 30
0.0
 10
57.2413538043
 20
62.3308876992
 30
0.0
 10
57.29102158
 20
62.4082727543
 30
0.0
 10
57.3444335611
 20
62.4718247064
 30
0.0
 10
57.4011650307
 20
62.5213919674
 30
0.0
 10
57.4607199997
 20
62.5569225484
 30
0.0
 10
57.5227813864
 20
62.5780005426
 30
0.0
 10
57.5867747572
 20
62.5835704184
 30
0.0
 10
57.6514999812
 20
62.5736565153
 30
0.0
 10
57.7162164391
 20
62.5493136409
 30
0.0
 10
57.7805406825
 20
62.511206374
 30
0.0
 10
57.8441179271
 20
62.4597633333
 30
0.0
 10
57.9065905696
 20
62.395272527
 30
0.0
 10
57.9673894216
 20
62.3178332382
 30
0.0
 10
58.0258567518
 20
62.227694973
 30
0.0
 10
58.1028706892
 20
62.086392043
 30
0.0
 10
58.1889567126
 20
61.8814151244
 30
0.0
 10
58.2698223211
 20
61.6051185704
 30
0.0
 10
58.3276421125
 20
61.3000618285
 30
0.0
 10
58.3475123064
 20
61.0872314213
 30
0.0
 10
58.3524316316
 20
60.9784732724
 30
0.0
  0
SPLINE
  5
32F
100
AcDbEntity
  8
0
100
AcDbSpline
 62
7
  6
CONTINUOUS
 70
0
 71
3
 72
31
 73
27
 74
0
 42
0.0000001
 43
0.0000001
 44
0.0000000001
 40
0.0
 40
0.0
 40
0.0
 40
0.0
 40
0.0989612083
 40
0.1963565935
 40
0.2904815981
 40
0.3800904288
 40
0.4644703672
 40
0.5417598197
 40
0.5771070962
 40
0.6105598826
 40
0.642491358
 40
0.6729725638
 40
0.7015143423
 40
0.7276282599
 40
0.7511806494
 40
0.772617705
 40
0.7924179324
 40
0.8109208044
 40
0.8447785864
 40
0.8609119269
 40
0.8771014713
 40
0.8938666221
 40
0.9117160789
 40
0.9310693941
 40
0.9521705681
 40
1.0
 40
1.0
 40
1.0
 40
1.0
 10
57.3480010058
 20
71.4107235317
 30
0.0
 10
57.3570654822
 20
71.4818599787
 30
0.0
 10
57.3789738704
 20
71.6225251819
 30
0.0
 10
57.4208143975
 20
71.8288812935
 30
0.0
 10
57.4700082947
 20
72.0266474707
 30
0.0
 10
57.5259817568
 20
72.2127765393
 30
0.0
 10
57.5864381074
 20
72.3845938881
 30
0.0
 10
57.6413519663
 20
72.5165335453
 30
0.0
 10
57.6884557223
 20
72.6113758253
 30
0.0
 10
57.7234979926
 20
72.675427744
 30
0.0
 10
57.7588953562
 20
72.735213
 30
0.0
 10
57.7941947707
 20
72.7908909235
 30
0.0
 10
57.8296936479
 20
72.8413875463
 30
0.0
 10
57.8655060902
 20
72.8854045287
 30
0.0
 10
57.9019533646
 20
72.9219628674
 30
0.0
 10
57.9385133782
 20
72.951554297
 30
0.0
 10
57.9749818571
 20
72.9750607677
 30
0.0
 10
58.0217156782
 20
72.9985910298
 30
0.0
 10
58.0704419568
 20
73.0122600791
 30
0.0
 10
58.1186647975
 20
73.0121749408
 30
0.0
 10
58.1537961449
 20
73.0053476928
 30
0.0
 10
58.1881785963
 20
72.9916266278
 30
0.0
 10
58.2215682568
 20
72.9709306896
 30
0.0
 10
58.253814974
 20
72.9434289743
 30
0.0
 10
58.2971981888
 20
72.8962650659
 30
0.0
 10
58.3253542335
 20
72.8546326224
 30
0.0
 10
58.3429867591
 20
72.8247936955
 30
0.0
  0
SPLINE
  5
330
100
AcDbEntity
  8
0
100
AcDbSpline
 62
7
  6
CONTINUOUS
 70
0
 71
3
 72
16
 73
12
 74
0
 42
0.0000001
 43
0.0000001
 44
0.0000000001
 40
0.0
 40
0.0
 40
0.0
 40
0.0
 40
0.0858290589
 40
0.1851601527
 40
0.2976171414
 40
0.4220753794
 40
0.5569071476
 40
0.6997915851
 40
0.7735269349
 40
0.8484210984
 40
1.0
 40
1.0
 40
1.0
 40
1.0
 10
58.3429867591
 20
72.8247936955
 30
0.0
 10
58.3641670118
 20
72.78895107
 30
0.0
 10
58.403950809
 20
72.7080971532
 30
0.0
 10
58.4528740915
 20
72.5720566947
 30
0.0
 10
58.4944259526
 20
72.4141505921
 30
0.0
 10
58.5274021573
 20
72.2367287575
 30
0.0
 10
58.5506214325
 20
72.0429080258
 30
0.0
 10
58.5606421168
 20
71.8726218912
 30
0.0
 10
58.5630524694
 20
71.7312213352
 30
0.0
 10
58.561846956
 20
71.5856088759
 30
0.0
 10
58.5564275945
 20
71.4757427848
 30
0.0
 10
58.5491216188
 20
71.4025806767
 30
0.0
  0
SPLINE
  5
331
100
AcDbEntity
  8
0
100
AcDbSpline
 62
7
  6
CONTINUOUS
 70
0
 71
3
 72
18
 73
14
 74
0
 42
0.0000001
 43
0.0000001
 44
0.0000000001
 40
0.0
 40
0.0
 40
0.0
 40
0.0
 40
0.0780313268
 40
0.1556926125
 40
0.2322838962
 40
0.3074125035
 40
0.4520024039
 40
0.5870636647
 40
0.6502102185
 40
0.7100616698
 40
0.8198240866
 40
0.9164182881
 40
1.0
 40
1.0
 40
1.0
 40
1.0
 10
58.3524333772
 20
68.3954680757
 30
0.0
 10
58.3513464684
 20
68.3528215331
 30
0.0
 10
58.34600474
 20
68.2678060977
 30
0.0
 10
58.3321379638
 20
68.1415560634
 30
0.0
 10
58.314784966
 20
68.0173348152
 30
0.0
 10
58.2865648178
 20
67.8577803397
 30
0.0
 10
58.2416078091
 20
67.6689003312
 30
0.0
 10
58.1845594023
 20
67.4901512985
 30
0.0
 10
58.132600095
 20
67.3589234682
 30
0.0
 10
58.0797008033
 20
67.2431421176
 30
0.0
 10
58.0090743923
 20
67.1155165928
 30
0.0
 10
57.9162570298
 20
66.9865361039
 30
0.0
 10
57.8465065934
 20
66.9160205583
 30
0.0
 10
57.8109124937
 20
66.887366101
 30
0.0
  0
SPLINE
  5
332
100
AcDbEntity
  8
0
100
AcDbSpline
 62
7
  6
CONTINUOUS
 70
0
 71
3
 72
23
 73
19
 74
0
 42
0.0000001
 43
0.0000001
 44
0.0000000001
 40
0.0
 40
0.0
 40
0.0
 40
0.0
 40
0.0449611887
 40
0.0853348773
 40
0.1228729427
 40
0.1595686741
 40
0.1980645748
 40
0.2406195795
 40
0.2884227353
 40
0.3426221315
 40
0.4040761539
 40
0.4727826713
 40
0.5483783348
 40
0.630293035
 40
0.7176202435
 40
0.8092400728
 40
0.9038984687
 40
1.0
 40
1.0
 40
1.0
 40
1.0
 10
57.8109124937
 20
66.887366101
 30
0.0
 10
57.7866266688
 20
66.8678151884
 30
0.0
 10
57.7374351728
 20
66.8341803084
 30
0.0
 10
57.6579249028
 20
66.8016654489
 30
0.0
 10
57.5785100716
 20
66.7896508327
 30
0.0
 10
57.4997848539
 20
66.7996098677
 30
0.0
 10
57.4247566227
 20
66.8345555184
 30
0.0
 10
57.3547603955
 20
66.8910697457
 30
0.0
 10
57.2890118508
 20
66.9673304608
 30
0.0
 10
57.2289749719
 20
67.0639245272
 30
0.0
 10
57.1757472256
 20
67.1804523664
 30
0.0
 10
57.1296465772
 20
67.3156795053
 30
0.0
 10
57.091490805
 20
67.4679946387
 30
0.0
 10
57.0621496813
 20
67.6353466887
 30
0.0
 10
57.0420286282
 20
67.8152156872
 30
0.0
 10
57.0315102474
 20
68.0047520762
 30
0.0
 10
57.0316186802
 20
68.2006521925
 30
0.0
 10
57.0378662975
 20
68.3328254187
 30
0.0
 10
57.0421903745
 20
68.3993249034
 30
0.0
  0
SPLINE
  5
333
100
AcDbEntity
  8
0
100
AcDbSpline
 62
7
  6
CONTINUOUS
 70
0
 71
3
 72
11
 73
7
 74
0
 42
0.0000001
 43
0.0000001
 44
0.0000000001
 40
0.0
 40
0.0
 40
0.0
 40
0.0
 40
0.2501223069
 40
0.5001217318
 40
0.7500759798
 40
1.0
 40
1.0
 40
1.0
 40
1.0
 10
55.7729868175
 20
59.7869827963
 30
0.0
 10
55.7514096253
 20
59.7869545454
 30
0.0
 10
55.7077318841
 20
59.7777998116
 30
0.0
 10
55.6538832024
 20
59.7385662294
 30
0.0
 10
55.6211579087
 20
59.6804197359
 30
0.0
 10
55.618179285
 20
59.6356975898
 30
0.0
 10
55.6214975625
 20
59.61439437
 30
0.0
  0
SPLINE
  5
334
100
AcDbEntity
  8
0
100
AcDbSpline
 62
7
  6
CONTINUOUS
 70
0
 71
3
 72
11
 73
7
 74
0
 42
0.0000001
 43
0.0000001
 44
0.0000000001
 40
0.0
 40
0.0
 40
0.0
 40
0.0
 40
0.2500000062
 40
0.499999841
 40
0.7500000016
 40
1.0
 40
1.0
 40
1.0
 40
1.0
 10
55.2991766645
 20
62.5355887652
 30
0.0
 10
55.3617302228
 20
62.5242609788
 30
0.0
 10
55.4869014904
 20
62.5019617988
 30
0.0
 10
55.6745967776
 20
62.4681692134
 30
0.0
 10
55.8621968952
 20
62.4338525316
 30
0.0
 10
55.9872858416
 20
62.411096698
 30
0.0
 10
56.0498267791
 20
62.3996994489
 30
0.0
  0
SPLINE
  5
335
100
AcDbEntity
  8
0
100
AcDbSpline
 62
7
  6
CONTINUOUS
 70
0
 71
3
 72
19
 73
15
 74
0
 42
0.0000001
 43
0.0000001
 44
0.0000000001
 40
0.0
 40
0.0
 40
0.0
 40
0.0
 40
0.032531694
 40
0.0672779277
 40
0.1054593739
 40
0.1479120791
 40
0.1951324317
 40
0.2473733106
 40
0.3046749527
 40
0.366946846
 40
0.5054166804
 40
0.6600618414
 40
0.8267470961
 40
1.0
 40
1.0
 40
1.0
 40
1.0
 10
58.2860007657
 20
56.5869842224
 30
0.0
 10
58.2679097677
 20
56.5869835621
 30
0.0
 10
58.2303777079
 20
56.5917444915
 30
0.0
 10
58.1749503646
 20
56.6120645729
 30
0.0
 10
58.1195783388
 20
56.6450804339
 30
0.0
 10
58.0644907196
 20
56.6903600741
 30
0.0
 10
58.0098109482
 20
56.7474722818
 30
0.0
 10
57.9557851365
 20
56.8160273734
 30
0.0
 10
57.9026684657
 20
56.895547498
 30
0.0
 10
57.8309506876
 20
57.0199351334
 30
0.0
 10
57.7473273346
 20
57.1994245775
 30
0.0
 10
57.6603661205
 20
57.4401671452
 30
0.0
 10
57.5874466651
 20
57.7056339012
 30
0.0
 10
57.5514655891
 20
57.8914614811
 30
0.0
 10
57.5370769843
 20
57.9867276053
 30
0.0
  0
SPLINE
  5
336
100
AcDbEntity
  8
0
100
AcDbSpline
 62
7
  6
CONTINUOUS
 70
0
 71
3
 72
20
 73
16
 74
0
 42
0.0000001
 43
0.0000001
 44
0.0000000001
 40
0.0
 40
0.0
 40
0.0
 40
0.0
 40
0.0376588179
 40
0.0758997226
 40
0.1159151499
 40
0.1587878597
 40
0.2053955136
 40
0.2562947469
 40
0.3118418755
 40
0.3722669782
 40
0.4376476599
 40
0.5077799047
 40
0.6607063843
 40
0.8267807107
 40
1.0
 40
1.0
 40
1.0
 40
1.0
 10
57.7623157751
 20
62.3869816732
 30
0.0
 10
57.7418288938
 20
62.3869785816
 30
0.0
 10
57.7004145792
 20
62.3828476374
 30
0.0
 10
57.6398269386
 20
62.3639895154
 30
0.0
 10
57.5814741938
 20
62.3325754992
 30
0.0
 10
57.5259270012
 20
62.2887425119
 30
0.0
 10
57.4736619154
 20
62.2327201968
 30
0.0
 10
57.4250120974
 20
62.164910762
 30
0.0
 10
57.3804114188
 20
62.0856622837
 30
0.0
 10
57.3403512934
 20
61.9953619458
 30
0.0
 10
57.3053431111
 20
61.8945666867
 30
0.0
 10
57.2647387974
 20
61.7428798694
 30
0.0
 10
57.2304519156
 20
61.5334147237
 30
0.0
 10
57.2154876763
 20
61.2656637621
 30
0.0
 10
57.2226368805
 20
61.0809135738
 30
0.0
 10
57.2304076728
 20
60.9870009999
 30
0.0
  0
SPLINE
  5
337
100
AcDbEntity
  8
0
100
AcDbSpline
 62
7
  6
CONTINUOUS
 70
0
 71
3
 72
13
 73
9
 74
0
 42
0.0000001
 43
0.0000001
 44
0.0000000001
 40
0.0
 40
0.0
 40
0.0
 40
0.0
 40
0.1248386612
 40
0.2498427977
 40
0.5000000036
 40
0.7501572076
 40
0.875161342
 40
1.0
 40
1.0
 40
1.0
 40
1.0
 10
56.1480775704
 20
56.6370097015
 30
0.0
 10
55.9774918764
 20
57.2921319952
 30
0.0
 10
55.6779082285
 20
58.6145929251
 30
0.0
 10
55.2482063331
 20
61.2931513507
 30
0.0
 10
55.0315111136
 20
64.6869828458
 30
0.0
 10
55.2482059991
 20
68.0808143504
 30
0.0
 10
55.6779076311
 20
70.7593727791
 30
0.0
 10
55.9774911467
 20
72.0818337093
 30
0.0
 10
56.1480767747
 20
72.7369560027
 30
0.0
  0
SPLINE
  5
338
100
AcDbEntity
  8
0
100
AcDbSpline
 62
7
  6
CONTINUOUS
 70
0
 71
3
 72
11
 73
7
 74
0
 42
0.0000001
 43
0.0000001
 44
0.0000000001
 40
0.0
 40
0.0
 40
0.0
 40
0.0
 40
0.2500335394
 40
0.5000279423
 40
0.7499957249
 40
1.0
 40
1.0
 40
1.0
 40
1.0
 10
33.8761705808
 20
73.6119828575
 30
0.0
 10
33.8217367774
 20
73.6119815368
 30
0.0
 10
33.7120766898
 20
73.5943190012
 30
0.0
 10
33.5649931435
 20
73.5172388954
 30
0.0
 10
33.4500640889
 20
73.3973368188
 30
0.0
 10
33.4031010041
 20
73.2965736547
 30
0.0
 10
33.3884988681
 20
73.2441415745
 30
0.0
  0
SPLINE
  5
339
100
AcDbEntity
  8
0
100
AcDbSpline
 62
7
  6
CONTINUOUS
 70
0
 71
3
 72
15
 73
11
 74
0
 42
0.0000001
 43
0.0000001
 44
0.0000000001
 40
0.0
 40
0.0
 40
0.0
 40
0.0
 40
0.1248701497
 40
0.2498831647
 40
0.3749853306
 40
0.5001226559
 40
0.6252456281
 40
0.750302072
 40
0.8752373029
 40
1.0
 40
1.0
 40
1.0
 40
1.0
 10
33.0631847937
 20
57.3444781908
 30
0.0
 10
32.9111481915
 20
57.9899483861
 30
0.0
 10
32.6472660866
 20
59.291519738
 30
0.0
 10
32.3741175776
 20
61.2653295175
 30
0.0
 10
32.2240822568
 20
63.2537926321
 30
0.0
 10
32.1983261776
 20
65.2483201395
 30
0.0
 10
32.297306605
 20
67.2403060635
 30
0.0
 10
32.5198226072
 20
69.2212293373
 30
0.0
 10
32.8650083908
 20
71.1824851842
 30
0.0
 10
33.1763521723
 20
72.472512328
 30
0.0
 10
33.3518408214
 20
73.1114130585
 30
0.0
  0
SPLINE
  5
33A
100
AcDbEntity
  8
0
100
AcDbSpline
 62
7
  6
CONTINUOUS
 70
0
 71
3
 72
11
 73
7
 74
0
 42
0.0000001
 43
0.0000001
 44
0.0000000001
 40
0.0
 40
0.0
 40
0.0
 40
0.0
 40
0.2500043488
 40
0.4999676987
 40
0.749958922
 40
1.0
 40
1.0
 40
1.0
 40
1.0
 10
33.3884984324
 20
56.0798270673
 30
0.0
 10
33.4031004262
 20
56.0273944196
 30
0.0
 10
33.4500639211
 20
55.9266313481
 30
0.0
 10
33.564992182
 20
55.8067289273
 30
0.0
 10
33.7120765361
 20
55.7296474147
 30
0.0
 10
33.8217386648
 20
55.7119837283
 30
0.0
 10
33.8761746021
 20
55.7119828575
 30
0.0
  0
SPLINE
  5
33B
100
AcDbEntity
  8
0
100
AcDbSpline
 62
7
  6
CONTINUOUS
 70
0
 71
3
 72
14
 73
10
 74
0
 42
0.0000001
 43
0.0000001
 44
0.0000000001
 40
0.0
 40
0.0
 40
0.0
 40
0.0
 40
0.27068489
 40
0.4021687027
 40
0.5295450661
 40
0.6524247602
 40
0.7710599818
 40
0.8864716528
 40
1.0
 40
1.0
 40
1.0
 40
1.0
 10
36.7508403893
 20
56.1818164977
 30
0.0
 10
36.7539008041
 20
56.1199363628
 30
0.0
 10
36.7727885274
 20
56.0277245402
 30
0.0
 10
36.825727196
 20
55.9182164039
 30
0.0
 10
36.8770825916
 20
55.8469056077
 30
0.0
 10
36.9387245644
 20
55.7884408454
 30
0.0
 10
37.0085641248
 20
55.7448987219
 30
0.0
 10
37.0841165133
 20
55.7180604469
 30
0.0
 10
37.1367064726
 20
55.7119793234
 30
0.0
 10
37.1626914322
 20
55.7119828682
 30
0.0
  0
SPLINE
  5
33C
100
AcDbEntity
  8
0
100
AcDbSpline
 62
7
  6
CONTINUOUS
 70
0
 71
3
 72
14
 73
10
 74
0
 42
0.0000001
 43
0.0000001
 44
0.0000000001
 40
0.0
 40
0.0
 40
0.0
 40
0.0
 40
0.0712735065
 40
0.1578952643
 40
0.2576011719
 40
0.3697430944
 40
0.4948763623
 40
0.6354021192
 40
1.0
 40
1.0
 40
1.0
 40
1.0
 10
33.3888386563
 20
73.2447947125
 30
0.0
 10
33.4686058442
 20
73.2403229576
 30
0.0
 10
33.6453819224
 20
73.2315782556
 30
0.0
 10
33.9338683192
 20
73.2191663711
 30
0.0
 10
34.2682008752
 20
73.2067145399
 30
0.0
 10
34.6457234648
 20
73.1941357598
 30
0.0
 10
35.0690238514
 20
73.1815278059
 30
0.0
 10
35.7752385869
 20
73.1624012426
 30
0.0
 10
36.3413264802
 20
73.150580939
 30
0.0
 10
36.7499285182
 20
73.1422093544
 30
0.0
  0
SPLINE
  5
33D
100
AcDbEntity
  8
0
100
AcDbSpline
 62
7
  6
CONTINUOUS
 70
0
 71
3
 72
20
 73
16
 74
0
 42
0.0000001
 43
0.0000001
 44
0.0000000001
 40
0.0
 40
0.0
 40
0.0
 40
0.0
 40
0.0712799048
 40
0.1578648087
 40
0.2061393003
 40
0.2575431077
 40
0.3120364326
 40
0.3696449031
 40
0.4304829925
 40
0.4947411696
 40
0.5628250873
 40
0.6352133596
 40
0.7127615508
 40
0.7968833412
 40
1.0
 40
1.0
 40
1.0
 40
1.0
 10
33.3887923245
 20
56.079161637
 30
0.0
 10
33.4685855335
 20
56.0836991266
 30
0.0
 10
33.6453840511
 20
56.0923186898
 30
0.0
 10
33.8762966702
 20
56.1024056286
 30
0.0
 10
34.0849920498
 20
56.1103591877
 30
0.0
 10
34.257740327
 20
56.1166789136
 30
0.0
 10
34.4409584528
 20
56.1230789725
 30
0.0
 10
34.6347702685
 20
56.129180483
 30
0.0
 10
34.8395232735
 20
56.1356924794
 30
0.0
 10
35.056034718
 20
56.1419640171
 30
0.0
 10
35.2855013941
 20
56.1482432188
 30
0.0
 10
35.5298702019
 20
56.1546951085
 30
0.0
 10
35.7922267428
 20
56.1611712782
 30
0.0
 10
36.2011374231
 20
56.1703965748
 30
0.0
 10
36.5231295327
 20
56.1772213903
 30
0.0
 10
36.7508263765
 20
56.1818162584
 30
0.0
  0
SPLINE
  5
33E
100
AcDbEntity
  8
0
100
AcDbSpline
 62
7
  6
CONTINUOUS
 70
0
 71
3
 72
13
 73
9
 74
0
 42
0.0000001
 43
0.0000001
 44
0.0000000001
 40
0.0
 40
0.0
 40
0.0
 40
0.0
 40
0.1369161964
 40
0.2719714042
 40
0.5302061446
 40
0.7707894205
 40
0.8865060052
 40
1.0
 40
1.0
 40
1.0
 40
1.0
 10
36.7508359676
 20
73.1421738394
 30
0.0
 10
36.7522934237
 20
73.1734310686
 30
0.0
 10
36.7603410104
 20
73.2354063207
 30
0.0
 10
36.7946335347
 20
73.3519929227
 30
0.0
 10
36.8688014271
 20
73.4799398569
 30
0.0
 10
36.9822257214
 20
73.5697896211
 30
0.0
 10
37.0841805605
 20
73.6058519693
 30
0.0
 10
37.1367515191
 20
73.6119856129
 30
0.0
 10
37.1626897368
 20
73.6119828509
 30
0.0
  0
SPLINE
  5
33F
100
AcDbEntity
  8
0
100
AcDbSpline
 62
7
  6
CONTINUOUS
 70
0
 71
3
 72
11
 73
7
 74
0
 42
0.0000001
 43
0.0000001
 44
0.0000000001
 40
0.0
 40
0.0
 40
0.0
 40
0.0
 40
0.1935972319
 40
0.4345654023
 40
0.708735585
 40
1.0
 40
1.0
 40
1.0
 40
1.0
 10
36.7507567008
 20
56.1818103306
 30
0.0
 10
36.77733386
 20
56.1838228503
 30
0.0
 10
36.8369984304
 20
56.1882471395
 30
0.0
 10
36.9343416762
 20
56.1949667286
 30
0.0
 10
37.0450211718
 20
56.2036775121
 30
0.0
 10
37.1226809525
 20
56.2090597874
 30
0.0
 10
37.1626737357
 20
56.2119826704
 30
0.0
  0
SPLINE
  5
340
100
AcDbEntity
  8
0
100
AcDbSpline
 62
7
  6
CONTINUOUS
 70
0
 71
3
 72
9
 73
5
 74
0
 42
0.0000001
 43
0.0000001
 44
0.0000000001
 40
0.0
 40
0.0
 40
0.0
 40
0.0
 40
0.5000000006
 40
1.0
 40
1.0
 40
1.0
 40
1.0
 10
36.7507567008
 20
56.1818103306
 30
0.0
 10
36.557060407
 20
59.0035523264
 30
0.0
 10
36.3641735693
 20
64.6619949799
 30
0.0
 10
36.5570551655
 20
70.320438032
 30
0.0
 10
36.7507520391
 20
73.1421799811
 30
0.0
  0
ELLIPSE
  5
341
100
AcDbEntity
  8
0
100
AcDbEllipse
 62
7
  6
CONTINUOUS
 10
79.985654461
 20
56.2119828575
 30
0.0
 11
0.0
 21
0.5
 31
0.0
 40
0.1583844403
 41
1.5707963268
 42
3.1415926536
  0
ELLIPSE
  5
342
100
AcDbEntity
  8
0
100
AcDbEllipse
 62
7
  6
CONTINUOUS
 10
79.985654461
 20
73.1119828575
 30
0.0
 11
0.0
 21
0.5
 31
0.0
 40
0.1583844403
 41
0.0
 42
1.5707963268
  0
ENDSEC
  0
SECTION
  2
OBJECTS
  0
DICTIONARY
  5
C
100
AcDbDictionary
280
0
281
1
  3
ACAD_GROUP
350
D
  3
ACAD_MLINESTYLE
350
17
  3
ACAD_LAYOUT
350
1A
  3
ACAD_PLOTSETTINGS
350
19
  3
ACAD_PLOTSTYLENAME
350
E
  0
DICTIONARY
  5
D
102
{ACAD_REACTORS
330
C
102
}
100
AcDbDictionary
280
0
281
1
  0
ACDBDICTIONARYWDFLT
  5
E
102
{ACAD_REACTORS
330
C
102
}
100
AcDbDictionary
281
1
  3
Normal
350
F
100
AcDbDictionaryWithDefault
340
F
  0
DICTIONARY
  5
17
102
{ACAD_REACTORS
330
C
102
}
100
AcDbDictionary
280
0
281
1
  3
Standard
350
18
  0
DICTIONARY
  5
19
102
{ACAD_REACTORS
330
C
102
}
100
AcDbDictionary
281
1
  0
DICTIONARY
  5
1A
102
{ACAD_REACTORS
330
C
102
}
100
AcDbDictionary
281
1
  3
Model
350
343
  3
Layout1
350
344
  0
ACDBPLACEHOLDER
  5
F
102
{ACAD_REACTORS
330
E
102
}
  0
MLINESTYLE
  5
18
102
{ACAD_REACTORS
330
17
102
}
100
AcDbMlineStyle
  2
STANDARD
 70
0
  3

 62
256
 51
90.0
 52
90.0
 71
2
 49
0.5
 62
256
  6
BYLAYER
 49
-0.5
 62
256
  6
BYLAYER
  0
LAYOUT
  5
343
102
{ACAD_REACTORS
330
1A
102
}
100
AcDbPlotSettings
  1

  2
none_device
  4

  6

 40
0.0
 41
0.0
 42
0.0
 43
0.0
 44
210.0
 45
297.0
 46
0.0
 47
0.0
 48
0.0
 49
0.0
140
0.0
141
0.0
142
1.0
143
1.0
 70
1024
 72
1
 73
0
 74
0
  7

 75
0
147
1.0
148
0.0
149
0.0
100
AcDbLayout
  1
Model
 70
0
 71
0
 10
0.0
 20
0.0
 11
210.0
 21
297.0
 12
0.0
 22
0.0
 32
0.0
 14
0.0
 24
0.0
 34
0.0
 15
0.0
 25
0.0
 35
0.0
146
0.0
 13
0.0
 23
0.0
 33
0.0
 16
1.0
 26
0.0
 36
0.0
 17
0.0
 27
1.0
 37
0.0
 76
0
330
210
345
0
346
0
  0
LAYOUT
  5
344
102
{ACAD_REACTORS
330
1A
102
}
100
AcDbPlotSettings
  1

  2
none_device
  4

  6

 40
0.0
 41
0.0
 42
0.0
 43
0.0
 44
210.0
 45
297.0
 46
0.0
 47
0.0
 48
0.0
 49
0.0
140
0.0
141
0.0
142
1.0
143
1.0
 70
0
 72
1
 73
0
 74
0
  7

 75
0
147
1.0
148
0.0
149
0.0
100
AcDbLayout
  1
Layout1
 70
0
 71
1
 10
0.0
 20
0.0
 11
210.0
 21
297.0
 12
0.0
 22
0.0
 32
0.0
 14
0.0
 24
0.0
 34
0.0
 15
0.0
 25
0.0
 35
0.0
146
0.0
 13
0.0
 23
0.0
 33
0.0
 16
1.0
 26
0.0
 36
0.0
 17
0.0
 27
1.0
 37
0.0
 76
0
330
211
345
0
346
0
  0
ENDSEC
  0
EOF
