  0
SECTION
  2
HEADER
  9
$ACADVER
  1
AC1009
  9
$DWGCODEPAGE
  3
ansi_1250
  9
$INSBASE
 10
0.0
 20
0.0
 30
0.0
  9
$EXTMIN
 10
-1.673
 20
-2.6965
 30
0.0
  9
$EXTMAX
 10
1.673
 20
2.9325
 30
0.0
  9
$LIMMIN
 10
0.0
 20
0.0
  9
$LIMMAX
 10
0.0
 20
0.0
  9
$ORTHOMODE
 70
     0
  9
$REGENMODE
 70
     1
  9
$FILLMODE
 70
     1
  9
$QTEXTMODE
 70
     0
  9
$MIRRTEXT
 70
     1
  9
$DRAGMODE
 70
     2
  9
$LTSCALE
 40
1.0
  9
$OSMODE
 70
     0
  9
$ATTMODE
 70
     1
  9
$TEXTSIZE
 40
0.2
  9
$TRACEWID
 40
0.05
  9
$TEXTSTYLE
  7
STANDARD
  9
$CLAYER
  8
0
  9
$CELTYPE
  6
CONTINUOUS
  9
$CECOLOR
 62
   256
  9
$DIMSCALE
 40
1.0
  9
$DIMASZ
 40
0.18
  9
$DIMEXO
 40
0.0625
  9
$DIMDLI
 40
0.38
  9
$DIMRND
 40
0.0
  9
$DIMDLE
 40
0.0
  9
$DIMEXE
 40
0.18
  9
$DIMTP
 40
0.0
  9
$DIMTM
 40
0.0
  9
$DIMTXT
 40
0.18
  9
$DIMCEN
 40
0.09
  9
$DIMTSZ
 40
0.0
  9
$DIMTOL
 70
     0
  9
$DIMLIM
 70
     0
  9
$DIMTIH
 70
     1
  9
$DIMTOH
 70
     1
  9
$DIMSE1
 70
     0
  9
$DIMSE2
 70
     0
  9
$DIMTAD
 70
     0
  9
$DIMZIN
 70
     0
  9
$DIMBLK
  1

  9
$DIMASO
 70
     1
  9
$DIMSHO
 70
     1
  9
$DIMPOST
  1

  9
$DIMAPOST
  1

  9
$DIMALT
 70
     0
  9
$DIMALTD
 70
     2
  9
$DIMALTF
 40
25.4
  9
$DIMLFAC
 40
1.0
  9
$DIMTOFL
 70
     0
  9
$DIMTVP
 40
0.0
  9
$DIMTIX
 70
     0
  9
$DIMSOXD
 70
     0
  9
$DIMSAH
 70
     0
  9
$DIMBLK1
  1

  9
$DIMBLK2
  1

  9
$DIMSTYLE
  2
STANDARD
  9
$DIMCLRD
 70
     0
  9
$DIMCLRE
 70
     0
  9
$DIMCLRT
 70
     0
  9
$DIMTFAC
 40
1.0
  9
$DIMGAP
 40
0.09
  9
$LUNITS
 70
     2
  9
$LUPREC
 70
     4
  9
$AXISMODE
 70
     0
  9
$AXISUNIT
 10
0.0
 20
0.0
  9
$SKETCHINC
 40
0.1
  9
$FILLETRAD
 40
0.0
  9
$AUNITS
 70
     0
  9
$AUPREC
 70
     0
  9
$MENU
  1
acad
  9
$ELEVATION
 40
0.0
  9
$PELEVATION
 40
0.0
  9
$THICKNESS
 40
0.0
  9
$LIMCHECK
 70
     0
  9
$BLIPMODE
 70
     1
  9
$CHAMFERA
 40
0.0
  9
$CHAMFERB
 40
0.0
  9
$SKPOLY
 70
     0
  9
$TDCREATE
 40
0.000000000
  9
$TDUPDATE
 40
0.000000000
  9
$TDINDWG
 40
0.0000000000
  9
$TDUSRTIMER
 40
0.0000000000
  9
$USRTIMER
 70
     1
  9
$ANGBASE
 50
0.0
  9
$ANGDIR
 70
     0
  9
$PDMODE
 70
     0
  9
$PDSIZE
 40
0.0
  9
$PLINEWID
 40
0.0
  9
$COORDS
 70
     0
  9
$SPLFRAME
 70
     0
  9
$SPLINETYPE
 70
     6
  9
$SPLINESEGS
 70
     8
  9
$ATTDIA
 70
     0
  9
$ATTREQ
 70
     1
  9
$HANDLING
 70
     1
  9
$HANDSEED
  5
344
  9
$SURFTAB1
 70
     6
  9
$SURFTAB2
 70
     6
  9
$SURFTYPE
 70
     6
  9
$SURFU
 70
     6
  9
$SURFV
 70
     6
  9
$UCSNAME
  2

  9
$UCSORG
 10
0.0
 20
0.0
 30
0.0
  9
$UCSXDIR
 10
1.0
 20
0.0
 30
0.0
  9
$UCSYDIR
 10
0.0
 20
1.0
 30
0.0
  9
$PUCSNAME
  2

  9
$PUCSORG
 10
0.0
 20
0.0
 30
0.0
  9
$PUCSXDIR
 10
1.0
 20
0.0
 30
0.0
  9
$PUCSYDIR
 10
0.0
 20
1.0
 30
0.0
  9
$USERI1
 70
     0
  9
$USERI2
 70
     0
  9
$USERI3
 70
     0
  9
$USERI4
 70
     0
  9
$USERI5
 70
     0
  9
$USERR1
 40
0.0
  9
$USERR2
 40
0.0
  9
$USERR3
 40
0.0
  9
$USERR4
 40
0.0
  9
$USERR5
 40
0.0
  9
$WORLDVIEW
 70
     1
  9
$SHADEDGE
 70
     3
  9
$SHADEDIF
 70
    70
  9
$TILEMODE
 70
     1
  9
$MAXACTVP
 70
    16
  9
$PINSBASE
 10
0.0
 20
0.0
 30
0.0
  9
$PLIMCHECK
 70
     0
  9
$PEXTMIN
 10
1.000000E+20
 20
1.000000E+20
 30
1.000000E+20
  9
$PEXTMAX
 10
-1.000000E+20
 20
-1.000000E+20
 30
-1.000000E+20
  9
$PLIMMIN
 10
0.0
 20
0.0
  9
$PLIMMAX
 10
12.0
 20
9.0
  9
$UNITMODE
 70
     0
  9
$VISRETAIN
 70
     0
  9
$PLINEGEN
 70
     1
  9
$PSLTSCALE
 70
     0
  9
$TREEDEPTH
 70
  3020
  0
ENDSEC
  0
SECTION
  2
TABLES
  0
TABLE
  2
VPORT
 70
     1
  0
VPORT
  2
*ACTIVE
 70
     0
 10
0.0
 20
0.0
 11
1.0
 21
1.0
 12
6.591288
 22
4.579184
 13
0.0
 23
0.0
 14
1.0
 24
1.0
 15
0.0
 25
0.0
 16
0.0
 26
0.0
 36
1.0
 17
0.0
 27
0.0
 37
0.0
 40
9.158369
 41
0.688564
 42
50.0
 43
0.0
 44
0.0
 50
0.0
 51
0.0
 71
     0
 72
   100
 73
     1
 74
     1
 75
     0
 76
     0
 77
     0
 78
     0
  0
ENDTAB
  0
TABLE
  2
LTYPE
 70
     5
  0
LTYPE
  2
CONTINUOUS
 70
    64
  3
Solid line
 72
    65
 73
     0
 40
0.0
  0
LTYPE
  2
CENTER
 70
    64
  3
Center ____ _ ____ _ ____ _ ____ _ ____ _ ____
 72
    65
 73
     4
 40
50.8
 49
31.75
 49
-6.35
 49
6.35
 49
-6.35
  0
LTYPE
  2
HIDDEN
 70
    64
  3
Hidden __ __ __ __ __ __ __ __ __ __ __ __ __ __
 72
    65
 73
     2
 40
9.525
 49
6.35
 49
-3.175
  0
LTYPE
  2
CENTER2
 70
    64
  3
Center (.5x) ___ _ ___ _ ___ _ ___ _ ___ _ ___
 72
    65
 73
     4
 40
28.575
 49
19.05
 49
-3.175
 49
3.175
 49
-3.175
  0
LTYPE
  2
HIDDEN2
 70
    64
  3
Hidden (.5x) _ _ _ _ _ _ _ _ _ _ _ _ _ _ _ _ _
 72
    65
 73
     2
 40
4.7625
 49
3.175
 49
-1.5875
  0
ENDTAB
  0
TABLE
  2
LAYER
 70
     1
  0
LAYER
  2
0
 70
     0
 62
     7
  6
CONTINUOUS
  0
ENDTAB
  0
TABLE
  2
STYLE
 70
     1
  0
STYLE
  2
STANDARD
 70
     0
 40
0.0
 41
1.0
 50
0.0
 71
     0
 42
0.0
  3
txt
  4

  0
ENDTAB
  0
TABLE
  2
VIEW
 70
     0
  0
ENDTAB
  0
TABLE
  2
UCS
 70
     0
  0
ENDTAB
  0
TABLE
  2
APPID
 70
     1
  0
APPID
  2
ACAD
 70
     0
  0
ENDTAB
  0
TABLE
  2
DIMSTYLE
 70
     1
  0
DIMSTYLE
  2
STANDARD
 70
     0
  3

  4

  5

  6

  7

 40
1.0
 41
0.18
 42
0.0625
 43
0.38
 44
0.18
 45
0.0
 46
0.0
 47
0.0
 48
0.0
 71
     0
 72
     0
 73
     1
 74
     1
 75
     0
 76
     0
 77
     0
 78
     0
140
0.18
141
0.09
142
0.0
143
25.4
144
1.0
145
0.0
146
1.0
147
0.09
170
     0
171
     2
172
     0
173
     0
174
     0
175
     0
176
     0
177
     0
178
     0
  0
ENDTAB
  0
ENDSEC
  0
SECTION
  2
BLOCKS
  0
ENDSEC
  0
SECTION
  2
ENTITIES
  0
CIRCLE
  8
0
  6
CONTINUOUS
 62
     7
  5
1C1
 10
0.39465
 20
-2.5785
 30
0.0
 40
0.075
  0
CIRCLE
  8
0
  6
CONTINUOUS
 62
     7
  5
1C2
 10
0.21465
 20
-2.5785
 30
0.0
 40
0.075
  0
LINE
  8
0
  6
CONTINUOUS
 62
     7
  5
1C3
 10
0.50465
 20
-2.6965
 30
0.0
 11
0.10465
 21
-2.6965
 31
0.0
  0
LINE
  8
0
  6
CONTINUOUS
 62
     7
  5
1C4
 10
0.10465
 20
-2.4605
 30
0.0
 11
0.10465
 21
-2.6965
 31
0.0
  0
LINE
  8
0
  6
CONTINUOUS
 62
     7
  5
1C5
 10
0.50465
 20
-2.4605
 30
0.0
 11
0.50465
 21
-2.6965
 31
0.0
  0
LINE
  8
0
  6
CONTINUOUS
 62
     7
  5
1C6
 10
-0.022325
 20
-2.4605
 30
0.0
 11
1.673
 21
-2.4605
 31
0.0
  0
LINE
  8
0
  6
CONTINUOUS
 62
     7
  5
1C7
 10
-0.022325
 20
-2.4605
 30
0.0
 11
-1.630675
 21
-2.4605
 31
0.0
  0
LINE
  8
0
  6
CONTINUOUS
 62
     7
  5
1C8
 10
-1.673
 20
-2.4605
 30
0.0
 11
-1.630675
 21
-2.4605
 31
0.0
  0
LINE
  8
0
  6
CONTINUOUS
 62
     7
  5
1C9
 10
-0.405
 20
-2.4605
 30
0.0
 11
-0.405
 21
-2.6965
 31
0.0
  0
LINE
  8
0
  6
CONTINUOUS
 62
     7
  5
1CA
 10
0.10465
 20
-2.6965
 30
0.0
 11
-0.405
 21
-2.6965
 31
0.0
  0
LINE
  8
0
  6
CONTINUOUS
 62
     7
  5
1CB
 10
0.35
 20
2.4605
 30
0.0
 11
0.35
 21
2.84425
 31
0.0
  0
LINE
  8
0
  6
CONTINUOUS
 62
     7
  5
1CC
 10
-0.35
 20
2.84425
 30
0.0
 11
-0.35
 21
2.4605
 31
0.0
  0
LINE
  8
0
  6
CONTINUOUS
 62
     7
  5
1CD
 10
-0.35
 20
2.84425
 30
0.0
 11
0.35
 21
2.84425
 31
0.0
  0
LINE
  8
0
  6
CONTINUOUS
 62
     7
  5
1CE
 10
0.35
 20
2.84425
 30
0.0
 11
0.35
 21
2.9325
 31
0.0
  0
LINE
  8
0
  6
CONTINUOUS
 62
     7
  5
1CF
 10
-0.35
 20
2.9325
 30
0.0
 11
0.35
 21
2.9325
 31
0.0
  0
LINE
  8
0
  6
CONTINUOUS
 62
     7
  5
1D0
 10
-0.35
 20
2.9325
 30
0.0
 11
-0.35
 21
2.84425
 31
0.0
  0
LINE
  8
0
  6
CONTINUOUS
 62
     7
  5
1D1
 10
-1.630675
 20
2.4605
 30
0.0
 11
-1.673
 21
2.4605
 31
0.0
  0
LINE
  8
0
  6
CONTINUOUS
 62
     7
  5
1D2
 10
-0.022325
 20
2.4605
 30
0.0
 11
-1.630675
 21
2.4605
 31
0.0
  0
LINE
  8
0
  6
CONTINUOUS
 62
     7
  5
1D3
 10
1.673
 20
2.4605
 30
0.0
 11
-0.022325
 21
2.4605
 31
0.0
  0
LINE
  8
0
  6
CONTINUOUS
 62
     7
  5
1D4
 10
-0.514567
 20
-0.276424
 30
0.0
 11
-0.517153
 21
-0.288775
 31
0.0
  0
LINE
  8
0
  6
CONTINUOUS
 62
     7
  5
1D5
 10
-0.517153
 20
-0.288775
 30
0.0
 11
-0.520244
 21
-0.301071
 31
0.0
  0
LINE
  8
0
  6
CONTINUOUS
 62
     7
  5
1D6
 10
-0.520244
 20
-0.301071
 30
0.0
 11
-0.523836
 21
-0.313275
 31
0.0
  0
LINE
  8
0
  6
CONTINUOUS
 62
     7
  5
1D7
 10
-0.523836
 20
-0.313275
 30
0.0
 11
-0.527923
 21
-0.325351
 31
0.0
  0
LINE
  8
0
  6
CONTINUOUS
 62
     7
  5
1D8
 10
-0.527923
 20
-0.325351
 30
0.0
 11
-0.532496
 21
-0.337264
 31
0.0
  0
LINE
  8
0
  6
CONTINUOUS
 62
     7
  5
1D9
 10
-0.532496
 20
-0.337264
 30
0.0
 11
-0.537545
 21
-0.348983
 31
0.0
  0
LINE
  8
0
  6
CONTINUOUS
 62
     7
  5
1DA
 10
-0.537545
 20
-0.348983
 30
0.0
 11
-0.543056
 21
-0.360482
 31
0.0
  0
LINE
  8
0
  6
CONTINUOUS
 62
     7
  5
1DB
 10
-0.543056
 20
-0.360482
 30
0.0
 11
-0.549013
 21
-0.37173
 31
0.0
  0
LINE
  8
0
  6
CONTINUOUS
 62
     7
  5
1DC
 10
-0.549013
 20
-0.37173
 30
0.0
 11
-0.555398
 21
-0.382699
 31
0.0
  0
LINE
  8
0
  6
CONTINUOUS
 62
     7
  5
1DD
 10
-0.555398
 20
-0.382699
 30
0.0
 11
-0.562186
 21
-0.39336
 31
0.0
  0
LINE
  8
0
  6
CONTINUOUS
 62
     7
  5
1DE
 10
-0.562186
 20
-0.39336
 30
0.0
 11
-0.569353
 21
-0.403686
 31
0.0
  0
LINE
  8
0
  6
CONTINUOUS
 62
     7
  5
1DF
 10
-0.569353
 20
-0.403686
 30
0.0
 11
-0.576868
 21
-0.41365
 31
0.0
  0
LINE
  8
0
  6
CONTINUOUS
 62
     7
  5
1E0
 10
-0.576868
 20
-0.41365
 30
0.0
 11
-0.584701
 21
-0.423231
 31
0.0
  0
LINE
  8
0
  6
CONTINUOUS
 62
     7
  5
1E1
 10
-0.584701
 20
-0.423231
 30
0.0
 11
-0.592816
 21
-0.432408
 31
0.0
  0
LINE
  8
0
  6
CONTINUOUS
 62
     7
  5
1E2
 10
-0.592816
 20
-0.432408
 30
0.0
 11
-0.60118
 21
-0.441163
 31
0.0
  0
LINE
  8
0
  6
CONTINUOUS
 62
     7
  5
1E3
 10
-0.60118
 20
-0.441163
 30
0.0
 11
-0.609849
 21
-0.449574
 31
0.0
  0
LINE
  8
0
  6
CONTINUOUS
 62
     7
  5
1E4
 10
-0.609849
 20
-0.449574
 30
0.0
 11
-0.618942
 21
-0.457742
 31
0.0
  0
LINE
  8
0
  6
CONTINUOUS
 62
     7
  5
1E5
 10
-0.618942
 20
-0.457742
 30
0.0
 11
-0.628443
 21
-0.465635
 31
0.0
  0
LINE
  8
0
  6
CONTINUOUS
 62
     7
  5
1E6
 10
-0.628443
 20
-0.465635
 30
0.0
 11
-0.638331
 21
-0.473217
 31
0.0
  0
LINE
  8
0
  6
CONTINUOUS
 62
     7
  5
1E7
 10
-0.638331
 20
-0.473217
 30
0.0
 11
-0.648586
 21
-0.480456
 31
0.0
  0
LINE
  8
0
  6
CONTINUOUS
 62
     7
  5
1E8
 10
-0.648586
 20
-0.480456
 30
0.0
 11
-0.659181
 21
-0.487323
 31
0.0
  0
LINE
  8
0
  6
CONTINUOUS
 62
     7
  5
1E9
 10
-0.659181
 20
-0.487323
 30
0.0
 11
-0.67009
 21
-0.493792
 31
0.0
  0
LINE
  8
0
  6
CONTINUOUS
 62
     7
  5
1EA
 10
-0.67009
 20
-0.493792
 30
0.0
 11
-0.681284
 21
-0.499837
 31
0.0
  0
LINE
  8
0
  6
CONTINUOUS
 62
     7
  5
1EB
 10
-0.681284
 20
-0.499837
 30
0.0
 11
-0.692735
 21
-0.50544
 31
0.0
  0
LINE
  8
0
  6
CONTINUOUS
 62
     7
  5
1EC
 10
-0.692735
 20
-0.50544
 30
0.0
 11
-0.704412
 21
-0.510583
 31
0.0
  0
LINE
  8
0
  6
CONTINUOUS
 62
     7
  5
1ED
 10
-0.704412
 20
-0.510583
 30
0.0
 11
-0.716287
 21
-0.515253
 31
0.0
  0
LINE
  8
0
  6
CONTINUOUS
 62
     7
  5
1EE
 10
-0.716287
 20
-0.515253
 30
0.0
 11
-0.72833
 21
-0.519439
 31
0.0
  0
LINE
  8
0
  6
CONTINUOUS
 62
     7
  5
1EF
 10
-0.72833
 20
-0.519439
 30
0.0
 11
-0.74051
 21
-0.523131
 31
0.0
  0
LINE
  8
0
  6
CONTINUOUS
 62
     7
  5
1F0
 10
-0.74051
 20
-0.523131
 30
0.0
 11
-0.752791
 21
-0.526324
 31
0.0
  0
LINE
  8
0
  6
CONTINUOUS
 62
     7
  5
1F1
 10
-0.752791
 20
-0.526324
 30
0.0
 11
-0.765137
 21
-0.529013
 31
0.0
  0
LINE
  8
0
  6
CONTINUOUS
 62
     7
  5
1F2
 10
-0.765137
 20
-0.529013
 30
0.0
 11
-0.77751
 21
-0.531197
 31
0.0
  0
LINE
  8
0
  6
CONTINUOUS
 62
     7
  5
1F3
 10
-0.77751
 20
-0.531197
 30
0.0
 11
-0.789871
 21
-0.53288
 31
0.0
  0
LINE
  8
0
  6
CONTINUOUS
 62
     7
  5
1F4
 10
-0.789871
 20
-0.53288
 30
0.0
 11
-0.802182
 21
-0.534067
 31
0.0
  0
LINE
  8
0
  6
CONTINUOUS
 62
     7
  5
1F5
 10
-0.802182
 20
-0.534067
 30
0.0
 11
-0.814404
 21
-0.534769
 31
0.0
  0
LINE
  8
0
  6
CONTINUOUS
 62
     7
  5
1F6
 10
-0.814404
 20
-0.534769
 30
0.0
 11
-0.8265
 21
-0.535
 31
0.0
  0
LINE
  8
0
  6
CONTINUOUS
 62
     7
  5
1F7
 10
-0.8265
 20
-0.535
 30
0.0
 11
-0.838596
 21
-0.534769
 31
0.0
  0
LINE
  8
0
  6
CONTINUOUS
 62
     7
  5
1F8
 10
-0.838596
 20
-0.534769
 30
0.0
 11
-0.850818
 21
-0.534067
 31
0.0
  0
LINE
  8
0
  6
CONTINUOUS
 62
     7
  5
1F9
 10
-0.850818
 20
-0.534067
 30
0.0
 11
-0.863129
 21
-0.53288
 31
0.0
  0
LINE
  8
0
  6
CONTINUOUS
 62
     7
  5
1FA
 10
-0.863129
 20
-0.53288
 30
0.0
 11
-0.87549
 21
-0.531197
 31
0.0
  0
LINE
  8
0
  6
CONTINUOUS
 62
     7
  5
1FB
 10
-0.87549
 20
-0.531197
 30
0.0
 11
-0.887863
 21
-0.529013
 31
0.0
  0
LINE
  8
0
  6
CONTINUOUS
 62
     7
  5
1FC
 10
-0.887863
 20
-0.529013
 30
0.0
 11
-0.900209
 21
-0.526324
 31
0.0
  0
LINE
  8
0
  6
CONTINUOUS
 62
     7
  5
1FD
 10
-0.900209
 20
-0.526324
 30
0.0
 11
-0.91249
 21
-0.523131
 31
0.0
  0
LINE
  8
0
  6
CONTINUOUS
 62
     7
  5
1FE
 10
-0.91249
 20
-0.523131
 30
0.0
 11
-0.92467
 21
-0.519439
 31
0.0
  0
LINE
  8
0
  6
CONTINUOUS
 62
     7
  5
1FF
 10
-0.92467
 20
-0.519439
 30
0.0
 11
-0.936713
 21
-0.515253
 31
0.0
  0
LINE
  8
0
  6
CONTINUOUS
 62
     7
  5
200
 10
-0.936713
 20
-0.515253
 30
0.0
 11
-0.948588
 21
-0.510583
 31
0.0
  0
LINE
  8
0
  6
CONTINUOUS
 62
     7
  5
201
 10
-0.948588
 20
-0.510583
 30
0.0
 11
-0.960265
 21
-0.50544
 31
0.0
  0
LINE
  8
0
  6
CONTINUOUS
 62
     7
  5
202
 10
-0.960265
 20
-0.50544
 30
0.0
 11
-0.971716
 21
-0.499837
 31
0.0
  0
LINE
  8
0
  6
CONTINUOUS
 62
     7
  5
203
 10
-0.971716
 20
-0.499837
 30
0.0
 11
-0.98291
 21
-0.493792
 31
0.0
  0
LINE
  8
0
  6
CONTINUOUS
 62
     7
  5
204
 10
-0.98291
 20
-0.493792
 30
0.0
 11
-0.993819
 21
-0.487323
 31
0.0
  0
LINE
  8
0
  6
CONTINUOUS
 62
     7
  5
205
 10
-0.993819
 20
-0.487323
 30
0.0
 11
-1.004414
 21
-0.480456
 31
0.0
  0
LINE
  8
0
  6
CONTINUOUS
 62
     7
  5
206
 10
-1.004414
 20
-0.480456
 30
0.0
 11
-1.014669
 21
-0.473217
 31
0.0
  0
LINE
  8
0
  6
CONTINUOUS
 62
     7
  5
207
 10
-1.014669
 20
-0.473217
 30
0.0
 11
-1.024557
 21
-0.465635
 31
0.0
  0
LINE
  8
0
  6
CONTINUOUS
 62
     7
  5
208
 10
-1.024557
 20
-0.465635
 30
0.0
 11
-1.034058
 21
-0.457742
 31
0.0
  0
LINE
  8
0
  6
CONTINUOUS
 62
     7
  5
209
 10
-1.034058
 20
-0.457742
 30
0.0
 11
-1.043151
 21
-0.449574
 31
0.0
  0
LINE
  8
0
  6
CONTINUOUS
 62
     7
  5
20A
 10
-1.043151
 20
-0.449574
 30
0.0
 11
-1.05182
 21
-0.441163
 31
0.0
  0
LINE
  8
0
  6
CONTINUOUS
 62
     7
  5
20B
 10
-1.05182
 20
-0.441163
 30
0.0
 11
-1.060184
 21
-0.432408
 31
0.0
  0
LINE
  8
0
  6
CONTINUOUS
 62
     7
  5
20C
 10
-1.060184
 20
-0.432408
 30
0.0
 11
-1.068299
 21
-0.423231
 31
0.0
  0
LINE
  8
0
  6
CONTINUOUS
 62
     7
  5
20D
 10
-1.068299
 20
-0.423231
 30
0.0
 11
-1.076132
 21
-0.41365
 31
0.0
  0
LINE
  8
0
  6
CONTINUOUS
 62
     7
  5
20E
 10
-1.076132
 20
-0.41365
 30
0.0
 11
-1.083647
 21
-0.403686
 31
0.0
  0
LINE
  8
0
  6
CONTINUOUS
 62
     7
  5
20F
 10
-1.083647
 20
-0.403686
 30
0.0
 11
-1.090814
 21
-0.39336
 31
0.0
  0
LINE
  8
0
  6
CONTINUOUS
 62
     7
  5
210
 10
-1.090814
 20
-0.39336
 30
0.0
 11
-1.097602
 21
-0.382699
 31
0.0
  0
LINE
  8
0
  6
CONTINUOUS
 62
     7
  5
211
 10
-1.097602
 20
-0.382699
 30
0.0
 11
-1.103987
 21
-0.37173
 31
0.0
  0
LINE
  8
0
  6
CONTINUOUS
 62
     7
  5
212
 10
-1.103987
 20
-0.37173
 30
0.0
 11
-1.109944
 21
-0.360482
 31
0.0
  0
LINE
  8
0
  6
CONTINUOUS
 62
     7
  5
213
 10
-1.109944
 20
-0.360482
 30
0.0
 11
-1.115455
 21
-0.348983
 31
0.0
  0
LINE
  8
0
  6
CONTINUOUS
 62
     7
  5
214
 10
-1.115455
 20
-0.348983
 30
0.0
 11
-1.120504
 21
-0.337264
 31
0.0
  0
LINE
  8
0
  6
CONTINUOUS
 62
     7
  5
215
 10
-1.120504
 20
-0.337264
 30
0.0
 11
-1.125077
 21
-0.325351
 31
0.0
  0
LINE
  8
0
  6
CONTINUOUS
 62
     7
  5
216
 10
-1.125077
 20
-0.325351
 30
0.0
 11
-1.129164
 21
-0.313275
 31
0.0
  0
LINE
  8
0
  6
CONTINUOUS
 62
     7
  5
217
 10
-1.129164
 20
-0.313275
 30
0.0
 11
-1.132756
 21
-0.301071
 31
0.0
  0
LINE
  8
0
  6
CONTINUOUS
 62
     7
  5
218
 10
-1.132756
 20
-0.301071
 30
0.0
 11
-1.135847
 21
-0.288775
 31
0.0
  0
LINE
  8
0
  6
CONTINUOUS
 62
     7
  5
219
 10
-1.135847
 20
-0.288775
 30
0.0
 11
-1.138433
 21
-0.276424
 31
0.0
  0
LINE
  8
0
  6
CONTINUOUS
 62
     7
  5
21A
 10
-1.138433
 20
-0.276424
 30
0.0
 11
-1.461375
 21
1.435
 31
0.0
  0
LINE
  8
0
  6
CONTINUOUS
 62
     7
  5
21B
 10
-1.461375
 20
1.435
 30
0.0
 11
-0.191625
 21
1.435
 31
0.0
  0
LINE
  8
0
  6
CONTINUOUS
 62
     7
  5
21C
 10
-0.191625
 20
1.435
 30
0.0
 11
-0.514567
 21
-0.276424
 31
0.0
  0
LINE
  8
0
  6
CONTINUOUS
 62
     7
  5
21D
 10
-0.23275
 20
-2.18946
 30
0.0
 11
-0.234702
 21
-2.211462
 31
0.0
  0
LINE
  8
0
  6
CONTINUOUS
 62
     7
  5
21E
 10
-0.234702
 20
-2.211462
 30
0.0
 11
-0.240721
 21
-2.233382
 31
0.0
  0
LINE
  8
0
  6
CONTINUOUS
 62
     7
  5
21F
 10
-0.240721
 20
-2.233382
 30
0.0
 11
-0.250648
 21
-2.253913
 31
0.0
  0
LINE
  8
0
  6
CONTINUOUS
 62
     7
  5
220
 10
-0.250648
 20
-2.253913
 30
0.0
 11
-0.263845
 21
-2.271963
 31
0.0
  0
LINE
  8
0
  6
CONTINUOUS
 62
     7
  5
221
 10
-0.263845
 20
-2.271963
 30
0.0
 11
-0.279603
 21
-2.28702
 31
0.0
  0
LINE
  8
0
  6
CONTINUOUS
 62
     7
  5
222
 10
-0.279603
 20
-2.28702
 30
0.0
 11
-0.298353
 21
-2.299446
 31
0.0
  0
LINE
  8
0
  6
CONTINUOUS
 62
     7
  5
223
 10
-0.298353
 20
-2.299446
 30
0.0
 11
-0.319282
 21
-2.308394
 31
0.0
  0
LINE
  8
0
  6
CONTINUOUS
 62
     7
  5
224
 10
-0.319282
 20
-2.308394
 30
0.0
 11
-0.341271
 21
-2.313369
 31
0.0
  0
LINE
  8
0
  6
CONTINUOUS
 62
     7
  5
225
 10
-0.341271
 20
-2.313369
 30
0.0
 11
-0.363065
 21
-2.314347
 31
0.0
  0
LINE
  8
0
  6
CONTINUOUS
 62
     7
  5
226
 10
-0.363065
 20
-2.314347
 30
0.0
 11
-0.385101
 21
-2.311431
 31
0.0
  0
LINE
  8
0
  6
CONTINUOUS
 62
     7
  5
227
 10
-0.385101
 20
-2.311431
 30
0.0
 11
-0.406748
 21
-2.304457
 31
0.0
  0
LINE
  8
0
  6
CONTINUOUS
 62
     7
  5
228
 10
-0.406748
 20
-2.304457
 30
0.0
 11
-0.426762
 21
-2.293683
 31
0.0
  0
LINE
  8
0
  6
CONTINUOUS
 62
     7
  5
229
 10
-0.426762
 20
-2.293683
 30
0.0
 11
-0.444094
 21
-2.279846
 31
0.0
  0
LINE
  8
0
  6
CONTINUOUS
 62
     7
  5
22A
 10
-0.444094
 20
-2.279846
 30
0.0
 11
-0.458574
 21
-2.263348
 31
0.0
  0
LINE
  8
0
  6
CONTINUOUS
 62
     7
  5
22B
 10
-0.458574
 20
-2.263348
 30
0.0
 11
-0.470266
 21
-2.243913
 31
0.0
  0
LINE
  8
0
  6
CONTINUOUS
 62
     7
  5
22C
 10
-0.470266
 20
-2.243913
 30
0.0
 11
-0.478297
 21
-2.222528
 31
0.0
  0
LINE
  8
0
  6
CONTINUOUS
 62
     7
  5
22D
 10
-0.478297
 20
-2.222528
 30
0.0
 11
-0.482272
 21
-2.200383
 31
0.0
  0
LINE
  8
0
  6
CONTINUOUS
 62
     7
  5
22E
 10
-0.482272
 20
-2.200383
 30
0.0
 11
-0.482272
 21
-2.178537
 31
0.0
  0
LINE
  8
0
  6
CONTINUOUS
 62
     7
  5
22F
 10
-0.482272
 20
-2.178537
 30
0.0
 11
-0.478297
 21
-2.156392
 31
0.0
  0
LINE
  8
0
  6
CONTINUOUS
 62
     7
  5
230
 10
-0.478297
 20
-2.156392
 30
0.0
 11
-0.470266
 21
-2.135007
 31
0.0
  0
LINE
  8
0
  6
CONTINUOUS
 62
     7
  5
231
 10
-0.470266
 20
-2.135007
 30
0.0
 11
-0.458574
 21
-2.115572
 31
0.0
  0
LINE
  8
0
  6
CONTINUOUS
 62
     7
  5
232
 10
-0.458574
 20
-2.115572
 30
0.0
 11
-0.444094
 21
-2.099074
 31
0.0
  0
LINE
  8
0
  6
CONTINUOUS
 62
     7
  5
233
 10
-0.444094
 20
-2.099074
 30
0.0
 11
-0.426762
 21
-2.085237
 31
0.0
  0
LINE
  8
0
  6
CONTINUOUS
 62
     7
  5
234
 10
-0.426762
 20
-2.085237
 30
0.0
 11
-0.406748
 21
-2.074463
 31
0.0
  0
LINE
  8
0
  6
CONTINUOUS
 62
     7
  5
235
 10
-0.406748
 20
-2.074463
 30
0.0
 11
-0.385101
 21
-2.067489
 31
0.0
  0
LINE
  8
0
  6
CONTINUOUS
 62
     7
  5
236
 10
-0.385101
 20
-2.067489
 30
0.0
 11
-0.363065
 21
-2.064573
 31
0.0
  0
LINE
  8
0
  6
CONTINUOUS
 62
     7
  5
237
 10
-0.363065
 20
-2.064573
 30
0.0
 11
-0.341271
 21
-2.065551
 31
0.0
  0
LINE
  8
0
  6
CONTINUOUS
 62
     7
  5
238
 10
-0.341271
 20
-2.065551
 30
0.0
 11
-0.319282
 21
-2.070526
 31
0.0
  0
LINE
  8
0
  6
CONTINUOUS
 62
     7
  5
239
 10
-0.319282
 20
-2.070526
 30
0.0
 11
-0.298353
 21
-2.079474
 31
0.0
  0
LINE
  8
0
  6
CONTINUOUS
 62
     7
  5
23A
 10
-0.298353
 20
-2.079474
 30
0.0
 11
-0.279603
 21
-2.0919
 31
0.0
  0
LINE
  8
0
  6
CONTINUOUS
 62
     7
  5
23B
 10
-0.279603
 20
-2.0919
 30
0.0
 11
-0.263845
 21
-2.106957
 31
0.0
  0
LINE
  8
0
  6
CONTINUOUS
 62
     7
  5
23C
 10
-0.263845
 20
-2.106957
 30
0.0
 11
-0.250648
 21
-2.125007
 31
0.0
  0
LINE
  8
0
  6
CONTINUOUS
 62
     7
  5
23D
 10
-0.250648
 20
-2.125007
 30
0.0
 11
-0.240721
 21
-2.145538
 31
0.0
  0
LINE
  8
0
  6
CONTINUOUS
 62
     7
  5
23E
 10
-0.240721
 20
-2.145538
 30
0.0
 11
-0.234702
 21
-2.167458
 31
0.0
  0
LINE
  8
0
  6
CONTINUOUS
 62
     7
  5
23F
 10
-0.234702
 20
-2.167458
 30
0.0
 11
-0.23275
 21
-2.18946
 31
0.0
  0
LINE
  8
0
  6
CONTINUOUS
 62
     7
  5
240
 10
-0.54525
 20
-2.18946
 30
0.0
 11
-0.547195
 21
-2.211424
 31
0.0
  0
LINE
  8
0
  6
CONTINUOUS
 62
     7
  5
241
 10
-0.547195
 20
-2.211424
 30
0.0
 11
-0.553196
 21
-2.233316
 31
0.0
  0
LINE
  8
0
  6
CONTINUOUS
 62
     7
  5
242
 10
-0.553196
 20
-2.233316
 30
0.0
 11
-0.563102
 21
-2.253837
 31
0.0
  0
LINE
  8
0
  6
CONTINUOUS
 62
     7
  5
243
 10
-0.563102
 20
-2.253837
 30
0.0
 11
-0.576287
 21
-2.271898
 31
0.0
  0
LINE
  8
0
  6
CONTINUOUS
 62
     7
  5
244
 10
-0.576287
 20
-2.271898
 30
0.0
 11
-0.592045
 21
-2.286974
 31
0.0
  0
LINE
  8
0
  6
CONTINUOUS
 62
     7
  5
245
 10
-0.592045
 20
-2.286974
 30
0.0
 11
-0.61081
 21
-2.299423
 31
0.0
  0
LINE
  8
0
  6
CONTINUOUS
 62
     7
  5
246
 10
-0.61081
 20
-2.299423
 30
0.0
 11
-0.631772
 21
-2.308391
 31
0.0
  0
LINE
  8
0
  6
CONTINUOUS
 62
     7
  5
247
 10
-0.631772
 20
-2.308391
 30
0.0
 11
-0.653803
 21
-2.313373
 31
0.0
  0
LINE
  8
0
  6
CONTINUOUS
 62
     7
  5
248
 10
-0.653803
 20
-2.313373
 30
0.0
 11
-0.675637
 21
-2.314344
 31
0.0
  0
LINE
  8
0
  6
CONTINUOUS
 62
     7
  5
249
 10
-0.675637
 20
-2.314344
 30
0.0
 11
-0.697708
 21
-2.311407
 31
0.0
  0
LINE
  8
0
  6
CONTINUOUS
 62
     7
  5
24A
 10
-0.697708
 20
-2.311407
 30
0.0
 11
-0.71937
 21
-2.304404
 31
0.0
  0
LINE
  8
0
  6
CONTINUOUS
 62
     7
  5
24B
 10
-0.71937
 20
-2.304404
 30
0.0
 11
-0.739381
 21
-2.293604
 31
0.0
  0
LINE
  8
0
  6
CONTINUOUS
 62
     7
  5
24C
 10
-0.739381
 20
-2.293604
 30
0.0
 11
-0.756689
 21
-2.279755
 31
0.0
  0
LINE
  8
0
  6
CONTINUOUS
 62
     7
  5
24D
 10
-0.756689
 20
-2.279755
 30
0.0
 11
-0.771146
 21
-2.26325
 31
0.0
  0
LINE
  8
0
  6
CONTINUOUS
 62
     7
  5
24E
 10
-0.771146
 20
-2.26325
 30
0.0
 11
-0.782808
 21
-2.243826
 31
0.0
  0
LINE
  8
0
  6
CONTINUOUS
 62
     7
  5
24F
 10
-0.782808
 20
-2.243826
 30
0.0
 11
-0.790813
 21
-2.222469
 31
0.0
  0
LINE
  8
0
  6
CONTINUOUS
 62
     7
  5
250
 10
-0.790813
 20
-2.222469
 30
0.0
 11
-0.794774
 21
-2.200363
 31
0.0
  0
LINE
  8
0
  6
CONTINUOUS
 62
     7
  5
251
 10
-0.794774
 20
-2.200363
 30
0.0
 11
-0.794774
 21
-2.178557
 31
0.0
  0
LINE
  8
0
  6
CONTINUOUS
 62
     7
  5
252
 10
-0.794774
 20
-2.178557
 30
0.0
 11
-0.790813
 21
-2.156451
 31
0.0
  0
LINE
  8
0
  6
CONTINUOUS
 62
     7
  5
253
 10
-0.790813
 20
-2.156451
 30
0.0
 11
-0.782808
 21
-2.135094
 31
0.0
  0
LINE
  8
0
  6
CONTINUOUS
 62
     7
  5
254
 10
-0.782808
 20
-2.135094
 30
0.0
 11
-0.771146
 21
-2.11567
 31
0.0
  0
LINE
  8
0
  6
CONTINUOUS
 62
     7
  5
255
 10
-0.771146
 20
-2.11567
 30
0.0
 11
-0.756689
 21
-2.099165
 31
0.0
  0
LINE
  8
0
  6
CONTINUOUS
 62
     7
  5
256
 10
-0.756689
 20
-2.099165
 30
0.0
 11
-0.739381
 21
-2.085316
 31
0.0
  0
LINE
  8
0
  6
CONTINUOUS
 62
     7
  5
257
 10
-0.739381
 20
-2.085316
 30
0.0
 11
-0.71937
 21
-2.074516
 31
0.0
  0
LINE
  8
0
  6
CONTINUOUS
 62
     7
  5
258
 10
-0.71937
 20
-2.074516
 30
0.0
 11
-0.697708
 21
-2.067513
 31
0.0
  0
LINE
  8
0
  6
CONTINUOUS
 62
     7
  5
259
 10
-0.697708
 20
-2.067513
 30
0.0
 11
-0.675637
 21
-2.064576
 31
0.0
  0
LINE
  8
0
  6
CONTINUOUS
 62
     7
  5
25A
 10
-0.675637
 20
-2.064576
 30
0.0
 11
-0.653803
 21
-2.065547
 31
0.0
  0
LINE
  8
0
  6
CONTINUOUS
 62
     7
  5
25B
 10
-0.653803
 20
-2.065547
 30
0.0
 11
-0.631772
 21
-2.070529
 31
0.0
  0
LINE
  8
0
  6
CONTINUOUS
 62
     7
  5
25C
 10
-0.631772
 20
-2.070529
 30
0.0
 11
-0.61081
 21
-2.079497
 31
0.0
  0
LINE
  8
0
  6
CONTINUOUS
 62
     7
  5
25D
 10
-0.61081
 20
-2.079497
 30
0.0
 11
-0.592045
 21
-2.091946
 31
0.0
  0
LINE
  8
0
  6
CONTINUOUS
 62
     7
  5
25E
 10
-0.592045
 20
-2.091946
 30
0.0
 11
-0.576287
 21
-2.107022
 31
0.0
  0
LINE
  8
0
  6
CONTINUOUS
 62
     7
  5
25F
 10
-0.576287
 20
-2.107022
 30
0.0
 11
-0.563102
 21
-2.125083
 31
0.0
  0
LINE
  8
0
  6
CONTINUOUS
 62
     7
  5
260
 10
-0.563102
 20
-2.125083
 30
0.0
 11
-0.553196
 21
-2.145604
 31
0.0
  0
LINE
  8
0
  6
CONTINUOUS
 62
     7
  5
261
 10
-0.553196
 20
-2.145604
 30
0.0
 11
-0.547195
 21
-2.167496
 31
0.0
  0
LINE
  8
0
  6
CONTINUOUS
 62
     7
  5
262
 10
-0.547195
 20
-2.167496
 30
0.0
 11
-0.54525
 21
-2.18946
 31
0.0
  0
LINE
  8
0
  6
CONTINUOUS
 62
     7
  5
263
 10
-0.85775
 20
-2.18946
 30
0.0
 11
-0.859695
 21
-2.211425
 31
0.0
  0
LINE
  8
0
  6
CONTINUOUS
 62
     7
  5
264
 10
-0.859695
 20
-2.211425
 30
0.0
 11
-0.865698
 21
-2.233321
 31
0.0
  0
LINE
  8
0
  6
CONTINUOUS
 62
     7
  5
265
 10
-0.865698
 20
-2.233321
 30
0.0
 11
-0.875608
 21
-2.253847
 31
0.0
  0
LINE
  8
0
  6
CONTINUOUS
 62
     7
  5
266
 10
-0.875608
 20
-2.253847
 30
0.0
 11
-0.888801
 21
-2.271913
 31
0.0
  0
LINE
  8
0
  6
CONTINUOUS
 62
     7
  5
267
 10
-0.888801
 20
-2.271913
 30
0.0
 11
-0.90457
 21
-2.286994
 31
0.0
  0
LINE
  8
0
  6
CONTINUOUS
 62
     7
  5
268
 10
-0.90457
 20
-2.286994
 30
0.0
 11
-0.923349
 21
-2.299444
 31
0.0
  0
LINE
  8
0
  6
CONTINUOUS
 62
     7
  5
269
 10
-0.923349
 20
-2.299444
 30
0.0
 11
-0.944325
 21
-2.308408
 31
0.0
  0
LINE
  8
0
  6
CONTINUOUS
 62
     7
  5
26A
 10
-0.944325
 20
-2.308408
 30
0.0
 11
-0.966364
 21
-2.313381
 31
0.0
  0
LINE
  8
0
  6
CONTINUOUS
 62
     7
  5
26B
 10
-0.966364
 20
-2.313381
 30
0.0
 11
-0.988199
 21
-2.314341
 31
0.0
  0
LINE
  8
0
  6
CONTINUOUS
 62
     7
  5
26C
 10
-0.988199
 20
-2.314341
 30
0.0
 11
-1.010266
 21
-2.311394
 31
0.0
  0
LINE
  8
0
  6
CONTINUOUS
 62
     7
  5
26D
 10
-1.010266
 20
-2.311394
 30
0.0
 11
-1.031917
 21
-2.304384
 31
0.0
  0
LINE
  8
0
  6
CONTINUOUS
 62
     7
  5
26E
 10
-1.031917
 20
-2.304384
 30
0.0
 11
-1.051913
 21
-2.293583
 31
0.0
  0
LINE
  8
0
  6
CONTINUOUS
 62
     7
  5
26F
 10
-1.051913
 20
-2.293583
 30
0.0
 11
-1.069208
 21
-2.279737
 31
0.0
  0
LINE
  8
0
  6
CONTINUOUS
 62
     7
  5
270
 10
-1.069208
 20
-2.279737
 30
0.0
 11
-1.083655
 21
-2.263237
 31
0.0
  0
LINE
  8
0
  6
CONTINUOUS
 62
     7
  5
271
 10
-1.083655
 20
-2.263237
 30
0.0
 11
-1.095312
 21
-2.243819
 31
0.0
  0
LINE
  8
0
  6
CONTINUOUS
 62
     7
  5
272
 10
-1.095312
 20
-2.243819
 30
0.0
 11
-1.103314
 21
-2.222466
 31
0.0
  0
LINE
  8
0
  6
CONTINUOUS
 62
     7
  5
273
 10
-1.103314
 20
-2.222466
 30
0.0
 11
-1.107274
 21
-2.200362
 31
0.0
  0
LINE
  8
0
  6
CONTINUOUS
 62
     7
  5
274
 10
-1.107274
 20
-2.200362
 30
0.0
 11
-1.107274
 21
-2.178558
 31
0.0
  0
LINE
  8
0
  6
CONTINUOUS
 62
     7
  5
275
 10
-1.107274
 20
-2.178558
 30
0.0
 11
-1.103314
 21
-2.156454
 31
0.0
  0
LINE
  8
0
  6
CONTINUOUS
 62
     7
  5
276
 10
-1.103314
 20
-2.156454
 30
0.0
 11
-1.095312
 21
-2.135101
 31
0.0
  0
LINE
  8
0
  6
CONTINUOUS
 62
     7
  5
277
 10
-1.095312
 20
-2.135101
 30
0.0
 11
-1.083655
 21
-2.115683
 31
0.0
  0
LINE
  8
0
  6
CONTINUOUS
 62
     7
  5
278
 10
-1.083655
 20
-2.115683
 30
0.0
 11
-1.069208
 21
-2.099183
 31
0.0
  0
LINE
  8
0
  6
CONTINUOUS
 62
     7
  5
279
 10
-1.069208
 20
-2.099183
 30
0.0
 11
-1.051913
 21
-2.085337
 31
0.0
  0
LINE
  8
0
  6
CONTINUOUS
 62
     7
  5
27A
 10
-1.051913
 20
-2.085337
 30
0.0
 11
-1.031917
 21
-2.074536
 31
0.0
  0
LINE
  8
0
  6
CONTINUOUS
 62
     7
  5
27B
 10
-1.031917
 20
-2.074536
 30
0.0
 11
-1.010266
 21
-2.067526
 31
0.0
  0
LINE
  8
0
  6
CONTINUOUS
 62
     7
  5
27C
 10
-1.010266
 20
-2.067526
 30
0.0
 11
-0.988199
 21
-2.064579
 31
0.0
  0
LINE
  8
0
  6
CONTINUOUS
 62
     7
  5
27D
 10
-0.988199
 20
-2.064579
 30
0.0
 11
-0.966364
 21
-2.065539
 31
0.0
  0
LINE
  8
0
  6
CONTINUOUS
 62
     7
  5
27E
 10
-0.966364
 20
-2.065539
 30
0.0
 11
-0.944325
 21
-2.070512
 31
0.0
  0
LINE
  8
0
  6
CONTINUOUS
 62
     7
  5
27F
 10
-0.944325
 20
-2.070512
 30
0.0
 11
-0.923349
 21
-2.079476
 31
0.0
  0
LINE
  8
0
  6
CONTINUOUS
 62
     7
  5
280
 10
-0.923349
 20
-2.079476
 30
0.0
 11
-0.90457
 21
-2.091926
 31
0.0
  0
LINE
  8
0
  6
CONTINUOUS
 62
     7
  5
281
 10
-0.90457
 20
-2.091926
 30
0.0
 11
-0.888801
 21
-2.107007
 31
0.0
  0
LINE
  8
0
  6
CONTINUOUS
 62
     7
  5
282
 10
-0.888801
 20
-2.107007
 30
0.0
 11
-0.875608
 21
-2.125073
 31
0.0
  0
LINE
  8
0
  6
CONTINUOUS
 62
     7
  5
283
 10
-0.875608
 20
-2.125073
 30
0.0
 11
-0.865698
 21
-2.145599
 31
0.0
  0
LINE
  8
0
  6
CONTINUOUS
 62
     7
  5
284
 10
-0.865698
 20
-2.145599
 30
0.0
 11
-0.859695
 21
-2.167495
 31
0.0
  0
LINE
  8
0
  6
CONTINUOUS
 62
     7
  5
285
 10
-0.859695
 20
-2.167495
 30
0.0
 11
-0.85775
 21
-2.18946
 31
0.0
  0
LINE
  8
0
  6
CONTINUOUS
 62
     7
  5
286
 10
-1.17025
 20
-2.18946
 30
0.0
 11
-1.172202
 21
-2.211466
 31
0.0
  0
LINE
  8
0
  6
CONTINUOUS
 62
     7
  5
287
 10
-1.172202
 20
-2.211466
 30
0.0
 11
-1.178226
 21
-2.233396
 31
0.0
  0
LINE
  8
0
  6
CONTINUOUS
 62
     7
  5
288
 10
-1.178226
 20
-2.233396
 30
0.0
 11
-1.188165
 21
-2.253942
 31
0.0
  0
LINE
  8
0
  6
CONTINUOUS
 62
     7
  5
289
 10
-1.188165
 20
-2.253942
 30
0.0
 11
-1.201385
 21
-2.272009
 31
0.0
  0
LINE
  8
0
  6
CONTINUOUS
 62
     7
  5
28A
 10
-1.201385
 20
-2.272009
 30
0.0
 11
-1.217179
 21
-2.287081
 31
0.0
  0
LINE
  8
0
  6
CONTINUOUS
 62
     7
  5
28B
 10
-1.217179
 20
-2.287081
 30
0.0
 11
-1.235973
 21
-2.299511
 31
0.0
  0
LINE
  8
0
  6
CONTINUOUS
 62
     7
  5
28C
 10
-1.235973
 20
-2.299511
 30
0.0
 11
-1.256942
 21
-2.308445
 31
0.0
  0
LINE
  8
0
  6
CONTINUOUS
 62
     7
  5
28D
 10
-1.256942
 20
-2.308445
 30
0.0
 11
-1.278955
 21
-2.313393
 31
0.0
  0
LINE
  8
0
  6
CONTINUOUS
 62
     7
  5
28E
 10
-1.278955
 20
-2.313393
 30
0.0
 11
-1.300751
 21
-2.314339
 31
0.0
  0
LINE
  8
0
  6
CONTINUOUS
 62
     7
  5
28F
 10
-1.300751
 20
-2.314339
 30
0.0
 11
-1.322776
 21
-2.311392
 31
0.0
  0
LINE
  8
0
  6
CONTINUOUS
 62
     7
  5
290
 10
-1.322776
 20
-2.311392
 30
0.0
 11
-1.344389
 21
-2.304397
 31
0.0
  0
LINE
  8
0
  6
CONTINUOUS
 62
     7
  5
291
 10
-1.344389
 20
-2.304397
 30
0.0
 11
-1.364359
 21
-2.293618
 31
0.0
  0
LINE
  8
0
  6
CONTINUOUS
 62
     7
  5
292
 10
-1.364359
 20
-2.293618
 30
0.0
 11
-1.38165
 21
-2.279792
 31
0.0
  0
LINE
  8
0
  6
CONTINUOUS
 62
     7
  5
293
 10
-1.38165
 20
-2.279792
 30
0.0
 11
-1.396102
 21
-2.26331
 31
0.0
  0
LINE
  8
0
  6
CONTINUOUS
 62
     7
  5
294
 10
-1.396102
 20
-2.26331
 30
0.0
 11
-1.407776
 21
-2.243892
 31
0.0
  0
LINE
  8
0
  6
CONTINUOUS
 62
     7
  5
295
 10
-1.407776
 20
-2.243892
 30
0.0
 11
-1.415799
 21
-2.22252
 31
0.0
  0
LINE
  8
0
  6
CONTINUOUS
 62
     7
  5
296
 10
-1.415799
 20
-2.22252
 30
0.0
 11
-1.419772
 21
-2.200382
 31
0.0
  0
LINE
  8
0
  6
CONTINUOUS
 62
     7
  5
297
 10
-1.419772
 20
-2.200382
 30
0.0
 11
-1.419772
 21
-2.178538
 31
0.0
  0
LINE
  8
0
  6
CONTINUOUS
 62
     7
  5
298
 10
-1.419772
 20
-2.178538
 30
0.0
 11
-1.415799
 21
-2.1564
 31
0.0
  0
LINE
  8
0
  6
CONTINUOUS
 62
     7
  5
299
 10
-1.415799
 20
-2.1564
 30
0.0
 11
-1.407776
 21
-2.135028
 31
0.0
  0
LINE
  8
0
  6
CONTINUOUS
 62
     7
  5
29A
 10
-1.407776
 20
-2.135028
 30
0.0
 11
-1.396102
 21
-2.11561
 31
0.0
  0
LINE
  8
0
  6
CONTINUOUS
 62
     7
  5
29B
 10
-1.396102
 20
-2.11561
 30
0.0
 11
-1.38165
 21
-2.099128
 31
0.0
  0
LINE
  8
0
  6
CONTINUOUS
 62
     7
  5
29C
 10
-1.38165
 20
-2.099128
 30
0.0
 11
-1.364359
 21
-2.085302
 31
0.0
  0
LINE
  8
0
  6
CONTINUOUS
 62
     7
  5
29D
 10
-1.364359
 20
-2.085302
 30
0.0
 11
-1.344389
 21
-2.074523
 31
0.0
  0
LINE
  8
0
  6
CONTINUOUS
 62
     7
  5
29E
 10
-1.344389
 20
-2.074523
 30
0.0
 11
-1.322776
 21
-2.067528
 31
0.0
  0
LINE
  8
0
  6
CONTINUOUS
 62
     7
  5
29F
 10
-1.322776
 20
-2.067528
 30
0.0
 11
-1.300751
 21
-2.064581
 31
0.0
  0
LINE
  8
0
  6
CONTINUOUS
 62
     7
  5
2A0
 10
-1.300751
 20
-2.064581
 30
0.0
 11
-1.278955
 21
-2.065527
 31
0.0
  0
LINE
  8
0
  6
CONTINUOUS
 62
     7
  5
2A1
 10
-1.278955
 20
-2.065527
 30
0.0
 11
-1.256942
 21
-2.070475
 31
0.0
  0
LINE
  8
0
  6
CONTINUOUS
 62
     7
  5
2A2
 10
-1.256942
 20
-2.070475
 30
0.0
 11
-1.235973
 21
-2.079409
 31
0.0
  0
LINE
  8
0
  6
CONTINUOUS
 62
     7
  5
2A3
 10
-1.235973
 20
-2.079409
 30
0.0
 11
-1.217179
 21
-2.091839
 31
0.0
  0
LINE
  8
0
  6
CONTINUOUS
 62
     7
  5
2A4
 10
-1.217179
 20
-2.091839
 30
0.0
 11
-1.201385
 21
-2.106911
 31
0.0
  0
LINE
  8
0
  6
CONTINUOUS
 62
     7
  5
2A5
 10
-1.201385
 20
-2.106911
 30
0.0
 11
-1.188165
 21
-2.124978
 31
0.0
  0
LINE
  8
0
  6
CONTINUOUS
 62
     7
  5
2A6
 10
-1.188165
 20
-2.124978
 30
0.0
 11
-1.178226
 21
-2.145524
 31
0.0
  0
LINE
  8
0
  6
CONTINUOUS
 62
     7
  5
2A7
 10
-1.178226
 20
-2.145524
 30
0.0
 11
-1.172202
 21
-2.167454
 31
0.0
  0
LINE
  8
0
  6
CONTINUOUS
 62
     7
  5
2A8
 10
-1.172202
 20
-2.167454
 30
0.0
 11
-1.17025
 21
-2.18946
 31
0.0
  0
LINE
  8
0
  6
CONTINUOUS
 62
     7
  5
2A9
 10
-0.48275
 20
2.18946
 30
0.0
 11
-0.480798
 21
2.211466
 31
0.0
  0
LINE
  8
0
  6
CONTINUOUS
 62
     7
  5
2AA
 10
-0.480798
 20
2.211466
 30
0.0
 11
-0.474774
 21
2.233396
 31
0.0
  0
LINE
  8
0
  6
CONTINUOUS
 62
     7
  5
2AB
 10
-0.474774
 20
2.233396
 30
0.0
 11
-0.464835
 21
2.253942
 31
0.0
  0
LINE
  8
0
  6
CONTINUOUS
 62
     7
  5
2AC
 10
-0.464835
 20
2.253942
 30
0.0
 11
-0.451615
 21
2.272009
 31
0.0
  0
LINE
  8
0
  6
CONTINUOUS
 62
     7
  5
2AD
 10
-0.451615
 20
2.272009
 30
0.0
 11
-0.435821
 21
2.287081
 31
0.0
  0
LINE
  8
0
  6
CONTINUOUS
 62
     7
  5
2AE
 10
-0.435821
 20
2.287081
 30
0.0
 11
-0.417027
 21
2.299511
 31
0.0
  0
LINE
  8
0
  6
CONTINUOUS
 62
     7
  5
2AF
 10
-0.417027
 20
2.299511
 30
0.0
 11
-0.396058
 21
2.308445
 31
0.0
  0
LINE
  8
0
  6
CONTINUOUS
 62
     7
  5
2B0
 10
-0.396058
 20
2.308445
 30
0.0
 11
-0.374045
 21
2.313393
 31
0.0
  0
LINE
  8
0
  6
CONTINUOUS
 62
     7
  5
2B1
 10
-0.374045
 20
2.313393
 30
0.0
 11
-0.352249
 21
2.314339
 31
0.0
  0
LINE
  8
0
  6
CONTINUOUS
 62
     7
  5
2B2
 10
-0.352249
 20
2.314339
 30
0.0
 11
-0.330224
 21
2.311392
 31
0.0
  0
LINE
  8
0
  6
CONTINUOUS
 62
     7
  5
2B3
 10
-0.330224
 20
2.311392
 30
0.0
 11
-0.308611
 21
2.304397
 31
0.0
  0
LINE
  8
0
  6
CONTINUOUS
 62
     7
  5
2B4
 10
-0.308611
 20
2.304397
 30
0.0
 11
-0.288641
 21
2.293618
 31
0.0
  0
LINE
  8
0
  6
CONTINUOUS
 62
     7
  5
2B5
 10
-0.288641
 20
2.293618
 30
0.0
 11
-0.27135
 21
2.279792
 31
0.0
  0
LINE
  8
0
  6
CONTINUOUS
 62
     7
  5
2B6
 10
-0.27135
 20
2.279792
 30
0.0
 11
-0.256898
 21
2.26331
 31
0.0
  0
LINE
  8
0
  6
CONTINUOUS
 62
     7
  5
2B7
 10
-0.256898
 20
2.26331
 30
0.0
 11
-0.245224
 21
2.243892
 31
0.0
  0
LINE
  8
0
  6
CONTINUOUS
 62
     7
  5
2B8
 10
-0.245224
 20
2.243892
 30
0.0
 11
-0.237201
 21
2.22252
 31
0.0
  0
LINE
  8
0
  6
CONTINUOUS
 62
     7
  5
2B9
 10
-0.237201
 20
2.22252
 30
0.0
 11
-0.233228
 21
2.200382
 31
0.0
  0
LINE
  8
0
  6
CONTINUOUS
 62
     7
  5
2BA
 10
-0.233228
 20
2.200382
 30
0.0
 11
-0.233228
 21
2.178538
 31
0.0
  0
LINE
  8
0
  6
CONTINUOUS
 62
     7
  5
2BB
 10
-0.233228
 20
2.178538
 30
0.0
 11
-0.237201
 21
2.1564
 31
0.0
  0
LINE
  8
0
  6
CONTINUOUS
 62
     7
  5
2BC
 10
-0.237201
 20
2.1564
 30
0.0
 11
-0.245224
 21
2.135028
 31
0.0
  0
LINE
  8
0
  6
CONTINUOUS
 62
     7
  5
2BD
 10
-0.245224
 20
2.135028
 30
0.0
 11
-0.256898
 21
2.11561
 31
0.0
  0
LINE
  8
0
  6
CONTINUOUS
 62
     7
  5
2BE
 10
-0.256898
 20
2.11561
 30
0.0
 11
-0.27135
 21
2.099128
 31
0.0
  0
LINE
  8
0
  6
CONTINUOUS
 62
     7
  5
2BF
 10
-0.27135
 20
2.099128
 30
0.0
 11
-0.288641
 21
2.085302
 31
0.0
  0
LINE
  8
0
  6
CONTINUOUS
 62
     7
  5
2C0
 10
-0.288641
 20
2.085302
 30
0.0
 11
-0.308611
 21
2.074523
 31
0.0
  0
LINE
  8
0
  6
CONTINUOUS
 62
     7
  5
2C1
 10
-0.308611
 20
2.074523
 30
0.0
 11
-0.330224
 21
2.067528
 31
0.0
  0
LINE
  8
0
  6
CONTINUOUS
 62
     7
  5
2C2
 10
-0.330224
 20
2.067528
 30
0.0
 11
-0.352249
 21
2.064581
 31
0.0
  0
LINE
  8
0
  6
CONTINUOUS
 62
     7
  5
2C3
 10
-0.352249
 20
2.064581
 30
0.0
 11
-0.374045
 21
2.065527
 31
0.0
  0
LINE
  8
0
  6
CONTINUOUS
 62
     7
  5
2C4
 10
-0.374045
 20
2.065527
 30
0.0
 11
-0.396058
 21
2.070475
 31
0.0
  0
LINE
  8
0
  6
CONTINUOUS
 62
     7
  5
2C5
 10
-0.396058
 20
2.070475
 30
0.0
 11
-0.417027
 21
2.079409
 31
0.0
  0
LINE
  8
0
  6
CONTINUOUS
 62
     7
  5
2C6
 10
-0.417027
 20
2.079409
 30
0.0
 11
-0.435821
 21
2.091839
 31
0.0
  0
LINE
  8
0
  6
CONTINUOUS
 62
     7
  5
2C7
 10
-0.435821
 20
2.091839
 30
0.0
 11
-0.451615
 21
2.106911
 31
0.0
  0
LINE
  8
0
  6
CONTINUOUS
 62
     7
  5
2C8
 10
-0.451615
 20
2.106911
 30
0.0
 11
-0.464835
 21
2.124978
 31
0.0
  0
LINE
  8
0
  6
CONTINUOUS
 62
     7
  5
2C9
 10
-0.464835
 20
2.124978
 30
0.0
 11
-0.474774
 21
2.145524
 31
0.0
  0
LINE
  8
0
  6
CONTINUOUS
 62
     7
  5
2CA
 10
-0.474774
 20
2.145524
 30
0.0
 11
-0.480798
 21
2.167454
 31
0.0
  0
LINE
  8
0
  6
CONTINUOUS
 62
     7
  5
2CB
 10
-0.480798
 20
2.167454
 30
0.0
 11
-0.48275
 21
2.18946
 31
0.0
  0
LINE
  8
0
  6
CONTINUOUS
 62
     7
  5
2CC
 10
-0.79525
 20
2.18946
 30
0.0
 11
-0.793305
 21
2.211425
 31
0.0
  0
LINE
  8
0
  6
CONTINUOUS
 62
     7
  5
2CD
 10
-0.793305
 20
2.211425
 30
0.0
 11
-0.787302
 21
2.233321
 31
0.0
  0
LINE
  8
0
  6
CONTINUOUS
 62
     7
  5
2CE
 10
-0.787302
 20
2.233321
 30
0.0
 11
-0.777392
 21
2.253847
 31
0.0
  0
LINE
  8
0
  6
CONTINUOUS
 62
     7
  5
2CF
 10
-0.777392
 20
2.253847
 30
0.0
 11
-0.764199
 21
2.271913
 31
0.0
  0
LINE
  8
0
  6
CONTINUOUS
 62
     7
  5
2D0
 10
-0.764199
 20
2.271913
 30
0.0
 11
-0.74843
 21
2.286994
 31
0.0
  0
LINE
  8
0
  6
CONTINUOUS
 62
     7
  5
2D1
 10
-0.74843
 20
2.286994
 30
0.0
 11
-0.729651
 21
2.299444
 31
0.0
  0
LINE
  8
0
  6
CONTINUOUS
 62
     7
  5
2D2
 10
-0.729651
 20
2.299444
 30
0.0
 11
-0.708675
 21
2.308408
 31
0.0
  0
LINE
  8
0
  6
CONTINUOUS
 62
     7
  5
2D3
 10
-0.708675
 20
2.308408
 30
0.0
 11
-0.686636
 21
2.313381
 31
0.0
  0
LINE
  8
0
  6
CONTINUOUS
 62
     7
  5
2D4
 10
-0.686636
 20
2.313381
 30
0.0
 11
-0.664801
 21
2.314341
 31
0.0
  0
LINE
  8
0
  6
CONTINUOUS
 62
     7
  5
2D5
 10
-0.664801
 20
2.314341
 30
0.0
 11
-0.642734
 21
2.311394
 31
0.0
  0
LINE
  8
0
  6
CONTINUOUS
 62
     7
  5
2D6
 10
-0.642734
 20
2.311394
 30
0.0
 11
-0.621083
 21
2.304384
 31
0.0
  0
LINE
  8
0
  6
CONTINUOUS
 62
     7
  5
2D7
 10
-0.621083
 20
2.304384
 30
0.0
 11
-0.601087
 21
2.293583
 31
0.0
  0
LINE
  8
0
  6
CONTINUOUS
 62
     7
  5
2D8
 10
-0.601087
 20
2.293583
 30
0.0
 11
-0.583792
 21
2.279737
 31
0.0
  0
LINE
  8
0
  6
CONTINUOUS
 62
     7
  5
2D9
 10
-0.583792
 20
2.279737
 30
0.0
 11
-0.569345
 21
2.263237
 31
0.0
  0
LINE
  8
0
  6
CONTINUOUS
 62
     7
  5
2DA
 10
-0.569345
 20
2.263237
 30
0.0
 11
-0.557688
 21
2.243819
 31
0.0
  0
LINE
  8
0
  6
CONTINUOUS
 62
     7
  5
2DB
 10
-0.557688
 20
2.243819
 30
0.0
 11
-0.549686
 21
2.222466
 31
0.0
  0
LINE
  8
0
  6
CONTINUOUS
 62
     7
  5
2DC
 10
-0.549686
 20
2.222466
 30
0.0
 11
-0.545726
 21
2.200362
 31
0.0
  0
LINE
  8
0
  6
CONTINUOUS
 62
     7
  5
2DD
 10
-0.545726
 20
2.200362
 30
0.0
 11
-0.545726
 21
2.178558
 31
0.0
  0
LINE
  8
0
  6
CONTINUOUS
 62
     7
  5
2DE
 10
-0.545726
 20
2.178558
 30
0.0
 11
-0.549686
 21
2.156454
 31
0.0
  0
LINE
  8
0
  6
CONTINUOUS
 62
     7
  5
2DF
 10
-0.549686
 20
2.156454
 30
0.0
 11
-0.557688
 21
2.135101
 31
0.0
  0
LINE
  8
0
  6
CONTINUOUS
 62
     7
  5
2E0
 10
-0.557688
 20
2.135101
 30
0.0
 11
-0.569345
 21
2.115683
 31
0.0
  0
LINE
  8
0
  6
CONTINUOUS
 62
     7
  5
2E1
 10
-0.569345
 20
2.115683
 30
0.0
 11
-0.583792
 21
2.099183
 31
0.0
  0
LINE
  8
0
  6
CONTINUOUS
 62
     7
  5
2E2
 10
-0.583792
 20
2.099183
 30
0.0
 11
-0.601087
 21
2.085337
 31
0.0
  0
LINE
  8
0
  6
CONTINUOUS
 62
     7
  5
2E3
 10
-0.601087
 20
2.085337
 30
0.0
 11
-0.621083
 21
2.074536
 31
0.0
  0
LINE
  8
0
  6
CONTINUOUS
 62
     7
  5
2E4
 10
-0.621083
 20
2.074536
 30
0.0
 11
-0.642734
 21
2.067526
 31
0.0
  0
LINE
  8
0
  6
CONTINUOUS
 62
     7
  5
2E5
 10
-0.642734
 20
2.067526
 30
0.0
 11
-0.664801
 21
2.064579
 31
0.0
  0
LINE
  8
0
  6
CONTINUOUS
 62
     7
  5
2E6
 10
-0.664801
 20
2.064579
 30
0.0
 11
-0.686636
 21
2.065539
 31
0.0
  0
LINE
  8
0
  6
CONTINUOUS
 62
     7
  5
2E7
 10
-0.686636
 20
2.065539
 30
0.0
 11
-0.708675
 21
2.070512
 31
0.0
  0
LINE
  8
0
  6
CONTINUOUS
 62
     7
  5
2E8
 10
-0.708675
 20
2.070512
 30
0.0
 11
-0.729651
 21
2.079476
 31
0.0
  0
LINE
  8
0
  6
CONTINUOUS
 62
     7
  5
2E9
 10
-0.729651
 20
2.079476
 30
0.0
 11
-0.74843
 21
2.091926
 31
0.0
  0
LINE
  8
0
  6
CONTINUOUS
 62
     7
  5
2EA
 10
-0.74843
 20
2.091926
 30
0.0
 11
-0.764199
 21
2.107007
 31
0.0
  0
LINE
  8
0
  6
CONTINUOUS
 62
     7
  5
2EB
 10
-0.764199
 20
2.107007
 30
0.0
 11
-0.777392
 21
2.125073
 31
0.0
  0
LINE
  8
0
  6
CONTINUOUS
 62
     7
  5
2EC
 10
-0.777392
 20
2.125073
 30
0.0
 11
-0.787302
 21
2.145599
 31
0.0
  0
LINE
  8
0
  6
CONTINUOUS
 62
     7
  5
2ED
 10
-0.787302
 20
2.145599
 30
0.0
 11
-0.793305
 21
2.167495
 31
0.0
  0
LINE
  8
0
  6
CONTINUOUS
 62
     7
  5
2EE
 10
-0.793305
 20
2.167495
 30
0.0
 11
-0.79525
 21
2.18946
 31
0.0
  0
LINE
  8
0
  6
CONTINUOUS
 62
     7
  5
2EF
 10
-1.10775
 20
2.18946
 30
0.0
 11
-1.105805
 21
2.211424
 31
0.0
  0
LINE
  8
0
  6
CONTINUOUS
 62
     7
  5
2F0
 10
-1.105805
 20
2.211424
 30
0.0
 11
-1.099804
 21
2.233316
 31
0.0
  0
LINE
  8
0
  6
CONTINUOUS
 62
     7
  5
2F1
 10
-1.099804
 20
2.233316
 30
0.0
 11
-1.089898
 21
2.253837
 31
0.0
  0
LINE
  8
0
  6
CONTINUOUS
 62
     7
  5
2F2
 10
-1.089898
 20
2.253837
 30
0.0
 11
-1.076713
 21
2.271898
 31
0.0
  0
LINE
  8
0
  6
CONTINUOUS
 62
     7
  5
2F3
 10
-1.076713
 20
2.271898
 30
0.0
 11
-1.060955
 21
2.286974
 31
0.0
  0
LINE
  8
0
  6
CONTINUOUS
 62
     7
  5
2F4
 10
-1.060955
 20
2.286974
 30
0.0
 11
-1.04219
 21
2.299423
 31
0.0
  0
LINE
  8
0
  6
CONTINUOUS
 62
     7
  5
2F5
 10
-1.04219
 20
2.299423
 30
0.0
 11
-1.021228
 21
2.308391
 31
0.0
  0
LINE
  8
0
  6
CONTINUOUS
 62
     7
  5
2F6
 10
-1.021228
 20
2.308391
 30
0.0
 11
-0.999197
 21
2.313373
 31
0.0
  0
LINE
  8
0
  6
CONTINUOUS
 62
     7
  5
2F7
 10
-0.999197
 20
2.313373
 30
0.0
 11
-0.977363
 21
2.314344
 31
0.0
  0
LINE
  8
0
  6
CONTINUOUS
 62
     7
  5
2F8
 10
-0.977363
 20
2.314344
 30
0.0
 11
-0.955292
 21
2.311407
 31
0.0
  0
LINE
  8
0
  6
CONTINUOUS
 62
     7
  5
2F9
 10
-0.955292
 20
2.311407
 30
0.0
 11
-0.93363
 21
2.304404
 31
0.0
  0
LINE
  8
0
  6
CONTINUOUS
 62
     7
  5
2FA
 10
-0.93363
 20
2.304404
 30
0.0
 11
-0.913619
 21
2.293604
 31
0.0
  0
LINE
  8
0
  6
CONTINUOUS
 62
     7
  5
2FB
 10
-0.913619
 20
2.293604
 30
0.0
 11
-0.896311
 21
2.279755
 31
0.0
  0
LINE
  8
0
  6
CONTINUOUS
 62
     7
  5
2FC
 10
-0.896311
 20
2.279755
 30
0.0
 11
-0.881854
 21
2.26325
 31
0.0
  0
LINE
  8
0
  6
CONTINUOUS
 62
     7
  5
2FD
 10
-0.881854
 20
2.26325
 30
0.0
 11
-0.870192
 21
2.243826
 31
0.0
  0
LINE
  8
0
  6
CONTINUOUS
 62
     7
  5
2FE
 10
-0.870192
 20
2.243826
 30
0.0
 11
-0.862187
 21
2.222469
 31
0.0
  0
LINE
  8
0
  6
CONTINUOUS
 62
     7
  5
2FF
 10
-0.862187
 20
2.222469
 30
0.0
 11
-0.858226
 21
2.200363
 31
0.0
  0
LINE
  8
0
  6
CONTINUOUS
 62
     7
  5
300
 10
-0.858226
 20
2.200363
 30
0.0
 11
-0.858226
 21
2.178557
 31
0.0
  0
LINE
  8
0
  6
CONTINUOUS
 62
     7
  5
301
 10
-0.858226
 20
2.178557
 30
0.0
 11
-0.862187
 21
2.156451
 31
0.0
  0
LINE
  8
0
  6
CONTINUOUS
 62
     7
  5
302
 10
-0.862187
 20
2.156451
 30
0.0
 11
-0.870192
 21
2.135094
 31
0.0
  0
LINE
  8
0
  6
CONTINUOUS
 62
     7
  5
303
 10
-0.870192
 20
2.135094
 30
0.0
 11
-0.881854
 21
2.11567
 31
0.0
  0
LINE
  8
0
  6
CONTINUOUS
 62
     7
  5
304
 10
-0.881854
 20
2.11567
 30
0.0
 11
-0.896311
 21
2.099165
 31
0.0
  0
LINE
  8
0
  6
CONTINUOUS
 62
     7
  5
305
 10
-0.896311
 20
2.099165
 30
0.0
 11
-0.913619
 21
2.085316
 31
0.0
  0
LINE
  8
0
  6
CONTINUOUS
 62
     7
  5
306
 10
-0.913619
 20
2.085316
 30
0.0
 11
-0.93363
 21
2.074516
 31
0.0
  0
LINE
  8
0
  6
CONTINUOUS
 62
     7
  5
307
 10
-0.93363
 20
2.074516
 30
0.0
 11
-0.955292
 21
2.067513
 31
0.0
  0
LINE
  8
0
  6
CONTINUOUS
 62
     7
  5
308
 10
-0.955292
 20
2.067513
 30
0.0
 11
-0.977363
 21
2.064576
 31
0.0
  0
LINE
  8
0
  6
CONTINUOUS
 62
     7
  5
309
 10
-0.977363
 20
2.064576
 30
0.0
 11
-0.999197
 21
2.065547
 31
0.0
  0
LINE
  8
0
  6
CONTINUOUS
 62
     7
  5
30A
 10
-0.999197
 20
2.065547
 30
0.0
 11
-1.021228
 21
2.070529
 31
0.0
  0
LINE
  8
0
  6
CONTINUOUS
 62
     7
  5
30B
 10
-1.021228
 20
2.070529
 30
0.0
 11
-1.04219
 21
2.079497
 31
0.0
  0
LINE
  8
0
  6
CONTINUOUS
 62
     7
  5
30C
 10
-1.04219
 20
2.079497
 30
0.0
 11
-1.060955
 21
2.091946
 31
0.0
  0
LINE
  8
0
  6
CONTINUOUS
 62
     7
  5
30D
 10
-1.060955
 20
2.091946
 30
0.0
 11
-1.076713
 21
2.107022
 31
0.0
  0
LINE
  8
0
  6
CONTINUOUS
 62
     7
  5
30E
 10
-1.076713
 20
2.107022
 30
0.0
 11
-1.089898
 21
2.125083
 31
0.0
  0
LINE
  8
0
  6
CONTINUOUS
 62
     7
  5
30F
 10
-1.089898
 20
2.125083
 30
0.0
 11
-1.099804
 21
2.145604
 31
0.0
  0
LINE
  8
0
  6
CONTINUOUS
 62
     7
  5
310
 10
-1.099804
 20
2.145604
 30
0.0
 11
-1.105805
 21
2.167496
 31
0.0
  0
LINE
  8
0
  6
CONTINUOUS
 62
     7
  5
311
 10
-1.105805
 20
2.167496
 30
0.0
 11
-1.10775
 21
2.18946
 31
0.0
  0
LINE
  8
0
  6
CONTINUOUS
 62
     7
  5
312
 10
-1.42025
 20
2.18946
 30
0.0
 11
-1.418298
 21
2.211462
 31
0.0
  0
LINE
  8
0
  6
CONTINUOUS
 62
     7
  5
313
 10
-1.418298
 20
2.211462
 30
0.0
 11
-1.412279
 21
2.233382
 31
0.0
  0
LINE
  8
0
  6
CONTINUOUS
 62
     7
  5
314
 10
-1.412279
 20
2.233382
 30
0.0
 11
-1.402352
 21
2.253913
 31
0.0
  0
LINE
  8
0
  6
CONTINUOUS
 62
     7
  5
315
 10
-1.402352
 20
2.253913
 30
0.0
 11
-1.389155
 21
2.271963
 31
0.0
  0
LINE
  8
0
  6
CONTINUOUS
 62
     7
  5
316
 10
-1.389155
 20
2.271963
 30
0.0
 11
-1.373397
 21
2.28702
 31
0.0
  0
LINE
  8
0
  6
CONTINUOUS
 62
     7
  5
317
 10
-1.373397
 20
2.28702
 30
0.0
 11
-1.354647
 21
2.299446
 31
0.0
  0
LINE
  8
0
  6
CONTINUOUS
 62
     7
  5
318
 10
-1.354647
 20
2.299446
 30
0.0
 11
-1.333718
 21
2.308394
 31
0.0
  0
LINE
  8
0
  6
CONTINUOUS
 62
     7
  5
319
 10
-1.333718
 20
2.308394
 30
0.0
 11
-1.311729
 21
2.313369
 31
0.0
  0
LINE
  8
0
  6
CONTINUOUS
 62
     7
  5
31A
 10
-1.311729
 20
2.313369
 30
0.0
 11
-1.289935
 21
2.314347
 31
0.0
  0
LINE
  8
0
  6
CONTINUOUS
 62
     7
  5
31B
 10
-1.289935
 20
2.314347
 30
0.0
 11
-1.267899
 21
2.311431
 31
0.0
  0
LINE
  8
0
  6
CONTINUOUS
 62
     7
  5
31C
 10
-1.267899
 20
2.311431
 30
0.0
 11
-1.246252
 21
2.304457
 31
0.0
  0
LINE
  8
0
  6
CONTINUOUS
 62
     7
  5
31D
 10
-1.246252
 20
2.304457
 30
0.0
 11
-1.226238
 21
2.293683
 31
0.0
  0
LINE
  8
0
  6
CONTINUOUS
 62
     7
  5
31E
 10
-1.226238
 20
2.293683
 30
0.0
 11
-1.208906
 21
2.279846
 31
0.0
  0
LINE
  8
0
  6
CONTINUOUS
 62
     7
  5
31F
 10
-1.208906
 20
2.279846
 30
0.0
 11
-1.194426
 21
2.263348
 31
0.0
  0
LINE
  8
0
  6
CONTINUOUS
 62
     7
  5
320
 10
-1.194426
 20
2.263348
 30
0.0
 11
-1.182734
 21
2.243913
 31
0.0
  0
LINE
  8
0
  6
CONTINUOUS
 62
     7
  5
321
 10
-1.182734
 20
2.243913
 30
0.0
 11
-1.174703
 21
2.222528
 31
0.0
  0
LINE
  8
0
  6
CONTINUOUS
 62
     7
  5
322
 10
-1.174703
 20
2.222528
 30
0.0
 11
-1.170728
 21
2.200383
 31
0.0
  0
LINE
  8
0
  6
CONTINUOUS
 62
     7
  5
323
 10
-1.170728
 20
2.200383
 30
0.0
 11
-1.170728
 21
2.178537
 31
0.0
  0
LINE
  8
0
  6
CONTINUOUS
 62
     7
  5
324
 10
-1.170728
 20
2.178537
 30
0.0
 11
-1.174703
 21
2.156392
 31
0.0
  0
LINE
  8
0
  6
CONTINUOUS
 62
     7
  5
325
 10
-1.174703
 20
2.156392
 30
0.0
 11
-1.182734
 21
2.135007
 31
0.0
  0
LINE
  8
0
  6
CONTINUOUS
 62
     7
  5
326
 10
-1.182734
 20
2.135007
 30
0.0
 11
-1.194426
 21
2.115572
 31
0.0
  0
LINE
  8
0
  6
CONTINUOUS
 62
     7
  5
327
 10
-1.194426
 20
2.115572
 30
0.0
 11
-1.208906
 21
2.099074
 31
0.0
  0
LINE
  8
0
  6
CONTINUOUS
 62
     7
  5
328
 10
-1.208906
 20
2.099074
 30
0.0
 11
-1.226238
 21
2.085237
 31
0.0
  0
LINE
  8
0
  6
CONTINUOUS
 62
     7
  5
329
 10
-1.226238
 20
2.085237
 30
0.0
 11
-1.246252
 21
2.074463
 31
0.0
  0
LINE
  8
0
  6
CONTINUOUS
 62
     7
  5
32A
 10
-1.246252
 20
2.074463
 30
0.0
 11
-1.267899
 21
2.067489
 31
0.0
  0
LINE
  8
0
  6
CONTINUOUS
 62
     7
  5
32B
 10
-1.267899
 20
2.067489
 30
0.0
 11
-1.289935
 21
2.064573
 31
0.0
  0
LINE
  8
0
  6
CONTINUOUS
 62
     7
  5
32C
 10
-1.289935
 20
2.064573
 30
0.0
 11
-1.311729
 21
2.065551
 31
0.0
  0
LINE
  8
0
  6
CONTINUOUS
 62
     7
  5
32D
 10
-1.311729
 20
2.065551
 30
0.0
 11
-1.333718
 21
2.070526
 31
0.0
  0
LINE
  8
0
  6
CONTINUOUS
 62
     7
  5
32E
 10
-1.333718
 20
2.070526
 30
0.0
 11
-1.354647
 21
2.079474
 31
0.0
  0
LINE
  8
0
  6
CONTINUOUS
 62
     7
  5
32F
 10
-1.354647
 20
2.079474
 30
0.0
 11
-1.373397
 21
2.0919
 31
0.0
  0
LINE
  8
0
  6
CONTINUOUS
 62
     7
  5
330
 10
-1.373397
 20
2.0919
 30
0.0
 11
-1.389155
 21
2.106957
 31
0.0
  0
LINE
  8
0
  6
CONTINUOUS
 62
     7
  5
331
 10
-1.389155
 20
2.106957
 30
0.0
 11
-1.402352
 21
2.125007
 31
0.0
  0
LINE
  8
0
  6
CONTINUOUS
 62
     7
  5
332
 10
-1.402352
 20
2.125007
 30
0.0
 11
-1.412279
 21
2.145538
 31
0.0
  0
LINE
  8
0
  6
CONTINUOUS
 62
     7
  5
333
 10
-1.412279
 20
2.145538
 30
0.0
 11
-1.418298
 21
2.167458
 31
0.0
  0
LINE
  8
0
  6
CONTINUOUS
 62
     7
  5
334
 10
-1.418298
 20
2.167458
 30
0.0
 11
-1.42025
 21
2.18946
 31
0.0
  0
LINE
  8
0
  6
CONTINUOUS
 62
     7
  5
335
 10
-1.673
 20
-2.4605
 30
0.0
 11
-1.673
 21
2.4605
 31
0.0
  0
LINE
  8
0
  6
CONTINUOUS
 62
     7
  5
336
 10
-0.022325
 20
-0.875
 30
0.0
 11
-0.022325
 21
1.625
 31
0.0
  0
LINE
  8
0
  6
CONTINUOUS
 62
     7
  5
337
 10
-0.022325
 20
1.625
 30
0.0
 11
-1.630675
 21
1.625
 31
0.0
  0
LINE
  8
0
  6
CONTINUOUS
 62
     7
  5
338
 10
-0.022325
 20
-0.875
 30
0.0
 11
-1.630675
 21
-0.875
 31
0.0
  0
LINE
  8
0
  6
CONTINUOUS
 62
     7
  5
339
 10
-1.630675
 20
-0.875
 30
0.0
 11
-1.630675
 21
1.625
 31
0.0
  0
LINE
  8
0
  6
CONTINUOUS
 62
     7
  5
33A
 10
-1.630675
 20
2.4605
 30
0.0
 11
-1.630675
 21
1.75
 31
0.0
  0
LINE
  8
0
  6
CONTINUOUS
 62
     7
  5
33B
 10
-1.630675
 20
1.75
 30
0.0
 11
-0.022325
 21
1.75
 31
0.0
  0
LINE
  8
0
  6
CONTINUOUS
 62
     7
  5
33C
 10
-0.022325
 20
2.4605
 30
0.0
 11
-0.022325
 21
1.75
 31
0.0
  0
LINE
  8
0
  6
CONTINUOUS
 62
     7
  5
33D
 10
-0.022325
 20
-2.4605
 30
0.0
 11
-0.022325
 21
-1.75
 31
0.0
  0
LINE
  8
0
  6
CONTINUOUS
 62
     7
  5
33E
 10
-0.022325
 20
-1.75
 30
0.0
 11
-1.630675
 21
-1.75
 31
0.0
  0
LINE
  8
0
  6
CONTINUOUS
 62
     7
  5
33F
 10
-1.630675
 20
-2.4605
 30
0.0
 11
-1.630675
 21
-1.75
 31
0.0
  0
LINE
  8
0
  6
CONTINUOUS
 62
     7
  5
340
 10
1.673
 20
-2.4605
 30
0.0
 11
1.673
 21
2.4605
 31
0.0
  0
LINE
  8
0
  6
CONTINUOUS
 62
     3
  5
341
 10
-1.673
 20
0.0
 30
0.0
 11
1.673
 21
0.0
 31
0.0
  0
ENDSEC
  0
EOF
