999
DXF file: C:\Users\sesa63760\Dev\_Creo\CAD\MCADID0004901_3D-CAD\drw0001_1.dxf
999
Pro/ENGINEER 2019471 by Parametric Technology Corporation
  0
SECTION
  2
HEADER
  9
$ACADVER
  1
AC1024
  9
$DWGCODEPAGE
  3
ANSI_1252
  9
$EXTMAX
 10
523.7899092567
 20
740.7885859487
 30
0.0
  9
$EXTMIN
 10
0.0
 20
0.0
 30
0.0
  9
$LIMMIN
 10
0.0
 20
0.0
  9
$LIMMAX
 10
523.7899092567
 20
740.7885859487
  9
$VIEWCTR
 10
261.8949546283
 20
370.3942929744
  9
$VIEWSIZE
 40
740.7885859487
  9
$CLAYER
  8
0
  9
$LTSCALE
 40
48.2884411581
  9
$CELTYPE
  6
BYLAYER
  9
$DIMSCALE
 40
1.0
  9
$DIMASZ
 40
6.2355941578
  9
$DIMEXO
 40
1.0
  9
$DIMDLI
 40
33.362922982
  9
$DIMEXE
 40
1.0
  9
$DIMCEN
 40
7.9017449168
  9
$DIMLFAC
 40
1.0
  9
$DIMBLK
  1
_FILLED
  9
$DIMALT
 70
0
  9
$DIMALTF
 40
0.0393700787
  9
$DIMTXT
 40
8.7298318209
  9
$DIMTOL
 70
1
  9
$DIMLIM
 70
0
  9
$DIMTFAC
 40
1.0
  9
$DIMTP
 40
0.01
  9
$DIMTM
 40
0.01
  9
$DIMGAP
 40
0.625
  9
$DIMDSEP
 70
46
  9
$AUNITS
 70
0
  9
$PDMODE
 70
3
  9
$PDSIZE
 40
0.3125
  9
$HANDSEED
  5
659
  9
$TILEMODE
 70
1
  9
$MEASUREMENT
 70
1
  9
$INSUNITS
 70
4
  0
ENDSEC
  0
SECTION
  2
CLASSES
  0
CLASS
  1
ACDBDICTIONARYWDFLT
  2
AcDbDictionaryWithDefault
  3
AutoCAD 2000
 90
0
 91
1
280
0
281
0
  0
CLASS
  1
ACDBPLACEHOLDER
  2
AcDbPlaceHolder
  3
AutoCAD 2000
 90
0
 91
1
280
0
281
0
  0
CLASS
  1
LAYOUT
  2
AcDbLayout
  3
AutoCAD 2000
 90
0
 91
0
280
0
281
0
  0
ENDSEC
  0
SECTION
  2
TABLES
  0
TABLE
  2
VPORT
  5
8
100
AcDbSymbolTable
 70
2
  0
VPORT
  5
1F4
100
AcDbSymbolTableRecord
100
AcDbViewportTableRecord
  2
*ACTIVE
 70
0
 10
0.0
 20
0.0
 11
1.0
 21
1.0
 12
261.8949546283
 22
370.3942929744
 13
0.0
 23
0.0
 14
1.0
 24
1.0
 15
0.0
 25
0.0
 16
0.0
 26
0.0
 36
1.0
 17
0.0
 27
0.0
 37
0.0
 40
740.7885859487
 41
0.7070707071
 42
50.0
 43
0.0
 44
0.0
 50
0.0
 51
0.0
 71
0
 72
100
 73
1
 74
1
 75
0
 76
0
 77
0
 78
0
  0
ENDTAB
  0
TABLE
  2
LTYPE
  5
5
100
AcDbSymbolTable
 70
6
  0
LTYPE
  5
14
100
AcDbSymbolTableRecord
100
AcDbLinetypeTableRecord
  2
BYBLOCK
 70
0
  3

 72
65
 73
0
 40
0.0
  0
LTYPE
  5
15
100
AcDbSymbolTableRecord
100
AcDbLinetypeTableRecord
  2
BYLAYER
 70
0
  3

 72
65
 73
0
 40
0.0
  0
LTYPE
  5
16
100
AcDbSymbolTableRecord
100
AcDbLinetypeTableRecord
  2
CONTINUOUS
 70
64
  3
Solid line
 72
65
 73
0
 40
0.0
  0
LTYPE
  5
1F5
100
AcDbSymbolTableRecord
100
AcDbLinetypeTableRecord
  2
CENTER
 70
64
  3
____ _ ____ _ ____ _ ____ _ ____ _ ____ _ ____
 72
65
 73
4
 40
0.6
 49
0.375
 74
0
 49
-0.075
 74
0
 49
0.075
 74
0
 49
-0.075
 74
0
  0
LTYPE
  5
1F6
100
AcDbSymbolTableRecord
100
AcDbLinetypeTableRecord
  2
HIDDEN
 70
64
  3
- - - - - - - - - - - - - - - - - - - -
 72
65
 73
2
 40
0.2
 49
0.1
 74
0
 49
-0.1
 74
0
  0
LTYPE
  5
1F7
100
AcDbSymbolTableRecord
100
AcDbLinetypeTableRecord
  2
PHANTOM
 70
64
  3
_____ _ _ _____ _ _ _____ _ _ _____
 72
65
 73
6
 40
0.8
 49
0.45
 74
0
 49
-0.05
 74
0
 49
0.1
 74
0
 49
-0.05
 74
0
 49
0.1
 74
0
 49
-0.05
 74
0
  0
LTYPE
  5
1F8
100
AcDbSymbolTableRecord
100
AcDbLinetypeTableRecord
  2
DOT
 70
64
  3
. . . . . . . . . . . . . . . . . . . .
 72
65
 73
2
 40
0.2
 49
0.1
 74
0
 49
-0.1
 74
0
  0
LTYPE
  5
1F9
100
AcDbSymbolTableRecord
100
AcDbLinetypeTableRecord
  2
DASHED
 70
64
  3
- - - - - - - - - - - - - - - - - - - -
 72
65
 73
2
 40
0.2
 49
0.1
 74
0
 49
-0.1
 74
0
  0
ENDTAB
  0
TABLE
  2
LAYER
  5
2
100
AcDbSymbolTable
 70
36
  0
LAYER
  5
10
100
AcDbSymbolTableRecord
100
AcDbLayerTableRecord
  2
0
 70
0
 62
7
  6
CONTINUOUS
370
-3
390
F
  0
LAYER
  5
1FA
100
AcDbSymbolTableRecord
100
AcDbLayerTableRecord
  2
DEFAULT_1
 70
0
 62
7
  6
CENTER
370
-3
390
F
  0
LAYER
  5
1FB
100
AcDbSymbolTableRecord
100
AcDbLayerTableRecord
  2
DEFAULT_2
 70
0
 62
7
  6
HIDDEN
370
-3
390
F
  0
LAYER
  5
1FC
100
AcDbSymbolTableRecord
100
AcDbLayerTableRecord
  2
DEFAULT_3
 70
0
 62
7
  6
PHANTOM
370
-3
390
F
  0
LAYER
  5
1FD
100
AcDbSymbolTableRecord
100
AcDbLayerTableRecord
  2
00_COMPONENTS
 70
0
 62
7
  6
CONTINUOUS
370
-3
390
F
  0
LAYER
  5
1FE
100
AcDbSymbolTableRecord
100
AcDbLayerTableRecord
  2
01_1_DEFAULT_DATUMS
 70
0
 62
7
  6
CONTINUOUS
370
-3
390
F
  0
LAYER
  5
1FF
100
AcDbSymbolTableRecord
100
AcDbLayerTableRecord
  2
01_PLANES
 70
0
 62
7
  6
CONTINUOUS
370
-3
390
F
  0
LAYER
  5
200
100
AcDbSymbolTableRecord
100
AcDbLayerTableRecord
  2
02_COORD_SYS
 70
0
 62
7
  6
CONTINUOUS
370
-3
390
F
  0
LAYER
  5
201
100
AcDbSymbolTableRecord
100
AcDbLayerTableRecord
  2
03_AXES
 70
0
 62
7
  6
CONTINUOUS
370
-3
390
F
  0
LAYER
  5
202
100
AcDbSymbolTableRecord
100
AcDbLayerTableRecord
  2
04_POINTS
 70
0
 62
7
  6
CONTINUOUS
370
-3
390
F
  0
LAYER
  5
203
100
AcDbSymbolTableRecord
100
AcDbLayerTableRecord
  2
05_CURVES
 70
0
 62
7
  6
CONTINUOUS
370
-3
390
F
  0
LAYER
  5
204
100
AcDbSymbolTableRecord
100
AcDbLayerTableRecord
  2
06_SURFS
 70
0
 62
7
  6
CONTINUOUS
370
-3
390
F
  0
LAYER
  5
205
100
AcDbSymbolTableRecord
100
AcDbLayerTableRecord
  2
07_COSMETICS
 70
0
 62
7
  6
CONTINUOUS
370
-3
390
F
  0
LAYER
  5
206
100
AcDbSymbolTableRecord
100
AcDbLayerTableRecord
  2
10_NOTES
 70
0
 62
7
  6
CONTINUOUS
370
-3
390
F
  0
LAYER
  5
207
100
AcDbSymbolTableRecord
100
AcDbLayerTableRecord
  2
11_NOTES_PUB
 70
0
 62
7
  6
CONTINUOUS
370
-3
390
F
  0
LAYER
  5
208
100
AcDbSymbolTableRecord
100
AcDbLayerTableRecord
  2
13_REF_GTOL
 70
0
 62
7
  6
CONTINUOUS
370
-3
390
F
  0
LAYER
  5
209
100
AcDbSymbolTableRecord
100
AcDbLayerTableRecord
  2
16_MISC
 70
0
 62
7
  6
CONTINUOUS
370
-3
390
F
  0
LAYER
  5
20A
100
AcDbSymbolTableRecord
100
AcDbLayerTableRecord
  2
17_NO_PRINT
 70
0
 62
7
  6
CONTINUOUS
370
-3
390
F
  0
LAYER
  5
20B
100
AcDbSymbolTableRecord
100
AcDbLayerTableRecord
  2
18_DATUM_CAMS_JOINTS
 70
0
 62
7
  6
CONTINUOUS
370
-3
390
F
  0
LAYER
  5
20C
100
AcDbSymbolTableRecord
100
AcDbLayerTableRecord
  2
19_DATUM_FUNCTIONAL
 70
0
 62
7
  6
CONTINUOUS
370
-3
390
F
  0
LAYER
  5
20D
100
AcDbSymbolTableRecord
100
AcDbLayerTableRecord
  2
20_DATUM_KINEMATIC_SCHEME
 70
0
 62
7
  6
CONTINUOUS
370
-3
390
F
  0
ENDTAB
  0
TABLE
  2
STYLE
  5
3
100
AcDbSymbolTable
 70
1
  0
STYLE
  5
11
100
AcDbSymbolTableRecord
100
AcDbTextStyleTableRecord
  2
STANDARD
 70
0
 40
0.0
 41
1.0
 50
0.0
 71
0
 42
0.2
  3
ARIAL.TTF
  4

  0
STYLE
  5
20E
100
AcDbSymbolTableRecord
100
AcDbTextStyleTableRecord
  2
TEXTSTYLE_1
 70
0
 40
0.0
 41
0.8
 50
0.0
 71
0
 42
0.2
  3
gdt
  4

  0
ENDTAB
  0
TABLE
  2
VIEW
  5
6
100
AcDbSymbolTable
 70
0
  0
ENDTAB
  0
TABLE
  2
UCS
  5
7
100
AcDbSymbolTable
 70
0
  0
ENDTAB
  0
TABLE
  2
APPID
  5
9
100
AcDbSymbolTable
 70
1
  0
APPID
  5
20F
100
AcDbSymbolTableRecord
100
AcDbRegAppTableRecord
  2
ACAD
 70
0
  0
ENDTAB
  0
TABLE
  2
BLOCK_RECORD
  5
1
100
AcDbSymbolTable
 70
0
  0
BLOCK_RECORD
  5
210
100
AcDbSymbolTableRecord
100
AcDbBlockTableRecord
  2
*Model_Space
  0
BLOCK_RECORD
  5
211
100
AcDbSymbolTableRecord
100
AcDbBlockTableRecord
  2
*Paper_Space
  0
BLOCK_RECORD
  5
212
100
AcDbSymbolTableRecord
100
AcDbBlockTableRecord
  2
_FILLED
  0
ENDTAB
  0
TABLE
  2
DIMSTYLE
  5
A
100
AcDbSymbolTable
 70
1
100
AcDbDimStyleTable
 71
0
  0
DIMSTYLE
105
213
100
AcDbSymbolTableRecord
100
AcDbDimStyleTableRecord
  2
STANDARD
 70
0
  3

  4

 40
1.0
 41
6.2355941578
 42
1.0
 43
0.38
 44
1.0
 45
0.0
 46
0.0
 47
0.01
 48
0.01
140
8.7298318209
141
0.09
142
0.0
143
25.4
144
1.0
145
0.0
146
1.0
147
0.625
 71
1
 72
0
 73
0
 74
0
 75
0
 76
0
 77
1
 78
8
 79
2
170
0
171
1
172
0
173
0
174
0
175
0
176
0
177
0
178
0
270
2
179
2
271
2
272
2
273
2
274
2
275
0
280
0
281
0
282
0
283
1
284
8
285
0
286
0
287
3
288
0
340
11
278
46
341
212
342
212
343
212
344
212
  0
ENDTAB
  0
ENDSEC
  0
SECTION
  2
BLOCKS
  0
BLOCK
  5
20
100
AcDbEntity
  8
0
100
AcDbBlockBegin
  2
*Model_Space
 70
0
 10
0.0
 20
0.0
 30
0.0
  3
*Model_Space
  1

  0
ENDBLK
  5
21
100
AcDbEntity
  8
0
100
AcDbBlockEnd
  0
BLOCK
  5
1C
100
AcDbEntity
  8
0
100
AcDbBlockBegin
  2
*Paper_Space
 70
0
 10
0.0
 20
0.0
 30
0.0
  3
*Paper_Space
  1

  0
ENDBLK
  5
1D
100
AcDbEntity
  8
0
100
AcDbBlockEnd
  0
BLOCK
  5
214
100
AcDbEntity
  8
0
100
AcDbBlockBegin
  2
_FILLED
 70
64
 10
0.0
 20
0.0
  3
_FILLED
  1

  0
SOLID
  5
215
100
AcDbEntity
  8
0
  6
BYBLOCK
 62
0
100
AcDbTrace
 10
0.0
 20
0.0
 11
-1.0
 21
0.25
 12
-1.0
 22
-0.25
 13
-1.0
 23
-0.25
  0
ENDBLK
  5
216
100
AcDbEntity
  8
0
  6
BYBLOCK
 62
0
100
AcDbBlockEnd
  0
ENDSEC
  0
SECTION
  2
ENTITIES
  0
LINE
  5
217
100
AcDbEntity
  8
0
100
AcDbLine
 62
7
  6
BYLAYER
 10
65.9877316947
 20
628.0125607202
 11
61.2049883612
 21
624.8769750846
  0
LINE
  5
218
100
AcDbEntity
  8
0
100
AcDbLine
 62
7
  6
BYLAYER
 10
62.3920081877
 20
624.7859477758
 11
67.3295801942
 21
627.9096602845
  0
LINE
  5
219
100
AcDbEntity
  8
0
100
AcDbLine
 62
7
  6
BYLAYER
 10
84.3801076068
 20
626.4590667118
 11
87.885566077
 21
628.5176426509
  0
LINE
  5
21A
100
AcDbEntity
  8
0
100
AcDbLine
 62
7
  6
BYLAYER
 10
85.394162712
 20
628.760096744
 11
81.8673960278
 21
626.7035944407
  0
LINE
  5
21B
100
AcDbEntity
  8
0
100
AcDbLine
 62
7
  6
BYLAYER
 10
63.1480500799
 20
621.6393380549
 11
63.5758295174
 21
621.8863151541
  0
LINE
  5
21C
100
AcDbEntity
  8
0
100
AcDbLine
 62
7
  6
BYLAYER
 10
63.9369287128
 20
621.4177168311
 11
64.3258403501
 21
621.6422537292
  0
LINE
  5
21D
100
AcDbEntity
  8
0
100
AcDbLine
 62
7
  6
BYLAYER
 10
76.640582534
 20
622.5340721892
 11
84.1089621448
 21
626.2082007037
  0
LINE
  5
21E
100
AcDbEntity
  8
0
100
AcDbLine
 62
7
  6
BYLAYER
 10
81.6682231252
 20
626.5216141205
 11
75.1532083466
 21
623.3927886499
  0
LINE
  5
21F
100
AcDbEntity
  8
0
100
AcDbLine
 62
7
  6
BYLAYER
 10
61.2050583094
 20
624.8768593629
 11
60.7656558199
 21
623.8469459518
  0
LINE
  5
220
100
AcDbEntity
  8
0
100
AcDbLine
 62
7
  6
BYLAYER
 10
62.9359421833
 20
621.5168280863
 11
62.5212770457
 21
620.6003665895
  0
LINE
  5
221
100
AcDbEntity
  8
0
100
AcDbLine
 62
7
  6
BYLAYER
 10
97.9684689515
 20
583.1847334427
 11
97.884604874
 21
583.1140717765
  0
LINE
  5
222
100
AcDbEntity
  8
0
100
AcDbLine
 62
7
  6
BYLAYER
 10
101.4404697274
 20
580.6083482491
 11
101.61036025
 21
580.7501110351
  0
LINE
  5
223
100
AcDbEntity
  8
0
100
AcDbLine
 62
7
  6
BYLAYER
 10
101.4894295985
 20
579.7168184248
 11
101.4899670743
 21
579.7171516439
  0
LINE
  5
224
100
AcDbEntity
  8
0
100
AcDbLine
 62
7
  6
BYLAYER
 10
90.5935349005
 20
595.1683903625
 11
90.8056660516
 21
595.2908636087
  0
LINE
  5
225
100
AcDbEntity
  8
0
100
AcDbLine
 62
7
  6
BYLAYER
 10
91.6116276172
 20
590.5784953346
 11
91.5409172335
 21
590.5376709192
  0
LINE
  5
226
100
AcDbEntity
  8
0
100
AcDbLine
 62
7
  6
BYLAYER
 10
91.9525119923
 20
590.4441802511
 11
92.023222376
 21
590.4850046665
  0
LINE
  5
227
100
AcDbEntity
  8
0
100
AcDbLine
 62
7
  6
BYLAYER
 10
92.2776161482
 20
590.3381336762
 11
92.2069057645
 21
590.2973092609
  0
LINE
  5
228
100
AcDbEntity
  8
0
100
AcDbLine
 62
7
  6
BYLAYER
 10
92.806015527
 20
589.3266051859
 11
92.8767259107
 21
589.3674296013
  0
LINE
  5
229
100
AcDbEntity
  8
0
100
AcDbLine
 62
7
  6
BYLAYER
 10
94.2409160216
 20
589.0868824045
 11
94.1702056379
 21
589.0460579891
  0
LINE
  5
22A
100
AcDbEntity
  8
0
100
AcDbLine
 62
7
  6
BYLAYER
 10
94.5975443079
 20
588.9171046782
 11
94.6682546916
 21
588.9579290936
  0
LINE
  5
22B
100
AcDbEntity
  8
0
100
AcDbLine
 62
7
  6
BYLAYER
 10
94.923477108
 20
588.8105796962
 11
94.8527667243
 21
588.7697552809
  0
LINE
  5
22C
100
AcDbEntity
  8
0
100
AcDbLine
 62
7
  6
BYLAYER
 10
95.366526134
 20
587.9507088884
 11
95.4372365177
 21
587.9915333038
  0
LINE
  5
22D
100
AcDbEntity
  8
0
100
AcDbLine
 62
7
  6
BYLAYER
 10
92.2552427541
 20
586.1151254336
 11
92.1845323704
 21
586.0743010182
  0
LINE
  5
22E
100
AcDbEntity
  8
0
100
AcDbLine
 62
7
  6
BYLAYER
 10
92.064476243
 20
585.7152155269
 11
92.1351866267
 21
585.7560399423
  0
LINE
  5
22F
100
AcDbEntity
  8
0
100
AcDbLine
 62
7
  6
BYLAYER
 10
94.034341872
 20
585.3386770736
 11
93.9636314882
 21
585.2978526582
  0
LINE
  5
230
100
AcDbEntity
  8
0
100
AcDbLine
 62
7
  6
BYLAYER
 10
93.7383945602
 20
584.782596464
 11
93.809104944
 21
584.8234208794
  0
LINE
  5
231
100
AcDbEntity
  8
0
100
AcDbLine
 62
7
  6
BYLAYER
 10
96.4713441518
 20
586.2815755983
 11
96.4006337681
 21
586.2407511829
  0
LINE
  5
232
100
AcDbEntity
  8
0
100
AcDbLine
 62
7
  6
BYLAYER
 10
97.5152005676
 20
586.0078795326
 11
97.5859109514
 21
586.048703948
  0
LINE
  5
233
100
AcDbEntity
  8
0
100
AcDbLine
 62
7
  6
BYLAYER
 10
96.6795918301
 20
585.2522550105
 11
96.7503022139
 21
585.2930794259
  0
LINE
  5
234
100
AcDbEntity
  8
0
100
AcDbLine
 62
7
  6
BYLAYER
 10
96.3550735181
 20
584.820869543
 11
96.2843631343
 21
584.7800451276
  0
LINE
  5
235
100
AcDbEntity
  8
0
100
AcDbLine
 62
7
  6
BYLAYER
 10
95.4372365178
 20
584.2751715216
 11
95.3665261341
 21
584.2343471062
  0
LINE
  5
236
100
AcDbEntity
  8
0
100
AcDbLine
 62
7
  6
BYLAYER
 10
96.776878578
 20
584.7855070896
 11
96.8475889617
 21
584.826331505
  0
LINE
  5
237
100
AcDbEntity
  8
0
100
AcDbLine
 62
7
  6
BYLAYER
 10
95.2480154978
 20
583.878338976
 11
95.3187258816
 21
583.9191633914
  0
LINE
  5
238
100
AcDbEntity
  8
0
100
AcDbLine
 62
7
  6
BYLAYER
 10
96.7984233267
 20
583.926266193
 11
96.8691337104
 21
583.9670906084
  0
LINE
  5
239
100
AcDbEntity
  8
0
100
AcDbLine
 62
7
  6
BYLAYER
 10
97.2715791708
 20
583.2091225288
 11
97.3422895546
 21
583.2499469442
  0
LINE
  5
23A
100
AcDbEntity
  8
0
100
AcDbLine
 62
7
  6
BYLAYER
 10
98.8194865537
 20
583.9085945542
 11
98.8901969374
 21
583.9494189696
  0
LINE
  5
23B
100
AcDbEntity
  8
0
100
AcDbLine
 62
7
  6
BYLAYER
 10
99.866865173
 20
584.3371294588
 11
99.7961547893
 21
584.2963050434
  0
LINE
  5
23C
100
AcDbEntity
  8
0
100
AcDbLine
 62
7
  6
BYLAYER
 10
100.6516189
 20
584.1971085301
 11
100.7223292837
 21
584.2379329454
  0
LINE
  5
23D
100
AcDbEntity
  8
0
100
AcDbLine
 62
7
  6
BYLAYER
 10
98.8843964282
 20
582.9557418206
 11
98.8136860445
 21
582.9149174052
  0
LINE
  5
23E
100
AcDbEntity
  8
0
100
AcDbLine
 62
7
  6
BYLAYER
 10
100.1395167787
 20
582.7379218347
 11
100.2102271625
 21
582.7787462501
  0
LINE
  5
23F
100
AcDbEntity
  8
0
100
AcDbLine
 62
7
  6
BYLAYER
 10
98.9562128481
 20
581.9781743571
 11
99.0269232318
 21
582.0189987724
  0
LINE
  5
240
100
AcDbEntity
  8
0
100
AcDbLine
 62
7
  6
BYLAYER
 10
98.8692960678
 20
581.8093644039
 11
98.9400064515
 21
581.8501888193
  0
LINE
  5
241
100
AcDbEntity
  8
0
100
AcDbLine
 62
7
  6
BYLAYER
 10
101.838412168
 20
583.4919411366
 11
101.7677017843
 21
583.4511167212
  0
LINE
  5
242
100
AcDbEntity
  8
0
100
AcDbLine
 62
7
  6
BYLAYER
 10
102.0014803167
 20
583.424481179
 11
102.0721907004
 21
583.4653055944
  0
LINE
  5
243
100
AcDbEntity
  8
0
100
AcDbLine
 62
7
  6
BYLAYER
 10
99.6538139511
 20
581.1364133231
 11
99.5831035673
 21
581.0955889077
  0
LINE
  5
244
100
AcDbEntity
  8
0
100
AcDbLine
 62
7
  6
BYLAYER
 10
99.8055731624
 20
581.0725390191
 11
99.8762835462
 21
581.1133634345
  0
LINE
  5
245
100
AcDbEntity
  8
0
100
AcDbLine
 62
7
  6
BYLAYER
 10
102.366912413
 20
582.5465870109
 11
102.4376227967
 21
582.5874114263
  0
LINE
  5
246
100
AcDbEntity
  8
0
100
AcDbLine
 62
7
  6
BYLAYER
 10
100.8745241923
 20
581.2514836719
 11
100.945234576
 21
581.2923080872
  0
LINE
  5
247
100
AcDbEntity
  8
0
100
AcDbLine
 62
7
  6
BYLAYER
 10
100.0906267711
 20
580.6984192731
 11
100.1613371548
 21
580.7392436884
  0
LINE
  5
248
100
AcDbEntity
  8
0
100
AcDbLine
 62
7
  6
BYLAYER
 10
103.5423500333
 20
582.1705724457
 11
103.4716396496
 21
582.1297480304
  0
LINE
  5
249
100
AcDbEntity
  8
0
100
AcDbLine
 62
7
  6
BYLAYER
 10
101.4390438786
 20
580.6108820859
 11
101.5097542623
 21
580.6517065013
  0
LINE
  5
24A
100
AcDbEntity
  8
0
100
AcDbLine
 62
7
  6
BYLAYER
 10
104.5147582031
 20
581.9667744704
 11
104.5854685868
 21
582.0075988858
  0
LINE
  5
24B
100
AcDbEntity
  8
0
100
AcDbLine
 62
7
  6
BYLAYER
 10
100.8198336752
 20
579.8133541915
 11
100.8905440589
 21
579.8541786069
  0
LINE
  5
24C
100
AcDbEntity
  8
0
100
AcDbLine
 62
7
  6
BYLAYER
 10
103.7988096057
 20
580.9104138831
 11
103.8695199894
 21
580.9512382985
  0
LINE
  5
24D
100
AcDbEntity
  8
0
100
AcDbLine
 62
7
  6
BYLAYER
 10
102.4376227967
 20
580.0316950722
 11
102.366912413
 21
579.9908706569
  0
LINE
  5
24E
100
AcDbEntity
  8
0
100
AcDbLine
 62
7
  6
BYLAYER
 10
106.8013383525
 20
581.9665588054
 11
106.7306279688
 21
581.92573439
  0
LINE
  5
24F
100
AcDbEntity
  8
0
100
AcDbLine
 62
7
  6
BYLAYER
 10
106.9766601485
 20
581.8926558638
 11
107.0473705322
 21
581.9334802791
  0
LINE
  5
250
100
AcDbEntity
  8
0
100
AcDbLine
 62
7
  6
BYLAYER
 10
102.0249932116
 20
578.908608512
 11
102.0956672542
 21
578.9494119484
  0
LINE
  5
251
100
AcDbEntity
  8
0
100
AcDbLine
 62
7
  6
BYLAYER
 10
107.3520359752
 20
581.1391508811
 11
107.422746359
 21
581.1799752965
  0
LINE
  5
252
100
AcDbEntity
  8
0
100
AcDbLine
 62
7
  6
BYLAYER
 10
104.548732615
 20
579.0077510766
 11
104.6194429987
 21
579.048575492
  0
LINE
  5
253
100
AcDbEntity
  8
0
100
AcDbLine
 62
7
  6
BYLAYER
 10
101.4894306092
 20
579.7168166703
 11
101.48997847
 21
579.7171319058
  0
LINE
  5
254
100
AcDbEntity
  8
0
100
AcDbLine
 62
7
  6
BYLAYER
 10
94.1701724773
 20
589.0461183402
 11
93.9951199687
 21
588.6400909537
  0
LINE
  5
255
100
AcDbEntity
  8
0
100
AcDbLine
 62
7
  6
BYLAYER
 10
89.093611299
 20
595.3168425068
 11
88.472205725
 21
593.9436053747
  0
LINE
  5
256
100
AcDbEntity
  8
0
100
AcDbLine
 62
7
  6
BYLAYER
 10
96.4013791334
 20
586.2394448192
 11
96.1885411895
 21
585.8198411011
  0
LINE
  5
257
100
AcDbEntity
  8
0
100
AcDbLine
 62
7
  6
BYLAYER
 10
105.9217960709
 20
579.7096126133
 11
105.9925064547
 21
579.7504370287
  0
LINE
  5
258
100
AcDbEntity
  8
0
100
AcDbLine
 62
7
  6
BYLAYER
 10
108.322609397
 20
581.0053160333
 11
108.2518990133
 21
580.9644916179
  0
LINE
  5
259
100
AcDbEntity
  8
0
100
AcDbLine
 62
7
  6
BYLAYER
 10
105.8237094432
 20
579.4030198536
 11
105.8944198269
 21
579.443844269
  0
LINE
  5
25A
100
AcDbEntity
  8
0
100
AcDbLine
 62
7
  6
BYLAYER
 10
108.5229102435
 20
580.9387104696
 11
108.5936206272
 21
580.979534885
  0
LINE
  5
25B
100
AcDbEntity
  8
0
100
AcDbLine
 62
7
  6
BYLAYER
 10
105.4461542942
 20
579.0513005079
 11
105.5168646779
 21
579.0921249233
  0
LINE
  5
25C
100
AcDbEntity
  8
0
100
AcDbLine
 62
7
  6
BYLAYER
 10
105.6143690686
 20
579.0115941859
 11
105.6850794524
 21
579.0524186013
  0
LINE
  5
25D
100
AcDbEntity
  8
0
100
AcDbLine
 62
7
  6
BYLAYER
 10
105.8770492829
 20
578.5709738158
 11
105.9477596667
 21
578.6117982312
  0
LINE
  5
25E
100
AcDbEntity
  8
0
100
AcDbLine
 62
7
  6
BYLAYER
 10
108.8899996267
 20
580.3000260177
 11
108.9607100104
 21
580.3408504331
  0
LINE
  5
25F
100
AcDbEntity
  8
0
100
AcDbLine
 62
7
  6
BYLAYER
 10
108.7918975197
 20
580.0524567467
 11
108.8626079034
 21
580.0932811621
  0
LINE
  5
260
100
AcDbEntity
  8
0
100
AcDbLine
 62
7
  6
BYLAYER
 10
105.6580565095
 20
578.2107918569
 11
105.7287668932
 21
578.2516162723
  0
LINE
  5
261
100
AcDbEntity
  8
0
100
AcDbLine
 62
7
  6
BYLAYER
 10
108.3357411022
 20
579.7304730482
 11
108.2650307185
 21
579.6896486328
  0
LINE
  5
262
100
AcDbEntity
  8
0
100
AcDbLine
 62
7
  6
BYLAYER
 10
108.5146238007
 20
579.6575032344
 11
108.5853341844
 21
579.6983276498
  0
LINE
  5
263
100
AcDbEntity
  8
0
100
AcDbLine
 62
7
  6
BYLAYER
 10
113.4331772563
 20
582.227159464
 11
113.2210461052
 21
582.1046862178
  0
LINE
  5
264
100
AcDbEntity
  8
0
100
AcDbLine
 62
7
  6
BYLAYER
 10
108.8899996282
 20
578.9451423185
 11
108.9607100119
 21
578.9859667339
  0
LINE
  5
265
100
AcDbEntity
  8
0
100
AcDbLine
 62
7
  6
BYLAYER
 10
107.422746359
 20
577.3545338938
 11
107.3520359752
 21
577.3137094784
  0
LINE
  5
266
100
AcDbEntity
  8
0
100
AcDbLine
 62
7
  6
BYLAYER
 10
109.8287225157
 20
578.6046869837
 11
109.758012132
 21
578.5638625683
  0
LINE
  5
267
100
AcDbEntity
  8
0
100
AcDbLine
 62
7
  6
BYLAYER
 10
107.2313646056
 20
576.9615754425
 11
107.3020749893
 21
577.0023998579
  0
LINE
  5
268
100
AcDbEntity
  8
0
100
AcDbLine
 62
7
  6
BYLAYER
 10
110.718817397
 20
578.3849402574
 11
110.7895277808
 21
578.4257646728
  0
LINE
  5
269
100
AcDbEntity
  8
0
100
AcDbLine
 62
7
  6
BYLAYER
 10
110.2688635915
 20
577.7472005642
 11
110.3395739752
 21
577.7880249795
  0
LINE
  5
26A
100
AcDbEntity
  8
0
100
AcDbLine
 62
7
  6
BYLAYER
 10
108.9607100118
 20
576.4608692189
 11
108.8899996281
 21
576.4200448035
  0
LINE
  5
26B
100
AcDbEntity
  8
0
100
AcDbLine
 62
7
  6
BYLAYER
 10
109.6538497498
 20
576.7400937412
 11
109.5831393661
 21
576.6992693258
  0
LINE
  5
26C
100
AcDbEntity
  8
0
100
AcDbLine
 62
7
  6
BYLAYER
 10
108.7693852812
 20
576.0748785139
 11
108.840095665
 21
576.1157029293
  0
LINE
  5
26D
100
AcDbEntity
  8
0
100
AcDbLine
 62
7
  6
BYLAYER
 10
109.8247102954
 20
576.6697935418
 11
109.8954206791
 21
576.7106179572
  0
LINE
  5
26E
100
AcDbEntity
  8
0
100
AcDbLine
 62
7
  6
BYLAYER
 10
110.1478815376
 20
576.2315661642
 11
110.2185919214
 21
576.2723905795
  0
LINE
  5
26F
100
AcDbEntity
  8
0
100
AcDbLine
 62
7
  6
BYLAYER
 10
111.0941932238
 20
576.7674098654
 11
111.1649036075
 21
576.8082342808
  0
LINE
  5
270
100
AcDbEntity
  8
0
100
AcDbLine
 62
7
  6
BYLAYER
 10
111.9766993065
 20
576.8559304988
 11
112.0474096903
 21
576.8967549142
  0
LINE
  5
271
100
AcDbEntity
  8
0
100
AcDbLine
 62
7
  6
BYLAYER
 10
111.8938352145
 20
576.6627724903
 11
111.9645455982
 21
576.7035969057
  0
LINE
  5
272
100
AcDbEntity
  8
0
100
AcDbLine
 62
7
  6
BYLAYER
 10
115.3423752806
 20
578.4304567029
 11
115.5545064318
 21
578.5529299491
  0
LINE
  5
273
100
AcDbEntity
  8
0
100
AcDbLine
 62
7
  6
BYLAYER
 10
110.8663160663
 20
575.3603750842
 11
110.93702645
 21
575.4011994996
  0
LINE
  5
274
100
AcDbEntity
  8
0
100
AcDbLine
 62
7
  6
BYLAYER
 10
112.12502662
 20
575.2001232001
 11
112.1957370037
 21
575.2409476155
  0
LINE
  5
275
100
AcDbEntity
  8
0
100
AcDbLine
 62
7
  6
BYLAYER
 10
111.8590645123
 20
574.560446299
 11
111.929774896
 21
574.6012707143
  0
LINE
  5
276
100
AcDbEntity
  8
0
100
AcDbLine
 62
7
  6
BYLAYER
 10
115.5545064318
 20
571.2044081949
 11
115.3423752806
 21
571.0819349487
  0
LINE
  5
277
100
AcDbEntity
  8
0
100
AcDbLine
 62
7
  6
BYLAYER
 10
93.9636314847
 20
585.2978526437
 11
94.6240609225
 21
587.9219927486
  0
LINE
  5
278
100
AcDbEntity
  8
0
100
AcDbLine
 62
7
  6
BYLAYER
 10
94.6947713063
 20
587.9628171648
 11
94.0343418723
 21
585.3386770735
  0
LINE
  5
279
100
AcDbEntity
  8
0
100
AcDbLine
 62
7
  6
BYLAYER
 10
93.9951199687
 20
588.6400909537
 11
93.4042966467
 21
586.4216515262
  0
LINE
  5
27A
100
AcDbEntity
  8
0
100
AcDbLine
 62
7
  6
BYLAYER
 10
105.8199429789
 20
579.4096019466
 11
105.9217960709
 21
579.7096126133
  0
LINE
  5
27B
100
AcDbEntity
  8
0
100
AcDbLine
 62
7
  6
BYLAYER
 10
103.4720628557
 20
582.1290052624
 11
103.056344395
 21
581.0357487857
  0
LINE
  5
27C
100
AcDbEntity
  8
0
100
AcDbLine
 62
7
  6
BYLAYER
 10
111.8567821895
 20
574.5643611089
 11
112.12502662
 21
575.2001232001
  0
LINE
  5
27D
100
AcDbEntity
  8
0
100
AcDbLine
 62
7
  6
BYLAYER
 10
114.7209697065
 20
569.7086978168
 11
115.3423752806
 21
571.0819349487
  0
LINE
  5
27E
100
AcDbEntity
  8
0
100
AcDbLine
 62
7
  6
BYLAYER
 10
115.5545064318
 20
571.2044081949
 11
114.9330946363
 21
569.8311818387
  0
LINE
  5
27F
100
AcDbEntity
  8
0
100
AcDbLine
 62
7
  6
BYLAYER
 10
110.2688635915
 20
577.7472005642
 11
110.3386117422
 21
577.8968388575
  0
LINE
  5
280
100
AcDbEntity
  8
0
100
AcDbLine
 62
7
  6
BYLAYER
 10
109.7609447339
 20
578.5588054256
 11
109.5263983808
 21
578.080169479
  0
LINE
  5
281
100
AcDbEntity
  8
0
100
AcDbLine
 62
7
  6
BYLAYER
 10
111.3825614093
 20
575.4402787542
 11
111.3026377098
 21
575.283513109
  0
LINE
  5
282
100
AcDbEntity
  8
0
100
AcDbLine
 62
7
  6
BYLAYER
 10
451.5058138459
 20
117.0278979835
 11
452.5533278343
 21
116.9241798777
  0
LINE
  5
283
100
AcDbEntity
  8
0
100
AcDbLine
 62
7
  6
BYLAYER
 10
453.5407984322
 20
113.8666237272
 11
454.6524020167
 21
113.7322112894
  0
LINE
  5
284
100
AcDbEntity
  8
0
100
AcDbLine
 62
7
  6
BYLAYER
 10
60.7656558198
 20
342.5082835247
 11
60.7656558198
 21
623.8469459519
  0
LINE
  5
285
100
AcDbEntity
  8
0
100
AcDbLine
 62
7
  6
BYLAYER
 10
62.5212770457
 20
620.6003665895
 11
62.5212770457
 21
343.1992546904
  0
LINE
  5
286
100
AcDbEntity
  8
0
100
AcDbLine
 62
7
  6
BYLAYER
 10
88.472205725
 20
593.9436053747
 11
88.472205725
 21
586.5950836205
  0
LINE
  5
287
100
AcDbEntity
  8
0
100
AcDbLine
 62
7
  6
BYLAYER
 10
88.6843368762
 20
356.7088259613
 11
88.6843368762
 21
576.9195278611
  0
LINE
  5
288
100
AcDbEntity
  8
0
100
AcDbLine
 62
7
  6
BYLAYER
 10
88.7550472599
 20
576.9603522767
 11
88.7550472599
 21
356.7496503768
  0
LINE
  5
289
100
AcDbEntity
  8
0
100
AcDbLine
 62
7
  6
BYLAYER
 10
91.4420671594
 20
586.5000832939
 11
91.4420671594
 21
590.2164450768
  0
LINE
  5
28A
100
AcDbEntity
  8
0
100
AcDbLine
 62
7
  6
BYLAYER
 10
92.1845323706
 20
586.0743010218
 11
92.184532371
 21
589.3304233515
  0
LINE
  5
28B
100
AcDbEntity
  8
0
100
AcDbLine
 62
7
  6
BYLAYER
 10
92.2552427546
 20
589.3712477679
 11
92.2552427538
 21
586.1151254337
  0
LINE
  5
28C
100
AcDbEntity
  8
0
100
AcDbLine
 62
7
  6
BYLAYER
 10
94.6240609226
 20
584.6658704148
 11
94.6240609224
 21
587.9219927495
  0
LINE
  5
28D
100
AcDbEntity
  8
0
100
AcDbLine
 62
7
  6
BYLAYER
 10
95.366526134
 20
584.2343471144
 11
95.3665261339
 21
587.9507088823
  0
LINE
  5
28E
100
AcDbEntity
  8
0
100
AcDbLine
 62
7
  6
BYLAYER
 10
95.437236517
 20
587.9915333042
 11
95.437236517
 21
584.2751715221
  0
LINE
  5
28F
100
AcDbEntity
  8
0
100
AcDbLine
 62
7
  6
BYLAYER
 10
98.0712208327
 20
583.8497379066
 11
98.0712208327
 21
583.7339604162
  0
LINE
  5
290
100
AcDbEntity
  8
0
100
AcDbLine
 62
7
  6
BYLAYER
 10
101.6526211054
 20
583.1292912613
 11
101.6526211054
 21
583.0058590607
  0
LINE
  5
291
100
AcDbEntity
  8
0
100
AcDbLine
 62
7
  6
BYLAYER
 10
102.366912413
 20
579.9908706569
 11
102.366912413
 21
582.5465870109
  0
LINE
  5
292
100
AcDbEntity
  8
0
100
AcDbLine
 62
7
  6
BYLAYER
 10
102.4376227967
 20
582.5874114263
 11
102.4376227967
 21
580.0316950722
  0
LINE
  5
293
100
AcDbEntity
  8
0
100
AcDbLine
 62
7
  6
BYLAYER
 10
106.6095707638
 20
577.7423622706
 11
106.6095707639
 21
581.5678036734
  0
LINE
  5
294
100
AcDbEntity
  8
0
100
AcDbLine
 62
7
  6
BYLAYER
 10
107.3520359752
 20
577.3137094784
 11
107.3520359752
 21
581.1391508811
  0
LINE
  5
295
100
AcDbEntity
  8
0
100
AcDbLine
 62
7
  6
BYLAYER
 10
107.422746359
 20
581.1799752965
 11
107.422746359
 21
577.3545338938
  0
LINE
  5
296
100
AcDbEntity
  8
0
100
AcDbLine
 62
7
  6
BYLAYER
 10
108.147534416
 20
579.3479604651
 11
108.147534416
 21
576.8486975961
  0
LINE
  5
297
100
AcDbEntity
  8
0
100
AcDbLine
 62
7
  6
BYLAYER
 10
108.8899996274
 20
576.4200447988
 11
108.8899996275
 21
578.9451423227
  0
LINE
  5
298
100
AcDbEntity
  8
0
100
AcDbLine
 62
7
  6
BYLAYER
 10
108.9607100119
 20
578.9859667339
 11
108.9607100119
 21
576.4608692188
  0
LINE
  5
299
100
AcDbEntity
  8
0
100
AcDbLine
 62
7
  6
BYLAYER
 10
115.3423752806
 20
571.0819349487
 11
115.3423752806
 21
578.4304567029
  0
LINE
  5
29A
100
AcDbEntity
  8
0
100
AcDbLine
 62
7
  6
BYLAYER
 10
115.5545064318
 20
578.5529299491
 11
115.5545064318
 21
571.2044081949
  0
LINE
  5
29B
100
AcDbEntity
  8
0
100
AcDbLine
 62
7
  6
BYLAYER
 10
263.8660344679
 20
234.8054962407
 11
264.1427748795
 21
234.7516676579
  0
LINE
  5
29C
100
AcDbEntity
  8
0
100
AcDbLine
 62
7
  6
BYLAYER
 10
453.540798432
 20
113.8666237276
 11
62.3920081877
 21
339.6913742299
  0
LINE
  5
29D
100
AcDbEntity
  8
0
100
AcDbLine
 62
7
  6
BYLAYER
 10
92.184532371
 20
589.3304233515
 11
92.8449618029
 21
585.9437023056
  0
LINE
  5
29E
100
AcDbEntity
  8
0
100
AcDbLine
 62
7
  6
BYLAYER
 10
263.7908604775
 20
234.8393239567
 11
263.8660344679
 21
234.8054962407
  0
LINE
  5
29F
100
AcDbEntity
  8
0
100
AcDbLine
 62
7
  6
BYLAYER
 10
279.4625424872
 20
216.1099354854
 11
235.6217395281
 21
241.4208622656
  0
LINE
  5
2A0
100
AcDbEntity
  8
0
100
AcDbLine
 62
7
  6
BYLAYER
 10
451.5058138462
 20
117.0278979833
 11
279.6746736384
 21
216.2324087315
  0
LINE
  5
2A1
100
AcDbEntity
  8
0
100
AcDbLine
 62
7
  6
BYLAYER
 10
235.6217395281
 20
241.6658067183
 11
63.9035449391
 21
340.8051097583
  0
LINE
  5
2A2
100
AcDbEntity
  8
0
100
AcDbLine
 62
7
  6
BYLAYER
 10
257.9342005828
 20
238.2537599199
 11
258.2287398389
 21
238.0837114481
  0
LINE
  5
2A3
100
AcDbEntity
  8
0
100
AcDbLine
 62
7
  6
BYLAYER
 10
264.8989396676
 20
234.2327569016
 11
265.1932379908
 21
234.0628475294
  0
LINE
  5
2A4
100
AcDbEntity
  8
0
100
AcDbLine
 62
7
  6
BYLAYER
 10
266.767487068
 20
233.1539749615
 11
267.0620263235
 21
232.9839264901
  0
LINE
  5
2A5
100
AcDbEntity
  8
0
100
AcDbLine
 62
7
  6
BYLAYER
 10
255.8649569053
 20
239.450080517
 11
257.1776743971
 21
238.6921998658
  0
LINE
  5
2A6
100
AcDbEntity
  8
0
100
AcDbLine
 62
7
  6
BYLAYER
 10
252.4586616124
 20
241.5750992981
 11
251.6765966439
 21
242.0266145035
  0
LINE
  5
2A7
100
AcDbEntity
  8
0
100
AcDbLine
 62
7
  6
BYLAYER
 10
252.5293719961
 20
241.6159237135
 11
251.7473070275
 21
242.067438919
  0
LINE
  5
2A8
100
AcDbEntity
  8
0
100
AcDbLine
 62
7
  6
BYLAYER
 10
257.1776743971
 20
239.03021898
 11
256.1873237958
 21
239.6019852315
  0
LINE
  5
2A9
100
AcDbEntity
  8
0
100
AcDbLine
 62
7
  6
BYLAYER
 10
256.2580341795
 20
239.6428096467
 11
257.2483847808
 21
239.0710433948
  0
LINE
  5
2AA
100
AcDbEntity
  8
0
100
AcDbLine
 62
7
  6
BYLAYER
 10
251.8122413075
 20
242.5426868428
 11
252.3147047983
 21
242.2525959738
  0
LINE
  5
2AB
100
AcDbEntity
  8
0
100
AcDbLine
 62
7
  6
BYLAYER
 10
254.5283871544
 20
240.9930554179
 11
253.89919348
 21
241.3563123372
  0
LINE
  5
2AC
100
AcDbEntity
  8
0
100
AcDbLine
 62
7
  6
BYLAYER
 10
259.2794438827
 20
238.2901551155
 11
260.3288228014
 21
237.6843096204
  0
LINE
  5
2AD
100
AcDbEntity
  8
0
100
AcDbLine
 62
7
  6
BYLAYER
 10
253.9699038637
 20
241.3971367526
 11
254.5990975381
 21
241.0338798333
  0
LINE
  5
2AE
100
AcDbEntity
  8
0
100
AcDbLine
 62
7
  6
BYLAYER
 10
260.0350063416
 20
238.081095204
 11
259.2848648501
 21
238.5141797984
  0
LINE
  5
2AF
100
AcDbEntity
  8
0
100
AcDbLine
 62
7
  6
BYLAYER
 10
251.8816296968
 20
242.8498262247
 11
251.1995514698
 21
243.243615364
  0
LINE
  5
2B0
100
AcDbEntity
  8
0
100
AcDbLine
 62
7
  6
BYLAYER
 10
260.1057167254
 20
238.1219196194
 11
259.3555752338
 21
238.5550042138
  0
LINE
  5
2B1
100
AcDbEntity
  8
0
100
AcDbLine
 62
7
  6
BYLAYER
 10
253.9950843792
 20
241.6751367224
 11
254.7306494899
 21
241.2504676149
  0
LINE
  5
2B2
100
AcDbEntity
  8
0
100
AcDbLine
 62
7
  6
BYLAYER
 10
256.1873237961
 20
240.4158740526
 11
257.1150321014
 21
239.8802735298
  0
LINE
  5
2B3
100
AcDbEntity
  8
0
100
AcDbLine
 62
7
  6
BYLAYER
 10
251.2702618536
 20
243.2844397793
 11
251.9523400805
 21
242.8906506401
  0
LINE
  5
2B4
100
AcDbEntity
  8
0
100
AcDbLine
 62
7
  6
BYLAYER
 10
263.0070128651
 20
236.7456906365
 11
263.3005974007
 21
236.5761933605
  0
LINE
  5
2B5
100
AcDbEntity
  8
0
100
AcDbLine
 62
7
  6
BYLAYER
 10
263.5940524625
 20
236.4067708351
 11
264.066760863
 21
236.1338586872
  0
LINE
  5
2B6
100
AcDbEntity
  8
0
100
AcDbLine
 62
7
  6
BYLAYER
 10
251.2986949482
 20
243.5613965282
 11
251.9926993052
 21
243.1607219903
  0
LINE
  5
2B7
100
AcDbEntity
  8
0
100
AcDbLine
 62
7
  6
BYLAYER
 10
257.1150321013
 20
240.2188490541
 11
256.1873237962
 21
240.754449577
  0
LINE
  5
2B8
100
AcDbEntity
  8
0
100
AcDbLine
 62
7
  6
BYLAYER
 10
254.8728154965
 20
241.5240750229
 11
254.0689300087
 21
241.988188026
  0
LINE
  5
2B9
100
AcDbEntity
  8
0
100
AcDbLine
 62
7
  6
BYLAYER
 10
256.2580341795
 20
240.7952739925
 11
257.185742485
 21
240.2596734695
  0
LINE
  5
2BA
100
AcDbEntity
  8
0
100
AcDbLine
 62
7
  6
BYLAYER
 10
254.1396403925
 20
242.0290124414
 11
254.9435258802
 21
241.5648994382
  0
LINE
  5
2BB
100
AcDbEntity
  8
0
100
AcDbLine
 62
7
  6
BYLAYER
 10
267.062026324
 20
234.7110233308
 11
266.767487068
 21
234.8810718025
  0
LINE
  5
2BC
100
AcDbEntity
  8
0
100
AcDbLine
 62
7
  6
BYLAYER
 10
265.1932379917
 20
235.7899443691
 11
264.8989396679
 21
235.9598537417
  0
LINE
  5
2BD
100
AcDbEntity
  8
0
100
AcDbLine
 62
7
  6
BYLAYER
 10
264.0667608631
 20
236.4403015294
 11
263.5940524624
 21
236.7132136777
  0
LINE
  5
2BE
100
AcDbEntity
  8
0
100
AcDbLine
 62
7
  6
BYLAYER
 10
263.6647628464
 20
236.754038093
 11
264.1374712468
 21
236.4811259448
  0
LINE
  5
2BF
100
AcDbEntity
  8
0
100
AcDbLine
 62
7
  6
BYLAYER
 10
264.9696500515
 20
236.0006781571
 11
265.2639483754
 21
235.8307687845
  0
LINE
  5
2C0
100
AcDbEntity
  8
0
100
AcDbLine
 62
7
  6
BYLAYER
 10
266.8381974518
 20
234.9218962179
 11
267.1327367078
 21
234.7518477462
  0
LINE
  5
2C1
100
AcDbEntity
  8
0
100
AcDbLine
 62
7
  6
BYLAYER
 10
252.0324530697
 20
243.492342976
 11
251.4472294688
 21
243.8302143358
  0
LINE
  5
2C2
100
AcDbEntity
  8
0
100
AcDbLine
 62
7
  6
BYLAYER
 10
254.1583157464
 20
242.3107680821
 11
254.9718223276
 21
241.8411004637
  0
LINE
  5
2C3
100
AcDbEntity
  8
0
100
AcDbLine
 62
7
  6
BYLAYER
 10
251.5179398525
 20
243.8710387512
 11
252.1031634534
 21
243.5331673914
  0
LINE
  5
2C4
100
AcDbEntity
  8
0
100
AcDbLine
 62
7
  6
BYLAYER
 10
251.6564788301
 20
244.0844272771
 11
252.1462933959
 21
243.8016391031
  0
LINE
  5
2C5
100
AcDbEntity
  8
0
100
AcDbLine
 62
7
  6
BYLAYER
 10
254.3721428128
 20
242.518103544
 11
253.8884720107
 21
242.7973446945
  0
LINE
  5
2C6
100
AcDbEntity
  8
0
100
AcDbLine
 62
7
  6
BYLAYER
 10
256.1873237964
 20
241.5434390486
 11
257.1488830343
 21
240.9882951224
  0
LINE
  5
2C7
100
AcDbEntity
  8
0
100
AcDbLine
 62
7
  6
BYLAYER
 10
254.4428531965
 20
242.5589279594
 11
253.9591823945
 21
242.8381691099
  0
LINE
  5
2C8
100
AcDbEntity
  8
0
100
AcDbLine
 62
7
  6
BYLAYER
 10
257.1488830344
 20
241.3260360319
 11
255.864956905
 21
242.067294359
  0
LINE
  5
2C9
100
AcDbEntity
  8
0
100
AcDbLine
 62
7
  6
BYLAYER
 10
258.2287398389
 20
240.7032900324
 11
257.9342005832
 21
240.873338504
  0
LINE
  5
2CA
100
AcDbEntity
  8
0
100
AcDbLine
 62
7
  6
BYLAYER
 10
255.9356672887
 20
242.1081187743
 11
257.2195934181
 21
241.3668604474
  0
LINE
  5
2CB
100
AcDbEntity
  8
0
100
AcDbLine
 62
7
  6
BYLAYER
 10
258.0049109669
 20
240.9141629194
 11
258.2994502226
 21
240.7441144479
  0
LINE
  5
2CC
100
AcDbEntity
  8
0
100
AcDbLine
 62
7
  6
BYLAYER
 10
253.6738016825
 20
243.4679547503
 11
254.4745388732
 21
243.0056593762
  0
LINE
  5
2CD
100
AcDbEntity
  8
0
100
AcDbLine
 62
7
  6
BYLAYER
 10
260.0877704287
 20
240.1576183451
 11
260.9146487315
 21
239.6802307343
  0
LINE
  5
2CE
100
AcDbEntity
  8
0
100
AcDbLine
 62
7
  6
BYLAYER
 10
263.2156689041
 20
238.3527398905
 11
264.0426676724
 21
237.8752827305
  0
LINE
  5
2CF
100
AcDbEntity
  8
0
100
AcDbLine
 62
7
  6
BYLAYER
 10
268.3776349986
 20
235.3757441551
 11
267.5496725018
 21
235.8537577115
  0
LINE
  5
2D0
100
AcDbEntity
  8
0
100
AcDbLine
 62
7
  6
BYLAYER
 10
256.6918352076
 20
242.1261469479
 11
255.8642341092
 21
242.6039518553
  0
LINE
  5
2D1
100
AcDbEntity
  8
0
100
AcDbLine
 62
7
  6
BYLAYER
 10
251.0192139373
 20
245.4021359929
 11
251.8468150356
 21
244.9243310854
  0
LINE
  5
2D2
100
AcDbEntity
  8
0
100
AcDbLine
 62
7
  6
BYLAYER
 10
257.8766178571
 20
242.7930914777
 11
259.7676923904
 21
241.7013037864
  0
LINE
  5
2D3
100
AcDbEntity
  8
0
100
AcDbLine
 62
7
  6
BYLAYER
 10
265.2493751252
 20
238.5365243807
 11
267.1397268633
 21
237.445153986
  0
LINE
  5
2D4
100
AcDbEntity
  8
0
100
AcDbLine
 62
7
  6
BYLAYER
 10
266.4109078463
 20
238.3700358411
 11
265.2666017568
 21
239.030686324
  0
LINE
  5
2D5
100
AcDbEntity
  8
0
100
AcDbLine
 62
7
  6
BYLAYER
 10
259.0371868509
 20
242.6271593337
 11
257.8943263534
 21
243.2869752226
  0
LINE
  5
2D6
100
AcDbEntity
  8
0
100
AcDbLine
 62
7
  6
BYLAYER
 10
266.4816182298
 20
238.4108602566
 11
265.3373121407
 21
239.0715107393
  0
LINE
  5
2D7
100
AcDbEntity
  8
0
100
AcDbLine
 62
7
  6
BYLAYER
 10
259.1078972346
 20
242.6679837491
 11
257.9650367371
 21
243.327799638
  0
LINE
  5
2D8
100
AcDbEntity
  8
0
100
AcDbLine
 62
7
  6
BYLAYER
 10
260.9146487315
 20
242.7240719918
 11
260.0877704287
 21
243.2014596028
  0
LINE
  5
2D9
100
AcDbEntity
  8
0
100
AcDbLine
 62
7
  6
BYLAYER
 10
254.8741244406
 20
246.2114914229
 11
254.0466438073
 21
246.6892267816
  0
LINE
  5
2DA
100
AcDbEntity
  8
0
100
AcDbLine
 62
7
  6
BYLAYER
 10
268.3776349988
 20
238.4186116958
 11
267.5496725023
 21
238.8966252519
  0
LINE
  5
2DB
100
AcDbEntity
  8
0
100
AcDbLine
 62
7
  6
BYLAYER
 10
254.117354191
 20
246.7300511969
 11
254.9448348236
 21
246.2523158387
  0
LINE
  5
2DC
100
AcDbEntity
  8
0
100
AcDbLine
 62
7
  6
BYLAYER
 10
260.1584808124
 20
243.2422840197
 11
260.9853591152
 21
242.7648964089
  0
LINE
  5
2DD
100
AcDbEntity
  8
0
100
AcDbLine
 62
7
  6
BYLAYER
 10
267.6203828859
 20
238.9374496674
 11
268.4483453825
 21
238.4594361112
  0
LINE
  5
2DE
100
AcDbEntity
  8
0
100
AcDbLine
 62
7
  6
BYLAYER
 10
264.0426676724
 20
242.3705196414
 11
263.2156689041
 21
242.8479768015
  0
LINE
  5
2DF
100
AcDbEntity
  8
0
100
AcDbLine
 62
7
  6
BYLAYER
 10
251.8468150357
 20
249.4116391536
 11
251.0192139376
 21
249.8894440611
  0
LINE
  5
2E0
100
AcDbEntity
  8
0
100
AcDbLine
 62
7
  6
BYLAYER
 10
251.0899243215
 20
249.9302684763
 11
251.9175254195
 21
249.452463569
  0
LINE
  5
2E1
100
AcDbEntity
  8
0
100
AcDbLine
 62
7
  6
BYLAYER
 10
263.2863792878
 20
242.8888012176
 11
264.1133780561
 21
242.4113440577
  0
LINE
  5
2E2
100
AcDbEntity
  8
0
100
AcDbLine
 62
7
  6
BYLAYER
 10
276.6342564673
 20
238.155370668
 11
238.4500192297
 21
260.2005515873
  0
LINE
  5
2E3
100
AcDbEntity
  8
0
100
AcDbLine
 62
7
  6
BYLAYER
 10
238.6623095799
 20
260.3229329219
 11
276.8462347378
 21
238.2779321778
  0
LINE
  5
2E4
100
AcDbEntity
  8
0
100
AcDbLine
 62
7
  6
BYLAYER
 10
263.6362707604
 20
234.9479547498
 11
263.7908604775
 21
234.8393239567
  0
LINE
  5
2E5
100
AcDbEntity
  8
0
100
AcDbLine
 62
7
  6
BYLAYER
 10
93.4042966467
 20
586.4216515262
 11
92.8060155391
 21
589.3266051294
  0
LINE
  5
2E6
100
AcDbEntity
  8
0
100
AcDbLine
 62
7
  6
BYLAYER
 10
92.8767259107
 20
589.3674296013
 11
93.4750070304
 21
586.4624759401
  0
LINE
  5
2E7
100
AcDbEntity
  8
0
100
AcDbLine
 62
7
  6
BYLAYER
 10
426.8242074415
 20
161.4880971496
 11
88.6843368762
 21
356.7088259613
  0
LINE
  5
2E8
100
AcDbEntity
  8
0
100
AcDbLine
 62
7
  6
BYLAYER
 10
88.7550472599
 20
356.7496503768
 11
426.8949178251
 21
161.5289215649
  0
LINE
  5
2E9
100
AcDbEntity
  8
0
100
AcDbLine
 62
7
  6
BYLAYER
 10
263.5156692823
 20
235.0702778528
 11
263.6362707604
 21
234.9479547498
  0
LINE
  5
2EA
100
AcDbEntity
  8
0
100
AcDbLine
 62
7
  6
BYLAYER
 10
88.7550472599
 20
356.7496503771
 11
88.6843368762
 21
356.7088259616
  0
LINE
  5
2EB
100
AcDbEntity
  8
0
100
AcDbLine
 62
7
  6
BYLAYER
 10
263.4217108586
 20
235.2072959833
 11
263.5156692823
 21
235.0702778528
  0
LINE
  5
2EC
100
AcDbEntity
  8
0
100
AcDbLine
 62
7
  6
BYLAYER
 10
263.3309265866
 20
235.4312181773
 11
263.4217108586
 21
235.2072959833
  0
LINE
  5
2ED
100
AcDbEntity
  8
0
100
AcDbLine
 62
7
  6
BYLAYER
 10
235.6217395281
 20
258.5675895571
 11
235.6217395281
 21
241.4208622656
  0
LINE
  5
2EE
100
AcDbEntity
  8
0
100
AcDbLine
 62
7
  6
BYLAYER
 10
245.1661346691
 20
249.1514882312
 11
245.166134669
 21
250.1193635387
  0
LINE
  5
2EF
100
AcDbEntity
  8
0
100
AcDbLine
 62
7
  6
BYLAYER
 10
263.3005974007
 20
235.6646545722
 11
263.3309265866
 21
235.4312181773
  0
LINE
  5
2F0
100
AcDbEntity
  8
0
100
AcDbLine
 62
7
  6
BYLAYER
 10
247.894688509
 20
250.5236357913
 11
247.894688509
 21
251.3999816424
  0
LINE
  5
2F1
100
AcDbEntity
  8
0
100
AcDbLine
 62
7
  6
BYLAYER
 10
247.9653988928
 20
251.4408060577
 11
247.9653988927
 21
250.5644602067
  0
LINE
  5
2F2
100
AcDbEntity
  8
0
100
AcDbLine
 62
7
  6
BYLAYER
 10
250.6372163997
 20
247.805752273
 11
250.6372163997
 21
248.5175398481
  0
LINE
  5
2F3
100
AcDbEntity
  8
0
100
AcDbLine
 62
7
  6
BYLAYER
 10
250.6774520281
 20
245.7400805024
 11
250.6774520279
 21
246.4280815487
  0
LINE
  5
2F4
100
AcDbEntity
  8
0
100
AcDbLine
 62
7
  6
BYLAYER
 10
250.7079267834
 20
248.5583642635
 11
250.7079267834
 21
247.8465766883
  0
LINE
  5
2F5
100
AcDbEntity
  8
0
100
AcDbLine
 62
7
  6
BYLAYER
 10
250.7481624116
 20
246.4689059641
 11
250.7481624118
 21
245.7809049178
  0
LINE
  5
2F6
100
AcDbEntity
  8
0
100
AcDbLine
 62
7
  6
BYLAYER
 10
251.0192139373
 20
245.4021359929
 11
251.0192139376
 21
249.889444061
  0
LINE
  5
2F7
100
AcDbEntity
  8
0
100
AcDbLine
 62
7
  6
BYLAYER
 10
251.8468150356
 20
244.9243310854
 11
251.8468150357
 21
246.8527092667
  0
LINE
  5
2F8
100
AcDbEntity
  8
0
100
AcDbLine
 62
7
  6
BYLAYER
 10
251.8468150357
 20
247.4947786467
 11
251.8468150357
 21
249.4116391536
  0
LINE
  5
2F9
100
AcDbEntity
  8
0
100
AcDbLine
 62
7
  6
BYLAYER
 10
251.9175254195
 20
249.452463569
 11
251.9175254201
 21
247.5353112978
  0
LINE
  5
2FA
100
AcDbEntity
  8
0
100
AcDbLine
 62
7
  6
BYLAYER
 10
251.9175254193
 20
246.893533682
 11
251.9175254192
 21
244.9651555009
  0
LINE
  5
2FB
100
AcDbEntity
  8
0
100
AcDbLine
 62
7
  6
BYLAYER
 10
252.8282511566
 20
245.0124670389
 11
252.8282511564
 21
246.0818871832
  0
LINE
  5
2FC
100
AcDbEntity
  8
0
100
AcDbLine
 62
7
  6
BYLAYER
 10
253.6558522551
 20
244.838322923
 11
253.6558522554
 21
245.8082847692
  0
LINE
  5
2FD
100
AcDbEntity
  8
0
100
AcDbLine
 62
7
  6
BYLAYER
 10
253.7265626392
 20
245.8491091842
 11
253.7265626389
 21
244.8791473384
  0
LINE
  5
2FE
100
AcDbEntity
  8
0
100
AcDbLine
 62
7
  6
BYLAYER
 10
254.0466438073
 20
246.6892267816
 11
254.0466438072
 21
244.6206332629
  0
LINE
  5
2FF
100
AcDbEntity
  8
0
100
AcDbLine
 62
7
  6
BYLAYER
 10
254.8741244399
 20
243.7073679278
 11
254.8741244403
 21
245.1288565398
  0
LINE
  5
300
100
AcDbEntity
  8
0
100
AcDbLine
 62
7
  6
BYLAYER
 10
254.8741244405
 20
245.7759614454
 11
254.8741244406
 21
246.2114914229
  0
LINE
  5
301
100
AcDbEntity
  8
0
100
AcDbLine
 62
7
  6
BYLAYER
 10
254.9448348236
 20
246.2523158387
 11
254.9448348239
 21
245.8167858607
  0
LINE
  5
302
100
AcDbEntity
  8
0
100
AcDbLine
 62
7
  6
BYLAYER
 10
254.9448348241
 20
245.1696809554
 11
254.9448348238
 21
243.7481923429
  0
LINE
  5
303
100
AcDbEntity
  8
0
100
AcDbLine
 62
7
  6
BYLAYER
 10
255.8642341093
 20
244.4519287834
 11
255.8642341092
 21
242.6039518554
  0
LINE
  5
304
100
AcDbEntity
  8
0
100
AcDbLine
 62
7
  6
BYLAYER
 10
255.864956905
 20
242.067294359
 11
255.8649569053
 21
239.450080517
  0
LINE
  5
305
100
AcDbEntity
  8
0
100
AcDbLine
 62
7
  6
BYLAYER
 10
256.1873237958
 20
239.6019852315
 11
256.1873237961
 21
240.4158740526
  0
LINE
  5
306
100
AcDbEntity
  8
0
100
AcDbLine
 62
7
  6
BYLAYER
 10
256.1873237962
 20
240.754449577
 11
256.1873237964
 21
241.5434390486
  0
LINE
  5
307
100
AcDbEntity
  8
0
100
AcDbLine
 62
7
  6
BYLAYER
 10
256.2580341798
 20
241.584263464
 11
256.2580341795
 21
240.7952739925
  0
LINE
  5
308
100
AcDbEntity
  8
0
100
AcDbLine
 62
7
  6
BYLAYER
 10
256.2580341798
 20
240.456698468
 11
256.2580341795
 21
239.6428096467
  0
LINE
  5
309
100
AcDbEntity
  8
0
100
AcDbLine
 62
7
  6
BYLAYER
 10
256.6918352076
 20
242.126146948
 11
256.6918352075
 21
244.0531341044
  0
LINE
  5
30A
100
AcDbEntity
  8
0
100
AcDbLine
 62
7
  6
BYLAYER
 10
256.7625455911
 20
244.0939585209
 11
256.7625455911
 21
242.1669713634
  0
LINE
  5
30B
100
AcDbEntity
  8
0
100
AcDbLine
 62
7
  6
BYLAYER
 10
257.1150321014
 20
239.8802735298
 11
257.1150321013
 21
240.2188490541
  0
LINE
  5
30C
100
AcDbEntity
  8
0
100
AcDbLine
 62
7
  6
BYLAYER
 10
257.1488830343
 20
240.9882951224
 11
257.1488830344
 21
241.3260360319
  0
LINE
  5
30D
100
AcDbEntity
  8
0
100
AcDbLine
 62
7
  6
BYLAYER
 10
257.1776743971
 20
238.6921998658
 11
257.1776743971
 21
239.03021898
  0
LINE
  5
30E
100
AcDbEntity
  8
0
100
AcDbLine
 62
7
  6
BYLAYER
 10
257.185742485
 20
240.2596734695
 11
257.1857424851
 21
239.9210979451
  0
LINE
  5
30F
100
AcDbEntity
  8
0
100
AcDbLine
 62
7
  6
BYLAYER
 10
257.2195934181
 20
241.3668604474
 11
257.219593418
 21
241.029119538
  0
LINE
  5
310
100
AcDbEntity
  8
0
100
AcDbLine
 62
7
  6
BYLAYER
 10
257.2483847808
 20
239.0710433948
 11
257.2483847808
 21
238.7330242818
  0
LINE
  5
311
100
AcDbEntity
  8
0
100
AcDbLine
 62
7
  6
BYLAYER
 10
257.9342005832
 20
240.873338504
 11
257.9342005828
 21
238.2537599199
  0
LINE
  5
312
100
AcDbEntity
  8
0
100
AcDbLine
 62
7
  6
BYLAYER
 10
258.2287398389
 20
238.0837114481
 11
258.2287398389
 21
240.7032900324
  0
LINE
  5
313
100
AcDbEntity
  8
0
100
AcDbLine
 62
7
  6
BYLAYER
 10
258.2994502226
 20
240.7441144479
 11
258.2994502226
 21
238.1245358627
  0
LINE
  5
314
100
AcDbEntity
  8
0
100
AcDbLine
 62
7
  6
BYLAYER
 10
259.7213129992
 20
240.718056965
 11
259.7213129992
 21
241.3123029138
  0
LINE
  5
315
100
AcDbEntity
  8
0
100
AcDbLine
 62
7
  6
BYLAYER
 10
259.7920233829
 20
241.3531273292
 11
259.7920233829
 21
240.7588813804
  0
LINE
  5
316
100
AcDbEntity
  8
0
100
AcDbLine
 62
7
  6
BYLAYER
 10
260.0877704287
 20
243.2014596028
 11
260.0877704287
 21
240.1576183451
  0
LINE
  5
317
100
AcDbEntity
  8
0
100
AcDbLine
 62
7
  6
BYLAYER
 10
260.3029226214
 20
237.057443749
 11
260.3029226214
 21
237.3886468394
  0
LINE
  5
318
100
AcDbEntity
  8
0
100
AcDbLine
 62
7
  6
BYLAYER
 10
260.3736330051
 20
237.4294712548
 11
260.3736330051
 21
237.0982681643
  0
LINE
  5
319
100
AcDbEntity
  8
0
100
AcDbLine
 62
7
  6
BYLAYER
 10
260.9146487315
 20
239.6802307343
 11
260.9146487315
 21
242.7240719918
  0
LINE
  5
31A
100
AcDbEntity
  8
0
100
AcDbLine
 62
7
  6
BYLAYER
 10
260.9853591152
 20
242.7648964089
 11
260.9853591152
 21
239.7210551497
  0
LINE
  5
31B
100
AcDbEntity
  8
0
100
AcDbLine
 62
7
  6
BYLAYER
 10
262.25218221
 20
237.0347293057
 11
262.25218221
 21
237.4020990506
  0
LINE
  5
31C
100
AcDbEntity
  8
0
100
AcDbLine
 62
7
  6
BYLAYER
 10
262.2850694152
 20
235.8087497647
 11
262.2850694152
 21
236.1441259322
  0
LINE
  5
31D
100
AcDbEntity
  8
0
100
AcDbLine
 62
7
  6
BYLAYER
 10
262.3228925937
 20
237.4429234659
 11
262.3228925937
 21
237.075553721
  0
LINE
  5
31E
100
AcDbEntity
  8
0
100
AcDbLine
 62
7
  6
BYLAYER
 10
262.3557797989
 20
236.1849503476
 11
262.3557797989
 21
235.8495741801
  0
LINE
  5
31F
100
AcDbEntity
  8
0
100
AcDbLine
 62
7
  6
BYLAYER
 10
263.2156689041
 20
242.8479768015
 11
263.2156689041
 21
241.2619299128
  0
LINE
  5
320
100
AcDbEntity
  8
0
100
AcDbLine
 62
7
  6
BYLAYER
 10
263.2156689041
 20
240.6368032048
 11
263.2156689041
 21
239.1837383208
  0
LINE
  5
321
100
AcDbEntity
  8
0
100
AcDbLine
 62
7
  6
BYLAYER
 10
263.2156689041
 20
238.5976994208
 11
263.2156689041
 21
238.3527398905
  0
LINE
  5
322
100
AcDbEntity
  8
0
100
AcDbLine
 62
7
  6
BYLAYER
 10
263.3005974007
 20
236.5761933605
 11
263.3005974007
 21
235.6646545722
  0
LINE
  5
323
100
AcDbEntity
  8
0
100
AcDbLine
 62
7
  6
BYLAYER
 10
263.5940524629
 20
235.5208269102
 11
263.5940524625
 21
236.4067708351
  0
LINE
  5
324
100
AcDbEntity
  8
0
100
AcDbLine
 62
7
  6
BYLAYER
 10
263.5940524624
 20
236.7132136777
 11
263.5940524623
 21
237.0698725289
  0
LINE
  5
325
100
AcDbEntity
  8
0
100
AcDbLine
 62
7
  6
BYLAYER
 10
263.6647628463
 20
237.1106969446
 11
263.6647628464
 21
236.754038093
  0
LINE
  5
326
100
AcDbEntity
  8
0
100
AcDbLine
 62
7
  6
BYLAYER
 10
263.6647628462
 20
236.4475952498
 11
263.6647628466
 21
235.5616513252
  0
LINE
  5
327
100
AcDbEntity
  8
0
100
AcDbLine
 62
7
  6
BYLAYER
 10
264.0426676724
 20
237.8752827305
 11
264.0426676724
 21
242.3705196414
  0
LINE
  5
328
100
AcDbEntity
  8
0
100
AcDbLine
 62
7
  6
BYLAYER
 10
264.066760863
 20
236.1338586872
 11
264.0667608631
 21
236.4403015294
  0
LINE
  5
329
100
AcDbEntity
  8
0
100
AcDbLine
 62
7
  6
BYLAYER
 10
264.1133780561
 20
242.4113440577
 11
264.1133780561
 21
237.9161071459
  0
LINE
  5
32A
100
AcDbEntity
  8
0
100
AcDbLine
 62
7
  6
BYLAYER
 10
264.1374712468
 20
236.4811259448
 11
264.1374712468
 21
236.1746831016
  0
LINE
  5
32B
100
AcDbEntity
  8
0
100
AcDbLine
 62
7
  6
BYLAYER
 10
264.1427748795
 20
234.7516676579
 11
264.1427748796
 21
235.070768831
  0
LINE
  5
32C
100
AcDbEntity
  8
0
100
AcDbLine
 62
7
  6
BYLAYER
 10
264.2134852633
 20
235.1115932464
 11
264.2134852633
 21
234.7924920739
  0
LINE
  5
32D
100
AcDbEntity
  8
0
100
AcDbLine
 62
7
  6
BYLAYER
 10
264.8989396676
 20
234.2327569016
 11
264.8989396679
 21
235.9598537417
  0
LINE
  5
32E
100
AcDbEntity
  8
0
100
AcDbLine
 62
7
  6
BYLAYER
 10
265.1932379908
 20
234.0628475294
 11
265.1932379912
 21
234.9633972179
  0
LINE
  5
32F
100
AcDbEntity
  8
0
100
AcDbLine
 62
7
  6
BYLAYER
 10
265.1932379914
 20
235.3805486721
 11
265.1932379917
 21
235.7899443691
  0
LINE
  5
330
100
AcDbEntity
  8
0
100
AcDbLine
 62
7
  6
BYLAYER
 10
265.2639483751
 20
235.004221634
 11
265.2639483752
 21
234.1036719444
  0
LINE
  5
331
100
AcDbEntity
  8
0
100
AcDbLine
 62
7
  6
BYLAYER
 10
265.2639483754
 20
235.8307687845
 11
265.2639483752
 21
235.4216897073
  0
LINE
  5
332
100
AcDbEntity
  8
0
100
AcDbLine
 62
7
  6
BYLAYER
 10
266.767487068
 20
234.8810718025
 11
266.767487068
 21
233.1539749615
  0
LINE
  5
333
100
AcDbEntity
  8
0
100
AcDbLine
 62
7
  6
BYLAYER
 10
267.0620263235
 20
232.9839264901
 11
267.062026324
 21
234.7110233308
  0
LINE
  5
334
100
AcDbEntity
  8
0
100
AcDbLine
 62
7
  6
BYLAYER
 10
267.0949135289
 20
236.4610030217
 11
267.0949135289
 21
237.0552489705
  0
LINE
  5
335
100
AcDbEntity
  8
0
100
AcDbLine
 62
7
  6
BYLAYER
 10
267.1327367078
 20
234.7518477462
 11
267.1327367073
 21
233.0247509054
  0
LINE
  5
336
100
AcDbEntity
  8
0
100
AcDbLine
 62
7
  6
BYLAYER
 10
267.1656239126
 20
237.0960733859
 11
267.1656239126
 21
236.5018274371
  0
LINE
  5
337
100
AcDbEntity
  8
0
100
AcDbLine
 62
7
  6
BYLAYER
 10
267.5496725019
 20
235.8537577113
 11
267.5496725022
 21
238.896625252
  0
LINE
  5
338
100
AcDbEntity
  8
0
100
AcDbLine
 62
7
  6
BYLAYER
 10
268.3776349979
 20
235.3757441554
 11
268.3776349983
 21
236.6887328054
  0
LINE
  5
339
100
AcDbEntity
  8
0
100
AcDbLine
 62
7
  6
BYLAYER
 10
268.3776349985
 20
237.5165651903
 11
268.3776349988
 21
238.4186116958
  0
LINE
  5
33A
100
AcDbEntity
  8
0
100
AcDbLine
 62
7
  6
BYLAYER
 10
268.4483453825
 20
238.4594361112
 11
268.4483453823
 21
237.5581033449
  0
LINE
  5
33B
100
AcDbEntity
  8
0
100
AcDbLine
 62
7
  6
BYLAYER
 10
268.4483453823
 20
236.7295572214
 11
268.4483453823
 21
235.4165685696
  0
LINE
  5
33C
100
AcDbEntity
  8
0
100
AcDbLine
 62
7
  6
BYLAYER
 10
269.0049012169
 20
233.1361333673
 11
269.004901217
 21
233.5035031121
  0
LINE
  5
33D
100
AcDbEntity
  8
0
100
AcDbLine
 62
7
  6
BYLAYER
 10
269.0385112178
 20
231.9097365303
 11
269.0385112177
 21
232.245112697
  0
LINE
  5
33E
100
AcDbEntity
  8
0
100
AcDbLine
 62
7
  6
BYLAYER
 10
269.0756116007
 20
233.5443275275
 11
269.0756116008
 21
233.1769577825
  0
LINE
  5
33F
100
AcDbEntity
  8
0
100
AcDbLine
 62
7
  6
BYLAYER
 10
269.1092216014
 20
232.2859371124
 11
269.1092216015
 21
231.9505609457
  0
LINE
  5
340
100
AcDbEntity
  8
0
100
AcDbLine
 62
7
  6
BYLAYER
 10
279.4625424872
 20
216.1099354854
 11
279.4625424872
 21
233.256670073
  0
LINE
  5
341
100
AcDbEntity
  8
0
100
AcDbLine
 62
7
  6
BYLAYER
 10
279.6746736384
 20
233.3789594912
 11
279.6746736384
 21
216.2324087315
  0
LINE
  5
342
100
AcDbEntity
  8
0
100
AcDbLine
 62
7
  6
BYLAYER
 10
254.4745388732
 20
243.0056593762
 11
254.3721428128
 21
242.518103544
  0
LINE
  5
343
100
AcDbEntity
  8
0
100
AcDbLine
 62
7
  6
BYLAYER
 10
252.4701058777
 20
242.2980847924
 11
252.6786324426
 21
243.1882744297
  0
LINE
  5
344
100
AcDbEntity
  8
0
100
AcDbLine
 62
7
  6
BYLAYER
 10
252.7493428264
 20
243.2290988451
 11
252.5408162614
 21
242.3389092078
  0
LINE
  5
345
100
AcDbEntity
  8
0
100
AcDbLine
 62
7
  6
BYLAYER
 10
251.6765966439
 20
242.0266145035
 11
251.8122413075
 21
242.5426868428
  0
LINE
  5
346
100
AcDbEntity
  8
0
100
AcDbLine
 62
7
  6
BYLAYER
 10
251.8829516912
 20
242.5835112582
 11
251.7473070276
 21
242.0674389189
  0
LINE
  5
347
100
AcDbEntity
  8
0
100
AcDbLine
 62
7
  6
BYLAYER
 10
253.7874373288
 20
242.813407659
 11
253.5145456922
 21
241.7761875948
  0
LINE
  5
348
100
AcDbEntity
  8
0
100
AcDbLine
 62
7
  6
BYLAYER
 10
254.0689300087
 20
241.988188026
 11
254.1583157464
 21
242.3107680821
  0
LINE
  5
349
100
AcDbEntity
  8
0
100
AcDbLine
 62
7
  6
BYLAYER
 10
254.2290261301
 20
242.3515924975
 11
254.1396403925
 21
242.0290124414
  0
LINE
  5
34A
100
AcDbEntity
  8
0
100
AcDbLine
 62
7
  6
BYLAYER
 10
253.89919348
 20
241.3563123372
 11
253.9950843792
 21
241.6751367224
  0
LINE
  5
34B
100
AcDbEntity
  8
0
100
AcDbLine
 62
7
  6
BYLAYER
 10
254.0657947629
 20
241.7159611377
 11
253.9699038637
 21
241.3971367526
  0
LINE
  5
34C
100
AcDbEntity
  8
0
100
AcDbLine
 62
7
  6
BYLAYER
 10
269.5490459273
 20
236.6766482047
 11
269.7767265792
 21
237.3889955559
  0
LINE
  5
34D
100
AcDbEntity
  8
0
100
AcDbLine
 62
7
  6
BYLAYER
 10
269.8474369628
 20
237.4298199715
 11
269.6197563108
 21
236.7174726204
  0
LINE
  5
34E
100
AcDbEntity
  8
0
100
AcDbLine
 62
7
  6
BYLAYER
 10
251.9926993052
 20
243.1607219903
 11
251.8816296968
 21
242.8498262247
  0
LINE
  5
34F
100
AcDbEntity
  8
0
100
AcDbLine
 62
7
  6
BYLAYER
 10
252.1462933959
 20
243.8016391031
 11
252.0324530697
 21
243.492342976
  0
LINE
  5
350
100
AcDbEntity
  8
0
100
AcDbLine
 62
7
  6
BYLAYER
 10
265.2666017568
 20
239.030686324
 11
265.4452904416
 21
239.419874959
  0
LINE
  5
351
100
AcDbEntity
  8
0
100
AcDbLine
 62
7
  6
BYLAYER
 10
253.5145456922
 20
241.7761875948
 11
253.3138193355
 21
241.4714827776
  0
LINE
  5
352
100
AcDbEntity
  8
0
100
AcDbLine
 62
7
  6
BYLAYER
 10
252.6786324426
 20
243.1882744297
 11
252.9232514484
 21
243.5556408463
  0
LINE
  5
353
100
AcDbEntity
  8
0
100
AcDbLine
 62
7
  6
BYLAYER
 10
456.4327557654
 20
403.2659192464
 11
463.6167079928
 21
407.1042582723
  0
LINE
  5
354
100
AcDbEntity
  8
0
100
AcDbLine
 62
7
  6
BYLAYER
 10
455.1671507999
 20
396.1442879788
 11
460.341165431
 21
398.8865426376
  0
LINE
  5
355
100
AcDbEntity
  8
0
100
AcDbLine
 62
7
  6
BYLAYER
 10
265.8307438161
 20
234.9551995949
 11
265.9867472255
 21
235.1648989445
  0
LINE
  5
356
100
AcDbEntity
  8
0
100
AcDbLine
 62
7
  6
BYLAYER
 10
266.0574576092
 20
235.20572336
 11
265.9014541998
 21
234.9960240103
  0
LINE
  5
357
100
AcDbEntity
  8
0
100
AcDbLine
 62
7
  6
BYLAYER
 10
268.7597242859
 20
238.0035468994
 11
268.3776349985
 21
237.5165651903
  0
LINE
  5
358
100
AcDbEntity
  8
0
100
AcDbLine
 62
7
  6
BYLAYER
 10
251.8468150357
 20
246.8527092667
 11
252.0283364441
 21
247.0072161075
  0
LINE
  5
359
100
AcDbEntity
  8
0
100
AcDbLine
 62
7
  6
BYLAYER
 10
453.5407984322
 20
398.9611972734
 11
458.5026801461
 21
402.0708748835
  0
LINE
  5
35A
100
AcDbEntity
  8
0
100
AcDbLine
 62
7
  6
BYLAYER
 10
460.3411654315
 20
396.4962437599
 11
467.2573281427
 21
400.7985542059
  0
LINE
  5
35B
100
AcDbEntity
  8
0
100
AcDbLine
 62
7
  6
BYLAYER
 10
464.1010120296
 20
407.2320599039
 11
467.5934486366
 21
409.2981538492
  0
LINE
  5
35C
100
AcDbEntity
  8
0
100
AcDbLine
 62
7
  6
BYLAYER
 10
451.9648685541
 20
397.840456715
 11
451.5788691675
 21
397.6176011955
  0
LINE
  5
35D
100
AcDbEntity
  8
0
100
AcDbLine
 62
7
  6
BYLAYER
 10
452.9872672719
 20
395.178197663
 11
453.3732667088
 21
395.4010532116
  0
LINE
  5
35E
100
AcDbEntity
  8
0
100
AcDbLine
 62
7
  6
BYLAYER
 10
238.4501784287
 20
260.2004596758
 11
238.6623095799
 21
260.3229329219
  0
LINE
  5
35F
100
AcDbEntity
  8
0
100
AcDbLine
 62
7
  6
BYLAYER
 10
467.6243013936
 20
401.129577592
 11
471.1598205797
 21
403.1210507356
  0
LINE
  5
360
100
AcDbEntity
  8
0
100
AcDbLine
 62
7
  6
BYLAYER
 10
426.8242074415
 20
381.6987990491
 11
88.6843368769
 21
576.9195278607
  0
LINE
  5
361
100
AcDbEntity
  8
0
100
AcDbLine
 62
7
  6
BYLAYER
 10
254.941376237
 20
245.8235685301
 11
254.8741244405
 21
245.7759614454
  0
LINE
  5
362
100
AcDbEntity
  8
0
100
AcDbLine
 62
7
  6
BYLAYER
 10
251.9913288786
 20
247.5939618335
 11
251.8468150357
 21
247.4947786467
  0
LINE
  5
363
100
AcDbEntity
  8
0
100
AcDbLine
 62
7
  6
BYLAYER
 10
245.4530157875
 20
252.7773974948
 11
245.3823054038
 21
252.7365730795
  0
LINE
  5
364
100
AcDbEntity
  8
0
100
AcDbLine
 62
7
  6
BYLAYER
 10
245.166134669
 20
250.1193635387
 11
245.2368450527
 21
250.1601879541
  0
LINE
  5
365
100
AcDbEntity
  8
0
100
AcDbLine
 62
7
  6
BYLAYER
 10
247.8946885091
 20
251.3999816423
 11
247.9653988928
 21
251.4408060577
  0
LINE
  5
366
100
AcDbEntity
  8
0
100
AcDbLine
 62
7
  6
BYLAYER
 10
247.9653988928
 20
250.5644602058
 11
247.8946885091
 21
250.5236357904
  0
LINE
  5
367
100
AcDbEntity
  8
0
100
AcDbLine
 62
7
  6
BYLAYER
 10
248.7118885554
 20
249.416539725
 11
248.6411781717
 21
249.3757153096
  0
LINE
  5
368
100
AcDbEntity
  8
0
100
AcDbLine
 62
7
  6
BYLAYER
 10
251.0192139376
 20
249.889444061
 11
251.0899243213
 21
249.9302684764
  0
LINE
  5
369
100
AcDbEntity
  8
0
100
AcDbLine
 62
7
  6
BYLAYER
 10
247.7591667761
 20
247.6876943766
 11
247.8298771598
 21
247.728518792
  0
LINE
  5
36A
100
AcDbEntity
  8
0
100
AcDbLine
 62
7
  6
BYLAYER
 10
251.8468150358
 20
249.4116391535
 11
251.9175254195
 21
249.4524635689
  0
LINE
  5
36B
100
AcDbEntity
  8
0
100
AcDbLine
 62
7
  6
BYLAYER
 10
250.6372163997
 20
248.5175398481
 11
250.7079267834
 21
248.5583642635
  0
LINE
  5
36C
100
AcDbEntity
  8
0
100
AcDbLine
 62
7
  6
BYLAYER
 10
250.7079267834
 20
247.8465766883
 11
250.6372163997
 21
247.805752273
  0
LINE
  5
36D
100
AcDbEntity
  8
0
100
AcDbLine
 62
7
  6
BYLAYER
 10
252.0632863024
 20
247.6325595041
 11
251.9925759187
 21
247.5917350887
  0
LINE
  5
36E
100
AcDbEntity
  8
0
100
AcDbLine
 62
7
  6
BYLAYER
 10
250.6774520279
 20
246.4280815487
 11
250.7481624117
 21
246.4689059641
  0
LINE
  5
36F
100
AcDbEntity
  8
0
100
AcDbLine
 62
7
  6
BYLAYER
 10
251.8468150357
 20
246.8527092666
 11
251.9175254194
 21
246.8935336819
  0
LINE
  5
370
100
AcDbEntity
  8
0
100
AcDbLine
 62
7
  6
BYLAYER
 10
250.7481624118
 20
245.7809049185
 11
250.6774520281
 21
245.7400805031
  0
LINE
  5
371
100
AcDbEntity
  8
0
100
AcDbLine
 62
7
  6
BYLAYER
 10
254.0466438073
 20
246.6892267815
 11
254.117354191
 21
246.7300511969
  0
LINE
  5
372
100
AcDbEntity
  8
0
100
AcDbLine
 62
7
  6
BYLAYER
 10
251.8468150356
 20
244.9243310854
 11
251.9175254194
 21
244.9651555008
  0
LINE
  5
373
100
AcDbEntity
  8
0
100
AcDbLine
 62
7
  6
BYLAYER
 10
253.6558522554
 20
245.8082847688
 11
253.7265626391
 21
245.8491091842
  0
LINE
  5
374
100
AcDbEntity
  8
0
100
AcDbLine
 62
7
  6
BYLAYER
 10
254.8741244406
 20
246.2114914228
 11
254.9448348243
 21
246.2523158382
  0
LINE
  5
375
100
AcDbEntity
  8
0
100
AcDbLine
 62
7
  6
BYLAYER
 10
252.0237795217
 20
244.3640983167
 11
252.0944899054
 21
244.404922732
  0
LINE
  5
376
100
AcDbEntity
  8
0
100
AcDbLine
 62
7
  6
BYLAYER
 10
251.4472294691
 20
243.8302143357
 11
251.5179398528
 21
243.8710387511
  0
LINE
  5
377
100
AcDbEntity
  8
0
100
AcDbLine
 62
7
  6
BYLAYER
 10
255.0155047808
 20
245.8585863834
 11
254.9447943971
 21
245.817761968
  0
LINE
  5
378
100
AcDbEntity
  8
0
100
AcDbLine
 62
7
  6
BYLAYER
 10
253.7265626388
 20
244.8791473384
 11
253.6558522551
 21
244.8383229231
  0
LINE
  5
379
100
AcDbEntity
  8
0
100
AcDbLine
 62
7
  6
BYLAYER
 10
251.1995514698
 20
243.243615364
 11
251.2702618536
 21
243.2844397793
  0
LINE
  5
37A
100
AcDbEntity
  8
0
100
AcDbLine
 62
7
  6
BYLAYER
 10
255.7320829586
 20
245.7730529757
 11
255.8027933423
 21
245.8138773911
  0
LINE
  5
37B
100
AcDbEntity
  8
0
100
AcDbLine
 62
7
  6
BYLAYER
 10
254.8741244403
 20
245.12885654
 11
254.944834824
 21
245.1696809554
  0
LINE
  5
37C
100
AcDbEntity
  8
0
100
AcDbLine
 62
7
  6
BYLAYER
 10
252.6786324426
 20
243.1882744296
 11
252.7493428263
 21
243.229098845
  0
LINE
  5
37D
100
AcDbEntity
  8
0
100
AcDbLine
 62
7
  6
BYLAYER
 10
251.6765966438
 20
242.0266145036
 11
251.7473070275
 21
242.067438919
  0
LINE
  5
37E
100
AcDbEntity
  8
0
100
AcDbLine
 62
7
  6
BYLAYER
 10
254.9448348236
 20
243.748192343
 11
254.8741244399
 21
243.7073679276
  0
LINE
  5
37F
100
AcDbEntity
  8
0
100
AcDbLine
 62
7
  6
BYLAYER
 10
252.5408162617
 20
242.3389092094
 11
252.470105878
 21
242.298084794
  0
LINE
  5
380
100
AcDbEntity
  8
0
100
AcDbLine
 62
7
  6
BYLAYER
 10
252.510338375
 20
242.2863975594
 11
252.4396279913
 21
242.245573144
  0
LINE
  5
381
100
AcDbEntity
  8
0
100
AcDbLine
 62
7
  6
BYLAYER
 10
254.7080018904
 20
243.3681639849
 11
254.7787122741
 21
243.4089884003
  0
LINE
  5
382
100
AcDbEntity
  8
0
100
AcDbLine
 62
7
  6
BYLAYER
 10
253.8577201271
 20
242.8526068867
 11
253.7870097434
 21
242.8117824713
  0
LINE
  5
383
100
AcDbEntity
  8
0
100
AcDbLine
 62
7
  6
BYLAYER
 10
253.8884720107
 20
242.7973446945
 11
253.9591823945
 21
242.8381691099
  0
LINE
  5
384
100
AcDbEntity
  8
0
100
AcDbLine
 62
7
  6
BYLAYER
 10
256.6918352075
 20
244.0531341054
 11
256.7625455912
 21
244.0939585208
  0
LINE
  5
385
100
AcDbEntity
  8
0
100
AcDbLine
 62
7
  6
BYLAYER
 10
252.5293719961
 20
241.6159237135
 11
252.4586616124
 21
241.5750992981
  0
LINE
  5
386
100
AcDbEntity
  8
0
100
AcDbLine
 62
7
  6
BYLAYER
 10
257.4760600069
 20
244.3945331912
 11
257.4053496232
 21
244.3537087758
  0
LINE
  5
387
100
AcDbEntity
  8
0
100
AcDbLine
 62
7
  6
BYLAYER
 10
254.0689300087
 20
241.988188026
 11
254.1396403924
 21
242.0290124414
  0
LINE
  5
388
100
AcDbEntity
  8
0
100
AcDbLine
 62
7
  6
BYLAYER
 10
258.4090773706
 20
244.2268289844
 11
258.4797877543
 21
244.2676533998
  0
LINE
  5
389
100
AcDbEntity
  8
0
100
AcDbLine
 62
7
  6
BYLAYER
 10
253.8991934799
 20
241.3563123373
 11
253.9699038636
 21
241.3971367527
  0
LINE
  5
38A
100
AcDbEntity
  8
0
100
AcDbLine
 62
7
  6
BYLAYER
 10
254.9718223276
 20
241.8411004637
 11
255.0425327114
 21
241.8819248791
  0
LINE
  5
38B
100
AcDbEntity
  8
0
100
AcDbLine
 62
7
  6
BYLAYER
 10
257.8943263534
 20
243.2869752226
 11
257.9650367371
 21
243.327799638
  0
LINE
  5
38C
100
AcDbEntity
  8
0
100
AcDbLine
 62
7
  6
BYLAYER
 10
254.9437506305
 20
241.5647696816
 11
254.8730402468
 21
241.5239452662
  0
LINE
  5
38D
100
AcDbEntity
  8
0
100
AcDbLine
 62
7
  6
BYLAYER
 10
255.864956905
 20
242.0672943589
 11
255.9356672887
 21
242.1081187743
  0
LINE
  5
38E
100
AcDbEntity
  8
0
100
AcDbLine
 62
7
  6
BYLAYER
 10
254.7306494897
 20
241.2504676151
 11
254.8013598734
 21
241.2912920305
  0
LINE
  5
38F
100
AcDbEntity
  8
0
100
AcDbLine
 62
7
  6
BYLAYER
 10
260.2805979678
 20
244.4358328602
 11
260.2098875841
 21
244.3950084448
  0
LINE
  5
390
100
AcDbEntity
  8
0
100
AcDbLine
 62
7
  6
BYLAYER
 10
260.3612281427
 20
244.444483731
 11
260.4319385264
 21
244.4853081464
  0
LINE
  5
391
100
AcDbEntity
  8
0
100
AcDbLine
 62
7
  6
BYLAYER
 10
254.5990975381
 20
241.0338798333
 11
254.5283871544
 21
240.9930554179
  0
LINE
  5
392
100
AcDbEntity
  8
0
100
AcDbLine
 62
7
  6
BYLAYER
 10
254.123742017
 20
240.6756870452
 11
254.1944524008
 21
240.7165114606
  0
LINE
  5
393
100
AcDbEntity
  8
0
100
AcDbLine
 62
7
  6
BYLAYER
 10
256.6918352077
 20
242.1261469479
 11
256.7625455914
 21
242.1669713633
  0
LINE
  5
394
100
AcDbEntity
  8
0
100
AcDbLine
 62
7
  6
BYLAYER
 10
260.9533183022
 20
243.9820461708
 11
261.0240286859
 21
244.0228705862
  0
LINE
  5
395
100
AcDbEntity
  8
0
100
AcDbLine
 62
7
  6
BYLAYER
 10
260.0877704287
 20
243.2014596043
 11
260.1584808124
 21
243.2422840197
  0
LINE
  5
396
100
AcDbEntity
  8
0
100
AcDbLine
 62
7
  6
BYLAYER
 10
260.7926862101
 20
243.4754452051
 11
260.8633965939
 21
243.5162696205
  0
LINE
  5
397
100
AcDbEntity
  8
0
100
AcDbLine
 62
7
  6
BYLAYER
 10
257.1488830344
 20
241.3260360318
 11
257.2195934181
 21
241.3668604472
  0
LINE
  5
398
100
AcDbEntity
  8
0
100
AcDbLine
 62
7
  6
BYLAYER
 10
256.1873237962
 20
240.7544495769
 11
256.2580341799
 21
240.7952739923
  0
LINE
  5
399
100
AcDbEntity
  8
0
100
AcDbLine
 62
7
  6
BYLAYER
 10
257.1488830343
 20
240.9882951227
 11
257.219593418
 21
241.029119538
  0
LINE
  5
39A
100
AcDbEntity
  8
0
100
AcDbLine
 62
7
  6
BYLAYER
 10
260.9146487315
 20
242.7240719919
 11
260.9853591152
 21
242.7648964072
  0
LINE
  5
39B
100
AcDbEntity
  8
0
100
AcDbLine
 62
7
  6
BYLAYER
 10
257.9342005832
 20
240.873338504
 11
258.0049109669
 21
240.9141629194
  0
LINE
  5
39C
100
AcDbEntity
  8
0
100
AcDbLine
 62
7
  6
BYLAYER
 10
257.1150321013
 20
240.218849054
 11
257.185742485
 21
240.2596734694
  0
LINE
  5
39D
100
AcDbEntity
  8
0
100
AcDbLine
 62
7
  6
BYLAYER
 10
259.7676923904
 20
241.7013037864
 11
259.8384027741
 21
241.7421282018
  0
LINE
  5
39E
100
AcDbEntity
  8
0
100
AcDbLine
 62
7
  6
BYLAYER
 10
256.1873237958
 20
239.6019852313
 11
256.2580341795
 21
239.6428096467
  0
LINE
  5
39F
100
AcDbEntity
  8
0
100
AcDbLine
 62
7
  6
BYLAYER
 10
258.2287398394
 20
240.7032900321
 11
258.2994502231
 21
240.7441144475
  0
LINE
  5
3A0
100
AcDbEntity
  8
0
100
AcDbLine
 62
7
  6
BYLAYER
 10
257.1150321014
 20
239.8802735297
 11
257.1857424851
 21
239.9210979451
  0
LINE
  5
3A1
100
AcDbEntity
  8
0
100
AcDbLine
 62
7
  6
BYLAYER
 10
259.7213129992
 20
241.3123029138
 11
259.7920233829
 21
241.3531273292
  0
LINE
  5
3A2
100
AcDbEntity
  8
0
100
AcDbLine
 62
7
  6
BYLAYER
 10
261.7129735651
 20
242.0014505502
 11
261.6422631814
 21
241.9606261348
  0
LINE
  5
3A3
100
AcDbEntity
  8
0
100
AcDbLine
 62
7
  6
BYLAYER
 10
263.2156689041
 20
242.8479768022
 11
263.2863792878
 21
242.8888012176
  0
LINE
  5
3A4
100
AcDbEntity
  8
0
100
AcDbLine
 62
7
  6
BYLAYER
 10
259.7920233829
 20
240.7588813804
 11
259.7213129992
 21
240.718056965
  0
LINE
  5
3A5
100
AcDbEntity
  8
0
100
AcDbLine
 62
7
  6
BYLAYER
 10
257.1776743967
 20
239.03021898
 11
257.2483847805
 21
239.0710433954
  0
LINE
  5
3A6
100
AcDbEntity
  8
0
100
AcDbLine
 62
7
  6
BYLAYER
 10
257.1776743971
 20
238.6921998664
 11
257.2483847808
 21
238.7330242818
  0
LINE
  5
3A7
100
AcDbEntity
  8
0
100
AcDbLine
 62
7
  6
BYLAYER
 10
264.0426676724
 20
242.3705196406
 11
264.1133780561
 21
242.411344056
  0
LINE
  5
3A8
100
AcDbEntity
  8
0
100
AcDbLine
 62
7
  6
BYLAYER
 10
259.2664236681
 20
239.1064051957
 11
259.1957132844
 21
239.0655807803
  0
LINE
  5
3A9
100
AcDbEntity
  8
0
100
AcDbLine
 62
7
  6
BYLAYER
 10
260.9146487315
 20
239.6802307343
 11
260.9853591152
 21
239.7210551497
  0
LINE
  5
3AA
100
AcDbEntity
  8
0
100
AcDbLine
 62
7
  6
BYLAYER
 10
258.2287398389
 20
238.0837114481
 11
258.2994502226
 21
238.1245358635
  0
LINE
  5
3AB
100
AcDbEntity
  8
0
100
AcDbLine
 62
7
  6
BYLAYER
 10
259.2848648501
 20
238.5141797984
 11
259.3555752338
 21
238.5550042138
  0
LINE
  5
3AC
100
AcDbEntity
  8
0
100
AcDbLine
 62
7
  6
BYLAYER
 10
90.5935349005
 20
582.9208541055
 11
113.2210461052
 21
569.8571499609
  0
LINE
  5
3AD
100
AcDbEntity
  8
0
100
AcDbLine
 62
7
  6
BYLAYER
 10
103.7988096057
 20
580.4205124336
 11
105.2928551155
 21
579.5579443703
  0
LINE
  5
3AE
100
AcDbEntity
  8
0
100
AcDbLine
 62
7
  6
BYLAYER
 10
105.1834740799
 20
580.1109955614
 11
103.7988096057
 21
580.9104138831
  0
LINE
  5
3AF
100
AcDbEntity
  8
0
100
AcDbLine
 62
7
  6
BYLAYER
 10
105.2541844636
 20
580.1518199768
 11
103.8695199894
 21
580.9512382985
  0
LINE
  5
3B0
100
AcDbEntity
  8
0
100
AcDbLine
 62
7
  6
BYLAYER
 10
94.8527667245
 20
588.7697552808
 11
94.5975443082
 21
588.9171046781
  0
LINE
  5
3B1
100
AcDbEntity
  8
0
100
AcDbLine
 62
7
  6
BYLAYER
 10
92.2069057512
 20
590.2973092689
 11
91.9525120006
 21
590.4441802466
  0
LINE
  5
3B2
100
AcDbEntity
  8
0
100
AcDbLine
 62
7
  6
BYLAYER
 10
92.023222376
 20
590.485004666
 11
92.2776161482
 21
590.3381336758
  0
LINE
  5
3B3
100
AcDbEntity
  8
0
100
AcDbLine
 62
7
  6
BYLAYER
 10
94.6682546916
 20
588.9579290936
 11
94.923477108
 21
588.8105796963
  0
LINE
  5
3B4
100
AcDbEntity
  8
0
100
AcDbLine
 62
7
  6
BYLAYER
 10
113.2210461052
 20
582.1046862178
 11
90.5935349005
 21
595.1683903625
  0
LINE
  5
3B5
100
AcDbEntity
  8
0
100
AcDbLine
 62
7
  6
BYLAYER
 10
90.8056660516
 20
595.2908636087
 11
113.4331772563
 21
582.227159464
  0
LINE
  5
3B6
100
AcDbEntity
  8
0
100
AcDbLine
 62
7
  6
BYLAYER
 10
260.3288228014
 20
237.6843096204
 11
260.3995331851
 21
237.7251340358
  0
LINE
  5
3B7
100
AcDbEntity
  8
0
100
AcDbLine
 62
7
  6
BYLAYER
 10
264.8490215517
 20
240.138447057
 11
264.778311168
 21
240.0976226417
  0
LINE
  5
3B8
100
AcDbEntity
  8
0
100
AcDbLine
 62
7
  6
BYLAYER
 10
260.3029226214
 20
237.3886468394
 11
260.3736330051
 21
237.4294712548
  0
LINE
  5
3B9
100
AcDbEntity
  8
0
100
AcDbLine
 62
7
  6
BYLAYER
 10
261.3757805817
 20
237.8821629372
 11
261.3050701979
 21
237.8413385218
  0
LINE
  5
3BA
100
AcDbEntity
  8
0
100
AcDbLine
 62
7
  6
BYLAYER
 10
260.3736330051
 20
237.0982681643
 11
260.3029226214
 21
237.057443749
  0
LINE
  5
3BB
100
AcDbEntity
  8
0
100
AcDbLine
 62
7
  6
BYLAYER
 10
265.7807504458
 20
239.9708878323
 11
265.8514608296
 21
240.0117122477
  0
LINE
  5
3BC
100
AcDbEntity
  8
0
100
AcDbLine
 62
7
  6
BYLAYER
 10
262.25218221
 20
237.4020990506
 11
262.3228925937
 21
237.442923466
  0
LINE
  5
3BD
100
AcDbEntity
  8
0
100
AcDbLine
 62
7
  6
BYLAYER
 10
265.266601757
 20
239.0306863239
 11
265.3373121407
 21
239.0715107393
  0
LINE
  5
3BE
100
AcDbEntity
  8
0
100
AcDbLine
 62
7
  6
BYLAYER
 10
262.3228925937
 20
237.075553721
 11
262.25218221
 21
237.0347293056
  0
LINE
  5
3BF
100
AcDbEntity
  8
0
100
AcDbLine
 62
7
  6
BYLAYER
 10
264.0426676724
 20
237.8752827305
 11
264.1133780561
 21
237.9161071459
  0
LINE
  5
3C0
100
AcDbEntity
  8
0
100
AcDbLine
 62
7
  6
BYLAYER
 10
263.0070128651
 20
236.7456906365
 11
263.0777232488
 21
236.7865150519
  0
LINE
  5
3C1
100
AcDbEntity
  8
0
100
AcDbLine
 62
7
  6
BYLAYER
 10
263.5940524627
 20
237.0698725292
 11
263.6647628464
 21
237.1106969445
  0
LINE
  5
3C2
100
AcDbEntity
  8
0
100
AcDbLine
 62
7
  6
BYLAYER
 10
262.2850694152
 20
236.1441259322
 11
262.3557797989
 21
236.1849503476
  0
LINE
  5
3C3
100
AcDbEntity
  8
0
100
AcDbLine
 62
7
  6
BYLAYER
 10
263.5940524624
 20
236.7132136777
 11
263.6647628461
 21
236.7540380931
  0
LINE
  5
3C4
100
AcDbEntity
  8
0
100
AcDbLine
 62
7
  6
BYLAYER
 10
267.5496725022
 20
238.896625252
 11
267.620382886
 21
238.9374496673
  0
LINE
  5
3C5
100
AcDbEntity
  8
0
100
AcDbLine
 62
7
  6
BYLAYER
 10
262.3557797989
 20
235.8495741802
 11
262.2850694152
 21
235.8087497648
  0
LINE
  5
3C6
100
AcDbEntity
  8
0
100
AcDbLine
 62
7
  6
BYLAYER
 10
264.0667608631
 20
236.4403015295
 11
264.1374712468
 21
236.4811259449
  0
LINE
  5
3C7
100
AcDbEntity
  8
0
100
AcDbLine
 62
7
  6
BYLAYER
 10
264.066760863
 20
236.1338586862
 11
264.1374712467
 21
236.1746831016
  0
LINE
  5
3C8
100
AcDbEntity
  8
0
100
AcDbLine
 62
7
  6
BYLAYER
 10
268.3776349988
 20
238.4186116958
 11
268.4483453825
 21
238.4594361112
  0
LINE
  5
3C9
100
AcDbEntity
  8
0
100
AcDbLine
 62
7
  6
BYLAYER
 10
263.6647628466
 20
235.5616513252
 11
263.5940524629
 21
235.5208269098
  0
LINE
  5
3CA
100
AcDbEntity
  8
0
100
AcDbLine
 62
7
  6
BYLAYER
 10
267.1397268632
 20
237.445153986
 11
267.2104372469
 21
237.4859784014
  0
LINE
  5
3CB
100
AcDbEntity
  8
0
100
AcDbLine
 62
7
  6
BYLAYER
 10
264.8989396679
 20
235.9598537417
 11
264.9696500516
 21
236.0006781571
  0
LINE
  5
3CC
100
AcDbEntity
  8
0
100
AcDbLine
 62
7
  6
BYLAYER
 10
267.0949135289
 20
237.0552489705
 11
267.1656239126
 21
237.0960733859
  0
LINE
  5
3CD
100
AcDbEntity
  8
0
100
AcDbLine
 62
7
  6
BYLAYER
 10
268.8306298451
 20
238.0440282717
 11
268.7599194613
 21
238.0032038563
  0
LINE
  5
3CE
100
AcDbEntity
  8
0
100
AcDbLine
 62
7
  6
BYLAYER
 10
265.1932379917
 20
235.7899443691
 11
265.2639483754
 21
235.8307687845
  0
LINE
  5
3CF
100
AcDbEntity
  8
0
100
AcDbLine
 62
7
  6
BYLAYER
 10
264.1427748796
 20
235.070768831
 11
264.2134852633
 21
235.1115932464
  0
LINE
  5
3D0
100
AcDbEntity
  8
0
100
AcDbLine
 62
7
  6
BYLAYER
 10
265.4512410096
 20
235.6128770064
 11
265.3805306259
 21
235.5720525911
  0
LINE
  5
3D1
100
AcDbEntity
  8
0
100
AcDbLine
 62
7
  6
BYLAYER
 10
267.1656239126
 20
236.5018274371
 11
267.0949135289
 21
236.4610030217
  0
LINE
  5
3D2
100
AcDbEntity
  8
0
100
AcDbLine
 62
7
  6
BYLAYER
 10
264.1427748795
 20
234.7516676586
 11
264.2134852632
 21
234.792492074
  0
LINE
  5
3D3
100
AcDbEntity
  8
0
100
AcDbLine
 62
7
  6
BYLAYER
 10
265.1932379913
 20
234.9633972186
 11
265.263948375
 21
235.004221634
  0
LINE
  5
3D4
100
AcDbEntity
  8
0
100
AcDbLine
 62
7
  6
BYLAYER
 10
268.3776349982
 20
236.688732806
 11
268.4483453819
 21
236.7295572214
  0
LINE
  5
3D5
100
AcDbEntity
  8
0
100
AcDbLine
 62
7
  6
BYLAYER
 10
269.7767265791
 20
237.3889955561
 11
269.8474369628
 21
237.4298199714
  0
LINE
  5
3D6
100
AcDbEntity
  8
0
100
AcDbLine
 62
7
  6
BYLAYER
 10
265.9867472255
 20
235.1648989446
 11
266.0574576092
 21
235.20572336
  0
LINE
  5
3D7
100
AcDbEntity
  8
0
100
AcDbLine
 62
7
  6
BYLAYER
 10
265.9014541998
 20
234.9960240103
 11
265.830743816
 21
234.955199595
  0
LINE
  5
3D8
100
AcDbEntity
  8
0
100
AcDbLine
 62
7
  6
BYLAYER
 10
266.8057603911
 20
235.4694176001
 11
266.9333655548
 21
235.530053825
  0
LINE
  5
3D9
100
AcDbEntity
  8
0
100
AcDbLine
 62
7
  6
BYLAYER
 10
267.0719045321
 20
235.3257174959
 11
267.1426149158
 21
235.3665419113
  0
LINE
  5
3DA
100
AcDbEntity
  8
0
100
AcDbLine
 62
7
  6
BYLAYER
 10
269.6197563109
 20
236.7174726203
 11
269.5490459272
 21
236.6766482049
  0
LINE
  5
3DB
100
AcDbEntity
  8
0
100
AcDbLine
 62
7
  6
BYLAYER
 10
267.017948215
 20
235.1477175778
 11
267.0886585987
 21
235.1885419932
  0
LINE
  5
3DC
100
AcDbEntity
  8
0
100
AcDbLine
 62
7
  6
BYLAYER
 10
265.1932379908
 20
234.0628475294
 11
265.2639483745
 21
234.1036719448
  0
LINE
  5
3DD
100
AcDbEntity
  8
0
100
AcDbLine
 62
7
  6
BYLAYER
 10
266.767487068
 20
234.8810718025
 11
266.8381974518
 21
234.9218962179
  0
LINE
  5
3DE
100
AcDbEntity
  8
0
100
AcDbLine
 62
7
  6
BYLAYER
 10
267.0620263241
 20
234.7110233308
 11
267.1327367078
 21
234.7518477462
  0
LINE
  5
3DF
100
AcDbEntity
  8
0
100
AcDbLine
 62
7
  6
BYLAYER
 10
268.3776349978
 20
235.3757441547
 11
268.4483453815
 21
235.4165685701
  0
LINE
  5
3E0
100
AcDbEntity
  8
0
100
AcDbLine
 62
7
  6
BYLAYER
 10
268.1267220538
 20
233.983965946
 11
268.0560116701
 21
233.9431415306
  0
LINE
  5
3E1
100
AcDbEntity
  8
0
100
AcDbLine
 62
7
  6
BYLAYER
 10
267.0620263235
 20
232.9839264901
 11
267.1327367073
 21
233.0247509054
  0
LINE
  5
3E2
100
AcDbEntity
  8
0
100
AcDbLine
 62
7
  6
BYLAYER
 10
276.8462347378
 20
238.2779321778
 11
276.6341035866
 21
238.1554589317
  0
LINE
  5
3E3
100
AcDbEntity
  8
0
100
AcDbLine
 62
7
  6
BYLAYER
 10
269.004901217
 20
233.5035031122
 11
269.0756116007
 21
233.5443275275
  0
LINE
  5
3E4
100
AcDbEntity
  8
0
100
AcDbLine
 62
7
  6
BYLAYER
 10
269.0756116007
 20
233.1769577826
 11
269.0049012169
 21
233.1361333672
  0
LINE
  5
3E5
100
AcDbEntity
  8
0
100
AcDbLine
 62
7
  6
BYLAYER
 10
269.0385112177
 20
232.245112697
 11
269.1092216014
 21
232.2859371124
  0
LINE
  5
3E6
100
AcDbEntity
  8
0
100
AcDbLine
 62
7
  6
BYLAYER
 10
269.1092216015
 20
231.950560945
 11
269.0385112178
 21
231.9097365296
  0
LINE
  5
3E7
100
AcDbEntity
  8
0
100
AcDbLine
 62
7
  6
BYLAYER
 10
279.4625424872
 20
233.2564862451
 11
279.6746736384
 21
233.3789594912
  0
LINE
  5
3E8
100
AcDbEntity
  8
0
100
AcDbLine
 62
7
  6
BYLAYER
 10
263.6647628463
 20
237.1106969446
 11
263.0070128651
 21
236.7456906365
  0
LINE
  5
3E9
100
AcDbEntity
  8
0
100
AcDbLine
 62
7
  6
BYLAYER
 10
266.8765146774
 20
235.5101676984
 11
266.9333655548
 21
235.530053825
  0
LINE
  5
3EA
100
AcDbEntity
  8
0
100
AcDbLine
 62
7
  6
BYLAYER
 10
260.2811601246
 20
244.4348528218
 11
260.4319385264
 21
244.4853081464
  0
LINE
  5
3EB
100
AcDbEntity
  8
0
100
AcDbLine
 62
7
  6
BYLAYER
 10
266.9619191163
 20
235.127842541
 11
267.0184994524
 21
235.1467790702
  0
LINE
  5
3EC
100
AcDbEntity
  8
0
100
AcDbLine
 62
7
  6
BYLAYER
 10
266.8626551711
 20
235.4892294096
 11
266.8052453534
 21
235.4702940901
  0
LINE
  5
3ED
100
AcDbEntity
  8
0
100
AcDbLine
 62
7
  6
BYLAYER
 10
260.6421547453
 20
243.4257010565
 11
260.7934806435
 21
243.4740807469
  0
LINE
  5
3EE
100
AcDbEntity
  8
0
100
AcDbLine
 62
7
  6
BYLAYER
 10
260.3612281427
 20
244.444483731
 11
260.208905598
 21
244.3966830355
  0
LINE
  5
3EF
100
AcDbEntity
  8
0
100
AcDbLine
 62
7
  6
BYLAYER
 10
63.9369287128
 20
621.4177168311
 11
451.5788691675
 21
397.6176011955
  0
LINE
  5
3F0
100
AcDbEntity
  8
0
100
AcDbLine
 62
7
  6
BYLAYER
 10
63.9708502159
 20
621.8472027422
 11
451.9619564041
 21
397.8455007369
  0
LINE
  5
3F1
100
AcDbEntity
  8
0
100
AcDbLine
 62
7
  6
BYLAYER
 10
62.3920081877
 20
624.7859477758
 11
453.5407984322
 21
398.9611972734
  0
LINE
  5
3F2
100
AcDbEntity
  8
0
100
AcDbLine
 62
7
  6
BYLAYER
 10
67.329544618
 20
627.9096808239
 11
458.5027621265
 21
402.0708275531
  0
LINE
  5
3F3
100
AcDbEntity
  8
0
100
AcDbLine
 62
7
  6
BYLAYER
 10
463.6167079928
 20
407.1042582723
 11
84.1089621448
 21
626.2082007037
  0
LINE
  5
3F4
100
AcDbEntity
  8
0
100
AcDbLine
 62
7
  6
BYLAYER
 10
84.3801076068
 20
626.4590667118
 11
464.1010120296
 21
407.2320599039
  0
LINE
  5
3F5
100
AcDbEntity
  8
0
100
AcDbLine
 62
7
  6
BYLAYER
 10
87.885566077
 20
628.5176426509
 11
467.5934486366
 21
409.2981538492
  0
LINE
  5
3F6
100
AcDbEntity
  8
0
100
AcDbLine
 62
7
  6
BYLAYER
 10
279.4625424872
 20
216.1099354854
 11
279.6746736384
 21
216.2324087315
  0
LINE
  5
3F7
100
AcDbEntity
  8
0
100
AcDbLine
 62
7
  6
BYLAYER
 10
426.8242074413
 20
161.4880971497
 11
426.8242074415
 21
381.6987990495
  0
LINE
  5
3F8
100
AcDbEntity
  8
0
100
AcDbLine
 62
7
  6
BYLAYER
 10
94.5975443082
 20
588.9171046781
 11
94.1701724773
 21
589.0461183402
  0
LINE
  5
3F9
100
AcDbEntity
  8
0
100
AcDbLine
 62
7
  6
BYLAYER
 10
94.2408760634
 20
589.0869525662
 11
94.6682546916
 21
588.9579290936
  0
LINE
  5
3FA
100
AcDbEntity
  8
0
100
AcDbLine
 62
7
  6
BYLAYER
 10
452.9872672719
 20
117.8832399726
 11
452.9872672719
 21
395.1781976645
  0
LINE
  5
3FB
100
AcDbEntity
  8
0
100
AcDbLine
 62
7
  6
BYLAYER
 10
453.3761758544
 20
395.3960143936
 11
453.3761758544
 21
117.6218920861
  0
LINE
  5
3FC
100
AcDbEntity
  8
0
100
AcDbLine
 62
7
  6
BYLAYER
 10
455.1671507999
 20
396.1442879788
 11
455.1671507999
 21
114.8056255513
  0
LINE
  5
3FD
100
AcDbEntity
  8
0
100
AcDbLine
 62
7
  6
BYLAYER
 10
460.3411654315
 20
398.8866335317
 11
460.3411654315
 21
117.5197150322
  0
LINE
  5
3FE
100
AcDbEntity
  8
0
100
AcDbLine
 62
7
  6
BYLAYER
 10
113.2210461052
 20
569.8571499609
 11
114.7209697065
 21
569.7086978168
  0
LINE
  5
3FF
100
AcDbEntity
  8
0
100
AcDbLine
 62
7
  6
BYLAYER
 10
101.3732698265
 20
581.200553347
 11
100.8745241923
 21
581.2514836719
  0
LINE
  5
400
100
AcDbEntity
  8
0
100
AcDbLine
 62
7
  6
BYLAYER
 10
102.0014803167
 20
583.424481179
 11
101.7684662269
 21
583.449800956
  0
LINE
  5
401
100
AcDbEntity
  8
0
100
AcDbLine
 62
7
  6
BYLAYER
 10
100.3880061449
 20
583.4560585593
 11
100.8695523277
 21
583.3976729592
  0
LINE
  5
402
100
AcDbEntity
  8
0
100
AcDbLine
 62
7
  6
BYLAYER
 10
106.8017123461
 20
581.9659050622
 11
107.0473705322
 21
581.9334802791
  0
LINE
  5
403
100
AcDbEntity
  8
0
100
AcDbLine
 62
7
  6
BYLAYER
 10
94.9911503072
 20
583.9133221501
 11
95.2478778182
 21
583.8785795716
  0
LINE
  5
404
100
AcDbEntity
  8
0
100
AcDbLine
 62
7
  6
BYLAYER
 10
93.404296647
 20
584.8294718118
 11
93.7384993397
 21
584.7824169953
  0
LINE
  5
405
100
AcDbEntity
  8
0
100
AcDbLine
 62
7
  6
BYLAYER
 10
104.5147582031
 20
581.9667744704
 11
103.4720628557
 21
582.1290052624
  0
LINE
  5
406
100
AcDbEntity
  8
0
100
AcDbLine
 62
7
  6
BYLAYER
 10
467.2573281427
 20
132.9363709979
 11
467.2573281427
 21
400.7985542059
  0
LINE
  5
407
100
AcDbEntity
  8
0
100
AcDbLine
 62
7
  6
BYLAYER
 10
467.6243013936
 20
401.129577592
 11
467.6243013936
 21
132.9690227671
  0
LINE
  5
408
100
AcDbEntity
  8
0
100
AcDbLine
 62
7
  6
BYLAYER
 10
471.1598205797
 20
403.1210507356
 11
471.1598205797
 21
135.0531743773
  0
LINE
  5
409
100
AcDbEntity
  8
0
100
AcDbLine
 62
7
  6
BYLAYER
 10
90.5935349005
 20
595.1683903625
 11
89.093611299
 21
595.3168425068
  0
LINE
  5
40A
100
AcDbEntity
  8
0
100
AcDbLine
 62
7
  6
BYLAYER
 10
89.3057486717
 20
595.439304977
 11
90.8056660516
 21
595.2908636087
  0
LINE
  5
40B
100
AcDbEntity
  8
0
100
AcDbLine
 62
7
  6
BYLAYER
 10
62.3920081878
 20
624.7859477758
 11
61.2050583094
 21
624.8768593629
  0
LINE
  5
40C
100
AcDbEntity
  8
0
100
AcDbLine
 62
7
  6
BYLAYER
 10
65.9877705336
 20
628.0124964658
 11
67.329544618
 21
627.9096808239
  0
LINE
  5
40D
100
AcDbEntity
  8
0
100
AcDbLine
 62
7
  6
BYLAYER
 10
63.9369287145
 20
621.4177168301
 11
62.9359421833
 21
621.5168280863
  0
LINE
  5
40E
100
AcDbEntity
  8
0
100
AcDbLine
 62
7
  6
BYLAYER
 10
454.6524020167
 20
113.7322112894
 11
455.1671508001
 21
114.8056255512
  0
LINE
  5
40F
100
AcDbEntity
  8
0
100
AcDbLine
 62
7
  6
BYLAYER
 10
460.3411654315
 20
117.5197150322
 11
459.7593085374
 21
116.3063249088
  0
LINE
  5
410
100
AcDbEntity
  8
0
100
AcDbLine
 62
7
  6
BYLAYER
 10
460.3411654315
 20
126.5462228103
 11
466.3051496047
 21
130.6502470495
  0
LINE
  5
411
100
AcDbEntity
  8
0
100
AcDbLine
 62
7
  6
BYLAYER
 10
460.3411654315
 20
128.2512668701
 11
467.2573281427
 21
132.9363709979
  0
LINE
  5
412
100
AcDbEntity
  8
0
100
AcDbLine
 62
7
  6
BYLAYER
 10
467.6243013936
 20
132.9690227671
 11
471.1598205797
 21
135.0531743768
  0
LINE
  5
413
100
AcDbEntity
  8
0
100
AcDbLine
 62
7
  6
BYLAYER
 10
466.6063460135
 20
130.7068794835
 11
470.1310555691
 21
132.7670094773
  0
LINE
  5
414
100
AcDbEntity
  8
0
100
AcDbLine
 62
7
  6
BYLAYER
 10
453.3761758544
 20
118.1077751066
 11
452.9872672719
 21
117.8832399722
  0
LINE
  5
415
100
AcDbEntity
  8
0
100
AcDbLine
 62
7
  6
BYLAYER
 10
452.765483818
 20
117.0466149814
 11
453.2397849492
 21
117.3204512327
  0
LINE
  5
416
100
AcDbEntity
  8
0
100
AcDbLine
 62
7
  6
BYLAYER
 10
455.1671507999
 20
114.8056255513
 11
460.341165431
 21
117.5198096954
  0
LINE
  5
417
100
AcDbEntity
  8
0
100
AcDbLine
 62
7
  6
BYLAYER
 10
454.6524672987
 20
113.732092781
 11
459.7593492992
 21
116.306250912
  0
ARC
  5
418
100
AcDbEntity
  8
0
100
AcDbCircle
 62
7
  6
BYLAYER
 10
234.7830382652
 20
214.6257832995
 40
39.0397391476
100
AcDbArc
 50
43.1043038408
 51
43.236483237
  0
ARC
  5
419
100
AcDbEntity
  8
0
100
AcDbCircle
 62
7
  6
BYLAYER
 10
17.11703651
 20
583.8902348104
 40
81.7024711327
100
AcDbArc
 50
359.3160194877
 51
359.7692338546
  0
ARC
  5
41A
100
AcDbEntity
  8
0
100
AcDbCircle
 62
7
  6
BYLAYER
 10
17.7461302556
 20
583.9308234112
 40
81.1441161935
100
AcDbArc
 50
359.5058100704
 51
0.0124971648
  0
ARC
  5
41B
100
AcDbEntity
  8
0
100
AcDbCircle
 62
7
  6
BYLAYER
 10
18.9283256361
 20
583.9160633638
 40
79.9618376101
100
AcDbArc
 50
359.3118755694
 51
359.5090795696
  0
ARC
  5
41C
100
AcDbEntity
  8
0
100
AcDbCircle
 62
7
  6
BYLAYER
 10
19.5377171098
 20
583.8922763062
 40
79.281819266
100
AcDbArc
 50
359.7607126353
 51
0.0113899126
  0
ARC
  5
41D
100
AcDbEntity
  8
0
100
AcDbCircle
 62
7
  6
BYLAYER
 10
131.2964983589
 20
600.2962128047
 40
30.9348709771
100
AcDbArc
 50
228.987644758
 51
229.400052922
  0
ARC
  5
41E
100
AcDbEntity
  8
0
100
AcDbCircle
 62
7
  6
BYLAYER
 10
101.036216948
 20
596.6391775387
 40
12.5361781686
100
AcDbArc
 50
254.8066547502
 51
256.3860317088
  0
ARC
  5
41F
100
AcDbEntity
  8
0
100
AcDbCircle
 62
7
  6
BYLAYER
 10
100.4359997794
 20
594.1487252153
 40
9.9744203274
100
AcDbArc
 50
256.3696773069
 51
256.7032122359
  0
ARC
  5
420
100
AcDbEntity
  8
0
100
AcDbCircle
 62
7
  6
BYLAYER
 10
83.3402637722
 20
587.4614617146
 40
9.7250616298
100
AcDbArc
 50
11.3022804027
 51
12.1860125604
  0
ARC
  5
421
100
AcDbEntity
  8
0
100
AcDbCircle
 62
7
  6
BYLAYER
 10
94.509761034
 20
579.5812552454
 40
8.0027989811
100
AcDbArc
 50
25.65981668
 51
26.4168950594
  0
ARC
  5
422
100
AcDbEntity
  8
0
100
AcDbCircle
 62
7
  6
BYLAYER
 10
82.2208684753
 20
622.721684631
 40
4.3162875403
100
AcDbArc
 50
59.9845408208
 51
63.2418578057
  0
ARC
  5
423
100
AcDbEntity
  8
0
100
AcDbCircle
 62
7
  6
BYLAYER
 10
102.6627481279
 20
583.1643760191
 40
3.2582014492
100
AcDbArc
 50
201.2439898624
 51
205.5788591894
  0
ARC
  5
424
100
AcDbEntity
  8
0
100
AcDbCircle
 62
7
  6
BYLAYER
 10
98.7515796425
 20
581.7489347495
 40
3.2385482064
100
AcDbArc
 50
29.4510292955
 51
33.235993136
  0
ARC
  5
425
100
AcDbEntity
  8
0
100
AcDbCircle
 62
7
  6
BYLAYER
 10
106.7987654791
 20
580.5452401253
 40
2.9304468769
100
AcDbArc
 50
181.6406919746
 51
183.2992648898
  0
ARC
  5
426
100
AcDbEntity
  8
0
100
AcDbCircle
 62
7
  6
BYLAYER
 10
82.4538901247
 20
624.7875181945
 40
1.9062682123
100
AcDbArc
 50
98.3357395371
 51
104.2114911121
  0
ARC
  5
427
100
AcDbEntity
  8
0
100
AcDbCircle
 62
7
  6
BYLAYER
 10
105.65765305
 20
580.4789868689
 40
1.7884787877
100
AcDbArc
 50
211.3556419149
 51
217.2044401946
  0
ARC
  5
428
100
AcDbEntity
  8
0
100
AcDbCircle
 62
7
  6
BYLAYER
 10
110.8494188761
 20
575.1560752302
 40
1.3573154792
100
AcDbArc
 50
18.176032593
 51
23.919091611
  0
ARC
  5
429
100
AcDbEntity
  8
0
100
AcDbCircle
 62
7
  6
BYLAYER
 10
111.0653208607
 20
575.2283401679
 40
1.1296450539
100
AcDbArc
 50
4.9562112105
 51
18.1095293339
  0
ARC
  5
42A
100
AcDbEntity
  8
0
100
AcDbCircle
 62
7
  6
BYLAYER
 10
101.2776067006
 20
581.5291012522
 40
0.3338438491
100
AcDbArc
 50
290.3885299885
 51
300.0376923125
  0
ARC
  5
42B
100
AcDbEntity
  8
0
100
AcDbCircle
 62
7
  6
BYLAYER
 10
247.5998789014
 20
243.7111957785
 40
9.1706580016
100
AcDbArc
 50
2.3920924808
 51
2.9233303656
  0
ARC
  5
42C
100
AcDbEntity
  8
0
100
AcDbCircle
 62
7
  6
BYLAYER
 10
251.6295784765
 20
254.6187727085
 40
7.7857652203
100
AcDbArc
 50
218.800609716
 51
219.9724439184
  0
ARC
  5
42D
100
AcDbEntity
  8
0
100
AcDbCircle
 62
7
  6
BYLAYER
 10
463.3093592807
 20
132.9685466645
 40
4.3149421004
100
AcDbArc
 50
357.7780418187
 51
0.0032900777
  0
ARC
  5
42E
100
AcDbEntity
  8
0
100
AcDbCircle
 62
7
  6
BYLAYER
 10
260.1200596777
 20
243.7523253479
 40
3.1740631686
100
AcDbArc
 50
223.5865148386
 51
232.2777374303
  0
ARC
  5
42F
100
AcDbEntity
  8
0
100
AcDbCircle
 62
7
  6
BYLAYER
 10
260.0914689589
 20
243.7215446807
 40
3.1321332975
100
AcDbArc
 50
213.3261195862
 51
223.5392525182
  0
ARC
  5
430
100
AcDbEntity
  8
0
100
AcDbCircle
 62
7
  6
BYLAYER
 10
256.7447053569
 20
241.7154209439
 40
3.1182291251
100
AcDbArc
 50
28.4099826685
 51
30.473664952
  0
ARC
  5
431
100
AcDbEntity
  8
0
100
AcDbCircle
 62
7
  6
BYLAYER
 10
256.6796056583
 20
241.6776500651
 40
3.1118413677
100
AcDbArc
 50
26.2930740174
 51
30.1540477275
  0
ARC
  5
432
100
AcDbEntity
  8
0
100
AcDbCircle
 62
7
  6
BYLAYER
 10
264.1245798369
 20
237.4631834696
 40
3.1092893826
100
AcDbArc
 50
24.5136040978
 51
28.4134344529
  0
ARC
  5
433
100
AcDbEntity
  8
0
100
AcDbCircle
 62
7
  6
BYLAYER
 10
256.8001406813
 20
241.7494369811
 40
3.0532007729
100
AcDbArc
 50
30.4510794527
 51
35.6351934592
  0
ARC
  5
434
100
AcDbEntity
  8
0
100
AcDbCircle
 62
7
  6
BYLAYER
 10
259.9717317936
 20
243.6445772202
 40
2.9898002212
100
AcDbArc
 50
204.5980190969
 51
213.3543545325
  0
ARC
  5
435
100
AcDbEntity
  8
0
100
AcDbCircle
 62
7
  6
BYLAYER
 10
267.0322136835
 20
239.2424726928
 40
2.6451751268
100
AcDbArc
 50
188.5761586115
 51
204.2236314482
  0
ARC
  5
436
100
AcDbEntity
  8
0
100
AcDbCircle
 62
7
  6
BYLAYER
 10
259.6583132007
 20
243.4990927478
 40
2.6442670179
100
AcDbArc
 50
188.5750093634
 51
204.5585500642
  0
ARC
  5
437
100
AcDbEntity
  8
0
100
AcDbCircle
 62
7
  6
BYLAYER
 10
252.7553304655
 20
242.3594433576
 40
2.2474842848
100
AcDbArc
 50
68.0142494772
 51
71.4270381252
  0
ARC
  5
438
100
AcDbEntity
  8
0
100
AcDbCircle
 62
7
  6
BYLAYER
 10
253.1249322399
 20
242.3252670219
 40
1.9583321405
100
AcDbArc
 50
357.0641980662
 51
0.4564392006
  0
ARC
  5
439
100
AcDbEntity
  8
0
100
AcDbCircle
 62
7
  6
BYLAYER
 10
465.1872700549
 20
132.2029243297
 40
1.9154842121
100
AcDbArc
 50
315.7856692668
 51
321.1971298223
  0
ARC
  5
43A
100
AcDbEntity
  8
0
100
AcDbCircle
 62
7
  6
BYLAYER
 10
451.1244655856
 20
117.8827487299
 40
1.862801751
100
AcDbArc
 50
357.2452217557
 51
0.0151095677
  0
ARC
  5
43B
100
AcDbEntity
  8
0
100
AcDbCircle
 62
7
  6
BYLAYER
 10
251.8644840281
 20
245.8979672903
 40
1.8560861331
100
AcDbArc
 50
11.977691005
 51
20.2676651607
  0
ARC
  5
43C
100
AcDbEntity
  8
0
100
AcDbCircle
 62
7
  6
BYLAYER
 10
252.9439401255
 20
242.8302843218
 40
1.8003768361
100
AcDbArc
 50
149.4485697932
 51
156.0406481101
  0
ARC
  5
43D
100
AcDbEntity
  8
0
100
AcDbCircle
 62
7
  6
BYLAYER
 10
267.0496766237
 20
238.7805631846
 40
1.7689511611
100
AcDbArc
 50
217.1332672175
 51
223.9383529183
  0
ARC
  5
43E
100
AcDbEntity
  8
0
100
AcDbCircle
 62
7
  6
BYLAYER
 10
253.3105969904
 20
242.2367441338
 40
1.7652913793
100
AcDbArc
 50
327.616847845
 51
330.9975040097
  0
ARC
  5
43F
100
AcDbEntity
  8
0
100
AcDbCircle
 62
7
  6
BYLAYER
 10
253.2398866067
 20
242.1959197184
 40
1.7652913793
100
AcDbArc
 50
327.616847845
 51
330.9975040097
  0
ARC
  5
440
100
AcDbEntity
  8
0
100
AcDbCircle
 62
7
  6
BYLAYER
 10
259.6656121304
 20
243.0284303514
 40
1.7547782342
100
AcDbArc
 50
216.2981825173
 51
223.653480245
  0
ARC
  5
441
100
AcDbEntity
  8
0
100
AcDbCircle
 62
7
  6
BYLAYER
 10
258.7216442716
 20
237.8085346306
 40
1.6717806393
100
AcDbArc
 50
10.5241145881
 51
13.5193497168
  0
ARC
  5
442
100
AcDbEntity
  8
0
100
AcDbCircle
 62
7
  6
BYLAYER
 10
252.8041103225
 20
242.9109127633
 40
1.6389756046
100
AcDbArc
 50
145.8819318012
 51
149.3911664467
  0
ARC
  5
443
100
AcDbEntity
  8
0
100
AcDbCircle
 62
7
  6
BYLAYER
 10
262.4125399692
 20
237.1492457526
 40
1.0348254291
100
AcDbArc
 50
209.1384263429
 51
227.5502959292
  0
ARC
  5
444
100
AcDbEntity
  8
0
100
AcDbCircle
 62
7
  6
BYLAYER
 10
262.4758268674
 20
237.1832069978
 40
1.0247483174
100
AcDbArc
 50
219.6173121447
 51
228.2905071332
  0
ARC
  5
445
100
AcDbEntity
  8
0
100
AcDbCircle
 62
7
  6
BYLAYER
 10
269.2274204394
 20
233.2822138998
 40
1.0221708306
100
AcDbArc
 50
219.6955413125
 51
228.3299564218
  0
ARC
  5
446
100
AcDbEntity
  8
0
100
AcDbCircle
 62
7
  6
BYLAYER
 10
260.2910259657
 20
238.3006960306
 40
0.8947545847
100
AcDbArc
 50
240.4237861543
 51
246.6326722798
  0
ARC
  5
447
100
AcDbEntity
  8
0
100
AcDbCircle
 62
7
  6
BYLAYER
 10
253.1231878906
 20
241.9659477884
 40
0.5236528795
100
AcDbArc
 50
291.9088259872
 51
299.9449524488
  0
ARC
  5
448
100
AcDbEntity
  8
0
100
AcDbCircle
 62
7
  6
BYLAYER
 10
253.1839011733
 20
243.2675203119
 40
0.3851612519
100
AcDbArc
 50
120.0152462994
 51
131.5935238511
  0
ARC
  5
449
100
AcDbEntity
  8
0
100
AcDbCircle
 62
7
  6
BYLAYER
 10
249.5690294011
 20
248.2772067079
 40
0.2976382666
100
AcDbArc
 50
119.9629498354
 51
130.792204729
  0
ARC
  5
44A
100
AcDbEntity
  8
0
100
AcDbCircle
 62
7
  6
BYLAYER
 10
451.0737764101
 20
395.1776001366
 40
1.9134909551
100
AcDbArc
 50
0.0178918178
 51
2.4234577474
  0
ARC
  5
44B
100
AcDbEntity
  8
0
100
AcDbCircle
 62
7
  6
BYLAYER
 10
450.6216469209
 20
395.9608011888
 40
1.9134421056
100
AcDbArc
 50
57.5770773708
 51
59.9826690872
  0
SPLINE
  5
44C
100
AcDbEntity
  8
0
100
AcDbSpline
 62
7
  6
BYLAYER
 70
0
 71
3
 72
11
 73
7
 74
0
 42
0.0000001
 43
0.0000001
 44
0.0000000001
 40
0.0
 40
0.0
 40
0.0
 40
0.0
 40
0.2375778134
 40
0.4999989072
 40
0.7624206023
 40
1.0
 40
1.0
 40
1.0
 40
1.0
 10
467.5934486366
 20
409.2981538492
 30
0.0
 10
468.1003573874
 20
409.0054557052
 30
0.0
 10
469.053570422
 20
408.1941924675
 30
0.0
 10
470.178947436
 20
406.6728284956
 30
0.0
 10
470.9338082431
 20
404.9375412347
 30
0.0
 10
471.1597851931
 20
403.7063995663
 30
0.0
 10
471.1598205797
 20
403.1210507356
 30
0.0
  0
SPLINE
  5
44D
100
AcDbEntity
  8
0
100
AcDbSpline
 62
7
  6
BYLAYER
 70
0
 71
3
 72
9
 73
5
 74
0
 42
0.0000001
 43
0.0000001
 44
0.0000000001
 40
0.0
 40
0.0
 40
0.0
 40
0.0
 40
0.5503432488
 40
1.0
 40
1.0
 40
1.0
 40
1.0
 10
471.1598205797
 20
135.0531743773
 30
0.0
 10
471.159791833
 20
134.5776921489
 30
0.0
 10
471.0360497792
 20
133.6969238822
 30
0.0
 10
470.4664016399
 20
132.9631445265
 30
0.0
 10
470.1310550646
 20
132.7670106694
 30
0.0
  0
SPLINE
  5
44E
100
AcDbEntity
  8
0
100
AcDbSpline
 62
7
  6
BYLAYER
 70
0
 71
3
 72
8
 73
4
 74
0
 42
0.0000001
 43
0.0000001
 44
0.0000000001
 40
0.0
 40
0.0
 40
0.0
 40
0.0
 40
1.0
 40
1.0
 40
1.0
 40
1.0
 10
81.5738186065
 20
626.4844732713
 30
0.0
 10
81.6631036051
 20
626.5677768071
 30
0.0
 10
81.7619229658
 20
626.6420577857
 30
0.0
 10
81.8673963217
 20
626.7035936389
 30
0.0
  0
SPLINE
  5
44F
100
AcDbEntity
  8
0
100
AcDbSpline
 62
7
  6
BYLAYER
 70
0
 71
3
 72
9
 73
5
 74
0
 42
0.0000001
 43
0.0000001
 44
0.0000000001
 40
0.0
 40
0.0
 40
0.0
 40
0.0
 40
0.4999989858
 40
1.0
 40
1.0
 40
1.0
 40
1.0
 10
458.5027621265
 20
402.0708275443
 30
0.0
 10
459.0483920393
 20
401.7557415073
 30
0.0
 10
459.9105534814
 20
400.7608201423
 30
0.0
 10
460.3411027175
 20
399.5167084755
 30
0.0
 10
460.3411654243
 20
398.8866335359
 30
0.0
  0
SPLINE
  5
450
100
AcDbEntity
  8
0
100
AcDbSpline
 62
7
  6
BYLAYER
 70
0
 71
3
 72
9
 73
5
 74
0
 42
0.0000001
 43
0.0000001
 44
0.0000000001
 40
0.0
 40
0.0
 40
0.0
 40
0.0
 40
0.5000011283
 40
1.0
 40
1.0
 40
1.0
 40
1.0
 10
60.7656558199
 20
342.5082835244
 30
0.0
 10
60.7656895168
 20
341.9508831845
 30
0.0
 10
61.1465751507
 20
340.850262941
 30
0.0
 10
61.9093016303
 20
339.9700975959
 30
0.0
 10
62.3920081878
 20
339.6913742296
 30
0.0
  0
SPLINE
  5
451
100
AcDbEntity
  8
0
100
AcDbSpline
 62
7
  6
BYLAYER
 70
0
 71
3
 72
8
 73
4
 74
0
 42
0.0000001
 43
0.0000001
 44
0.0000000001
 40
0.0
 40
0.0
 40
0.0
 40
0.0
 40
1.0
 40
1.0
 40
1.0
 40
1.0
 10
453.3761758544
 20
117.6218920861
 30
0.0
 10
453.3761758544
 20
117.4938750993
 30
0.0
 10
453.3629581082
 20
117.3645086576
 30
0.0
 10
453.3312702628
 20
117.2404754791
 30
0.0
  0
SPLINE
  5
452
100
AcDbEntity
  8
0
100
AcDbSpline
 62
7
  6
BYLAYER
 70
0
 71
3
 72
9
 73
5
 74
0
 42
0.0000001
 43
0.0000001
 44
0.0000000001
 40
0.0
 40
0.0
 40
0.0
 40
0.0
 40
0.27726226
 40
1.0
 40
1.0
 40
1.0
 40
1.0
 10
453.3312702628
 20
117.2404754791
 30
0.0
 10
453.3161965003
 20
117.1814734657
 30
0.0
 10
453.2481636694
 20
116.9731889623
 30
0.0
 10
453.0994033717
 20
116.7857274331
 30
0.0
 10
452.9619302344
 20
116.7063577762
 30
0.0
  0
SPLINE
  5
453
100
AcDbEntity
  8
0
100
AcDbSpline
 62
7
  6
BYLAYER
 70
0
 71
3
 72
9
 73
5
 74
0
 42
0.0000001
 43
0.0000001
 44
0.0000000001
 40
0.0
 40
0.0
 40
0.0
 40
0.0
 40
0.4999988717
 40
1.0
 40
1.0
 40
1.0
 40
1.0
 10
451.9619564041
 20
397.8455007369
 30
0.0
 10
452.3817164481
 20
397.603157645
 30
0.0
 10
453.0449338418
 20
396.8377669122
 30
0.0
 10
453.3761758544
 20
395.8807109888
 30
0.0
 10
453.3761758544
 20
395.3960143936
 30
0.0
  0
SPLINE
  5
454
100
AcDbEntity
  8
0
100
AcDbSpline
 62
7
  6
BYLAYER
 70
0
 71
3
 72
9
 73
5
 74
0
 42
0.0000001
 43
0.0000001
 44
0.0000000001
 40
0.0
 40
0.0
 40
0.0
 40
0.0
 40
0.5000011283
 40
1.0
 40
1.0
 40
1.0
 40
1.0
 10
62.5212770457
 20
343.1992546904
 30
0.0
 10
62.5212770457
 20
342.7255088782
 30
0.0
 10
62.8450352847
 20
341.7900757836
 30
0.0
 10
63.4932685635
 20
341.0419775756
 30
0.0
 10
63.9035449405
 20
340.8051097576
 30
0.0
  0
SPLINE
  5
455
100
AcDbEntity
  8
0
100
AcDbSpline
 62
7
  6
BYLAYER
 70
0
 71
3
 72
8
 73
4
 74
0
 42
0.0000001
 43
0.0000001
 44
0.0000000001
 40
0.0
 40
0.0
 40
0.0
 40
0.0
 40
1.0
 40
1.0
 40
1.0
 40
1.0
 10
466.3050128982
 20
130.6504732317
 30
0.0
 10
466.3967054696
 20
130.7140641683
 30
0.0
 10
466.4823043785
 20
130.7872424685
 30
0.0
 10
466.560166952
 20
130.8671721533
 30
0.0
  0
SPLINE
  5
456
100
AcDbEntity
  8
0
100
AcDbSpline
 62
7
  6
BYLAYER
 70
0
 71
3
 72
9
 73
5
 74
0
 42
0.0000001
 43
0.0000001
 44
0.0000000001
 40
0.0
 40
0.0
 40
0.0
 40
0.0
 40
0.2234424544
 40
1.0
 40
1.0
 40
1.0
 40
1.0
 10
466.6800194954
 20
131.0025998424
 30
0.0
 10
466.7753379823
 20
131.121004053
 30
0.0
 10
467.1409889236
 20
131.7005846901
 30
0.0
 10
467.2572843136
 20
132.4079892804
 30
0.0
 10
467.2573281354
 20
132.9362673025
 30
0.0
  0
SPLINE
  5
457
100
AcDbEntity
  8
0
100
AcDbSpline
 62
7
  6
BYLAYER
 70
0
 71
3
 72
9
 73
5
 74
0
 42
0.0000001
 43
0.0000001
 44
0.0000000001
 40
0.0
 40
0.0
 40
0.0
 40
0.0
 40
0.2129672562
 40
1.0
 40
1.0
 40
1.0
 40
1.0
 10
91.5408657161
 20
590.5376411584
 30
0.0
 10
91.5196592839
 20
590.5253833802
 30
0.0
 10
91.4447985162
 20
590.4300933907
 30
0.0
 10
91.4443261401
 20
590.3069366144
 30
0.0
 10
91.4420671594
 20
590.2164450767
 30
0.0
  0
SPLINE
  5
458
100
AcDbEntity
  8
0
100
AcDbSpline
 62
7
  6
BYLAYER
 70
0
 71
3
 72
9
 73
5
 74
0
 42
0.0000001
 43
0.0000001
 44
0.0000000001
 40
0.0
 40
0.0
 40
0.0
 40
0.0
 40
0.2135433006
 40
1.0
 40
1.0
 40
1.0
 40
1.0
 10
106.7305911736
 20
581.9257131398
 30
0.0
 10
106.7065850448
 20
581.9118446132
 30
0.0
 10
106.6126434799
 20
581.8140048185
 30
0.0
 10
106.6127352347
 20
581.6698597696
 30
0.0
 10
106.6095707633
 20
581.5678036795
 30
0.0
  0
SPLINE
  5
459
100
AcDbEntity
  8
0
100
AcDbSpline
 62
7
  6
BYLAYER
 70
0
 71
3
 72
8
 73
4
 74
0
 42
0.0000001
 43
0.0000001
 44
0.0000000001
 40
0.0
 40
0.0
 40
0.0
 40
0.0
 40
1.0
 40
1.0
 40
1.0
 40
1.0
 10
108.2650163936
 20
579.6896403614
 30
0.0
 10
108.2283891736
 20
579.6684885433
 30
0.0
 10
108.2005609177
 20
579.6308894582
 30
0.0
 10
108.1840315623
 20
579.5919570416
 30
0.0
  0
SPLINE
  5
45A
100
AcDbEntity
  8
0
100
AcDbSpline
 62
7
  6
BYLAYER
 70
0
 71
3
 72
8
 73
4
 74
0
 42
0.0000001
 43
0.0000001
 44
0.0000000001
 40
0.0
 40
0.0
 40
0.0
 40
0.0
 40
1.0
 40
1.0
 40
1.0
 40
1.0
 10
108.1840315623
 20
579.5919570416
 30
0.0
 10
108.151893185
 20
579.516259916
 30
0.0
 10
108.1499764969
 20
579.4301612337
 30
0.0
 10
108.147534416
 20
579.3479604651
 30
0.0
  0
SPLINE
  5
45B
100
AcDbEntity
  8
0
100
AcDbSpline
 62
7
  6
BYLAYER
 70
0
 71
3
 72
12
 73
8
 74
0
 42
0.0000001
 43
0.0000001
 44
0.0000000001
 40
0.0
 40
0.0
 40
0.0
 40
0.0
 40
0.1659789978
 40
0.3181381311
 40
0.581828325
 40
0.8019701578
 40
1.0
 40
1.0
 40
1.0
 40
1.0
 10
251.4507229819
 20
241.6519385367
 30
0.0
 10
251.5488345149
 20
241.5100267163
 30
0.0
 10
251.7354324789
 20
241.2353780792
 30
0.0
 10
252.1827444257
 20
240.8202932536
 30
0.0
 10
252.7904272533
 20
240.5277394114
 30
0.0
 10
253.5167365879
 20
240.4446913663
 30
0.0
 10
253.9319381097
 20
240.6009791669
 30
0.0
 10
254.123742017
 20
240.6756870452
 30
0.0
  0
SPLINE
  5
45C
100
AcDbEntity
  8
0
100
AcDbSpline
 62
7
  6
BYLAYER
 70
0
 71
3
 72
9
 73
5
 74
0
 42
0.0000001
 43
0.0000001
 44
0.0000000001
 40
0.0
 40
0.0
 40
0.0
 40
0.0
 40
0.4553250884
 40
1.0
 40
1.0
 40
1.0
 40
1.0
 10
251.1995514698
 20
243.243615364
 30
0.0
 10
251.1574742894
 20
242.998327612
 30
0.0
 10
251.1051731493
 20
242.4413342694
 30
0.0
 10
251.3148970519
 20
241.9168553269
 30
0.0
 10
251.4507229819
 20
241.6519385367
 30
0.0
  0
SPLINE
  5
45D
100
AcDbEntity
  8
0
100
AcDbSpline
 62
7
  6
BYLAYER
 70
0
 71
3
 72
8
 73
4
 74
0
 42
0.0000001
 43
0.0000001
 44
0.0000000001
 40
0.0
 40
0.0
 40
0.0
 40
0.0
 40
1.0
 40
1.0
 40
1.0
 40
1.0
 10
252.0237795217
 20
244.3640983167
 30
0.0
 10
251.9793387439
 20
244.3373410205
 30
0.0
 10
251.9350142694
 20
244.3103249521
 30
0.0
 10
251.8918854821
 20
244.2815005989
 30
0.0
  0
SPLINE
  5
45E
100
AcDbEntity
  8
0
100
AcDbSpline
 62
7
  6
BYLAYER
 70
0
 71
3
 72
8
 73
4
 74
0
 42
0.0000001
 43
0.0000001
 44
0.0000000001
 40
0.0
 40
0.0
 40
0.0
 40
0.0
 40
1.0
 40
1.0
 40
1.0
 40
1.0
 10
251.8918854821
 20
244.2815005989
 30
0.0
 10
251.8068021165
 20
244.224636654
 30
0.0
 10
251.7301256002
 20
244.155482471
 30
0.0
 10
251.6564788301
 20
244.0844272771
 30
0.0
  0
SPLINE
  5
45F
100
AcDbEntity
  8
0
100
AcDbSpline
 62
7
  6
BYLAYER
 70
0
 71
3
 72
9
 73
5
 74
0
 42
0.0000001
 43
0.0000001
 44
0.0000000001
 40
0.0
 40
0.0
 40
0.0
 40
0.0
 40
0.3009646664
 40
1.0
 40
1.0
 40
1.0
 40
1.0
 10
252.3147047983
 20
242.2525959738
 30
0.0
 10
252.3262342839
 20
242.2467235106
 30
0.0
 10
252.3639426908
 20
242.2251908438
 30
0.0
 10
252.4128467366
 20
242.2319379983
 30
0.0
 10
252.4396279915
 20
242.2455731442
 30
0.0
  0
SPLINE
  5
460
100
AcDbEntity
  8
0
100
AcDbSpline
 62
7
  6
BYLAYER
 70
0
 71
3
 72
9
 73
5
 74
0
 42
0.0000001
 43
0.0000001
 44
0.0000000001
 40
0.0
 40
0.0
 40
0.0
 40
0.0
 40
0.7050527495
 40
1.0
 40
1.0
 40
1.0
 40
1.0
 10
108.2518942925
 20
580.9644888923
 30
0.0
 10
108.1982047787
 20
580.9334893999
 30
0.0
 10
108.151516226
 20
580.8412565511
 30
0.0
 10
108.1488446084
 20
580.7545807992
 30
0.0
 10
108.1475344167
 20
580.7286788092
 30
0.0
  0
SPLINE
  5
461
100
AcDbEntity
  8
0
100
AcDbSpline
 62
7
  6
BYLAYER
 70
0
 71
3
 72
9
 73
5
 74
0
 42
0.0000001
 43
0.0000001
 44
0.0000000001
 40
0.0
 40
0.0
 40
0.0
 40
0.0
 40
0.7055072256
 40
1.0
 40
1.0
 40
1.0
 40
1.0
 10
109.5831340629
 20
576.6992662639
 30
0.0
 10
109.5381567083
 20
576.6732963988
 30
0.0
 10
109.4966704955
 20
576.5977670079
 30
0.0
 10
109.4942780327
 20
576.5249537465
 30
0.0
 10
109.4932526124
 20
576.5032986959
 30
0.0
  0
SPLINE
  5
462
100
AcDbEntity
  8
0
100
AcDbSpline
 62
7
  6
BYLAYER
 70
0
 71
3
 72
8
 73
4
 74
0
 42
0.0000001
 43
0.0000001
 44
0.0000000001
 40
0.0
 40
0.0
 40
0.0
 40
0.0
 40
1.0
 40
1.0
 40
1.0
 40
1.0
 10
110.3396793643
 20
577.894989734
 30
0.0
 10
110.3674429221
 20
577.9110205798
 30
0.0
 10
110.4005505596
 20
577.9182211158
 30
0.0
 10
110.4325635586
 20
577.9199447915
 30
0.0
  0
SPLINE
  5
463
100
AcDbEntity
  8
0
100
AcDbSpline
 62
7
  6
BYLAYER
 70
0
 71
3
 72
9
 73
5
 74
0
 42
0.0000001
 43
0.0000001
 44
0.0000000001
 40
0.0
 40
0.0
 40
0.0
 40
0.0
 40
0.2196953388
 40
1.0
 40
1.0
 40
1.0
 40
1.0
 10
110.4325635586
 20
577.9199447915
 30
0.0
 10
110.45640403
 20
577.9212284339
 30
0.0
 10
110.5658604539
 20
577.9130200249
 30
0.0
 10
110.6661357275
 20
577.8623647262
 30
0.0
 10
110.7403621465
 20
577.8213625396
 30
0.0
  0
SPLINE
  5
464
100
AcDbEntity
  8
0
100
AcDbSpline
 62
7
  6
BYLAYER
 70
0
 71
3
 72
9
 73
5
 74
0
 42
0.0000001
 43
0.0000001
 44
0.0000000001
 40
0.0
 40
0.0
 40
0.0
 40
0.0
 40
0.4955263907
 40
1.0
 40
1.0
 40
1.0
 40
1.0
 10
96.8815883568
 20
584.1285777707
 30
0.0
 10
96.8893375123
 20
584.1330516723
 30
0.0
 10
96.9057848811
 20
584.1407242272
 30
0.0
 10
96.9231360987
 20
584.1459089905
 30
0.0
 10
96.9319944149
 20
584.1480333387
 30
0.0
  0
SPLINE
  5
465
100
AcDbEntity
  8
0
100
AcDbSpline
 62
7
  6
BYLAYER
 70
0
 71
3
 72
10
 73
6
 74
0
 42
0.0000001
 43
0.0000001
 44
0.0000000001
 40
0.0
 40
0.0
 40
0.0
 40
0.0
 40
0.2335818352
 40
0.4900570946
 40
1.0
 40
1.0
 40
1.0
 40
1.0
 10
96.9319944149
 20
584.1480333387
 30
0.0
 10
97.0214934375
 20
584.1694964564
 30
0.0
 10
97.2206161564
 20
584.1218946053
 30
0.0
 10
97.585549123
 20
583.9902481439
 30
0.0
 10
97.8742689165
 20
583.889518662
 30
0.0
 10
98.0712208327
 20
583.8497379066
 30
0.0
  0
SPLINE
  5
466
100
AcDbEntity
  8
0
100
AcDbSpline
 62
7
  6
BYLAYER
 70
0
 71
3
 72
8
 73
4
 74
0
 42
0.0000001
 43
0.0000001
 44
0.0000000001
 40
0.0
 40
0.0
 40
0.0
 40
0.0
 40
1.0
 40
1.0
 40
1.0
 40
1.0
 10
259.6869802019
 20
238.7090683678
 30
0.0
 10
259.7519541655
 20
238.6663708866
 30
0.0
 10
259.8152513711
 20
238.6177679481
 30
0.0
 10
259.8640250656
 20
238.5572219527
 30
0.0
  0
SPLINE
  5
467
100
AcDbEntity
  8
0
100
AcDbSpline
 62
7
  6
BYLAYER
 70
0
 71
3
 72
9
 73
5
 74
0
 42
0.0000001
 43
0.0000001
 44
0.0000000001
 40
0.0
 40
0.0
 40
0.0
 40
0.0
 40
0.2637987469
 40
1.0
 40
1.0
 40
1.0
 40
1.0
 10
259.8640250656
 20
238.5572219527
 30
0.0
 10
259.8922192101
 20
238.5222227064
 30
0.0
 10
259.9874462824
 20
238.3794216881
 30
0.0
 10
260.0241234104
 20
238.2060471727
 30
0.0
 10
260.0350063416
 20
238.081095204
 30
0.0
  0
SPLINE
  5
468
100
AcDbEntity
  8
0
100
AcDbSpline
 62
7
  6
BYLAYER
 70
0
 71
3
 72
8
 73
4
 74
0
 42
0.0000001
 43
0.0000001
 44
0.0000000001
 40
0.0
 40
0.0
 40
0.0
 40
0.0
 40
1.0
 40
1.0
 40
1.0
 40
1.0
 10
96.2843678822
 20
584.7800478687
 30
0.0
 10
96.2287892556
 20
584.747960807
 30
0.0
 10
96.1798218181
 20
584.7010740985
 30
0.0
 10
96.1451279595
 20
584.6470842898
 30
0.0
  0
SPLINE
  5
469
100
AcDbEntity
  8
0
100
AcDbSpline
 62
7
  6
BYLAYER
 70
0
 71
3
 72
9
 73
5
 74
0
 42
0.0000001
 43
0.0000001
 44
0.0000000001
 40
0.0
 40
0.0
 40
0.0
 40
0.0
 40
0.2257589592
 40
1.0
 40
1.0
 40
1.0
 40
1.0
 10
96.1451279595
 20
584.6470842898
 30
0.0
 10
96.1291455541
 20
584.6222128271
 30
0.0
 10
96.0700073535
 20
584.5041870134
 30
0.0
 10
96.0583840036
 20
584.3692072759
 30
0.0
 10
96.055958116
 20
584.2678466559
 30
0.0
  0
SPLINE
  5
46A
100
AcDbEntity
  8
0
100
AcDbSpline
 62
7
  6
BYLAYER
 70
0
 71
3
 72
9
 73
5
 74
0
 42
0.0000001
 43
0.0000001
 44
0.0000000001
 40
0.0
 40
0.0
 40
0.0
 40
0.0
 40
0.4685179093
 40
1.0
 40
1.0
 40
1.0
 40
1.0
 10
96.9327500886
 20
585.5065647029
 30
0.0
 10
96.989611297
 20
585.539393364
 30
0.0
 10
97.1361811471
 20
585.5757149595
 30
0.0
 10
97.2701621093
 20
585.518636653
 30
0.0
 10
97.3378739006
 20
585.4876111928
 30
0.0
  0
SPLINE
  5
46B
100
AcDbEntity
  8
0
100
AcDbSpline
 62
7
  6
BYLAYER
 70
0
 71
3
 72
8
 73
4
 74
0
 42
0.0000001
 43
0.0000001
 44
0.0000000001
 40
0.0
 40
0.0
 40
0.0
 40
0.0
 40
1.0
 40
1.0
 40
1.0
 40
1.0
 10
97.3378739006
 20
585.4876111928
 30
0.0
 10
97.3969789798
 20
585.4605293177
 30
0.0
 10
97.4542372549
 20
585.4294908869
 30
0.0
 10
97.5110573466
 20
585.3978947554
 30
0.0
  0
SPLINE
  5
46C
100
AcDbEntity
  8
0
100
AcDbSpline
 62
7
  6
BYLAYER
 70
0
 71
3
 72
9
 73
5
 74
0
 42
0.0000001
 43
0.0000001
 44
0.0000000001
 40
0.0
 40
0.0
 40
0.0
 40
0.0
 40
0.7069767092
 40
1.0
 40
1.0
 40
1.0
 40
1.0
 10
99.5830908973
 20
581.0955815919
 30
0.0
 10
99.5331401466
 20
581.0667359401
 30
0.0
 10
99.4948786034
 20
580.977839177
 30
0.0
 10
99.4924288487
 20
580.8978803794
 30
0.0
 10
99.4915170072
 20
580.8739903296
 30
0.0
  0
SPLINE
  5
46D
100
AcDbEntity
  8
0
100
AcDbSpline
 62
7
  6
BYLAYER
 70
0
 71
3
 72
9
 73
5
 74
0
 42
0.0000001
 43
0.0000001
 44
0.0000000001
 40
0.0
 40
0.0
 40
0.0
 40
0.0
 40
0.2114705178
 40
1.0
 40
1.0
 40
1.0
 40
1.0
 10
99.7961555909
 20
584.2963055062
 30
0.0
 10
99.7242906783
 20
584.2548146794
 30
0.0
 10
99.4302478385
 20
583.9739878386
 30
0.0
 10
99.4022886413
 20
583.5352778343
 30
0.0
 10
99.3970515666
 20
583.2258986311
 30
0.0
  0
SPLINE
  5
46E
100
AcDbEntity
  8
0
100
AcDbSpline
 62
7
  6
BYLAYER
 70
0
 71
3
 72
9
 73
5
 74
0
 42
0.0000001
 43
0.0000001
 44
0.0000000001
 40
0.0
 40
0.0
 40
0.0
 40
0.0
 40
0.2107041977
 40
1.0
 40
1.0
 40
1.0
 40
1.0
 10
101.7677053885
 20
583.451118802
 30
0.0
 10
101.7462786905
 20
583.4387489368
 30
0.0
 10
101.6593884135
 20
583.3530742827
 30
0.0
 10
101.6544940401
 20
583.2219518617
 30
0.0
 10
101.6526211054
 20
583.1292912613
 30
0.0
  0
SPLINE
  5
46F
100
AcDbEntity
  8
0
100
AcDbSpline
 62
7
  6
BYLAYER
 70
0
 71
3
 72
9
 73
5
 74
0
 42
0.0000001
 43
0.0000001
 44
0.0000000001
 40
0.0
 40
0.0
 40
0.0
 40
0.0
 40
0.2174296961
 40
1.0
 40
1.0
 40
1.0
 40
1.0
 10
104.0292257526
 20
581.4267438669
 30
0.0
 10
104.0592511952
 20
581.4440789772
 30
0.0
 10
104.2144476604
 20
581.497708609
 30
0.0
 10
104.3800802963
 20
581.4280052646
 30
0.0
 10
104.4898988768
 20
581.3687498716
 30
0.0
  0
SPLINE
  5
470
100
AcDbEntity
  8
0
100
AcDbSpline
 62
7
  6
BYLAYER
 70
0
 71
3
 72
8
 73
4
 74
0
 42
0.0000001
 43
0.0000001
 44
0.0000000001
 40
0.0
 40
0.0
 40
0.0
 40
0.0
 40
1.0
 40
1.0
 40
1.0
 40
1.0
 10
266.7513446305
 20
235.2921194986
 30
0.0
 10
266.7718789411
 20
235.2290013301
 30
0.0
 10
266.8200328961
 20
235.1666410576
 30
0.0
 10
266.8813910943
 20
235.1413283608
 30
0.0
  0
SPLINE
  5
471
100
AcDbEntity
  8
0
100
AcDbSpline
 62
7
  6
BYLAYER
 70
0
 71
3
 72
8
 73
4
 74
0
 42
0.0000001
 43
0.0000001
 44
0.0000000001
 40
0.0
 40
0.0
 40
0.0
 40
0.0
 40
1.0
 40
1.0
 40
1.0
 40
1.0
 10
266.8813910943
 20
235.1413283608
 30
0.0
 10
266.9065507037
 20
235.1309490215
 30
0.0
 10
266.9347077056
 20
235.1283676648
 30
0.0
 10
266.9619191163
 20
235.127842541
 30
0.0
  0
SPLINE
  5
472
100
AcDbEntity
  8
0
100
AcDbSpline
 62
7
  6
BYLAYER
 70
0
 71
3
 72
8
 73
4
 74
0
 42
0.0000001
 43
0.0000001
 44
0.0000000001
 40
0.0
 40
0.0
 40
0.0
 40
0.0
 40
1.0
 40
1.0
 40
1.0
 40
1.0
 10
260.0507873809
 20
243.8878604237
 30
0.0
 10
260.095747041
 20
243.7497209669
 30
0.0
 10
260.1809917937
 20
243.614858976
 30
0.0
 10
260.2982726023
 20
243.5291321278
 30
0.0
  0
SPLINE
  5
473
100
AcDbEntity
  8
0
100
AcDbSpline
 62
7
  6
BYLAYER
 70
0
 71
3
 72
9
 73
5
 74
0
 42
0.0000001
 43
0.0000001
 44
0.0000000001
 40
0.0
 40
0.0
 40
0.0
 40
0.0
 40
0.2887342891
 40
1.0
 40
1.0
 40
1.0
 40
1.0
 10
260.2982726023
 20
243.5291321278
 30
0.0
 10
260.3265382405
 20
243.5084712532
 30
0.0
 10
260.4298389418
 20
243.4427387862
 30
0.0
 10
260.5559166433
 20
243.4269742434
 30
0.0
 10
260.6421547453
 20
243.4257010565
 30
0.0
  0
SPLINE
  5
474
100
AcDbEntity
  8
0
100
AcDbSpline
 62
7
  6
BYLAYER
 70
0
 71
3
 72
8
 73
4
 74
0
 42
0.0000001
 43
0.0000001
 44
0.0000000001
 40
0.0
 40
0.0
 40
0.0
 40
0.0
 40
1.0
 40
1.0
 40
1.0
 40
1.0
 10
254.0466438072
 20
244.6206332629
 30
0.0
 10
254.1514185714
 20
244.5391111527
 30
0.0
 10
254.2569061105
 20
244.4580456428
 30
0.0
 10
254.3550984058
 20
244.3687042817
 30
0.0
  0
SPLINE
  5
475
100
AcDbEntity
  8
0
100
AcDbSpline
 62
7
  6
BYLAYER
 70
0
 71
3
 72
8
 73
4
 74
0
 42
0.0000001
 43
0.0000001
 44
0.0000000001
 40
0.0
 40
0.0
 40
0.0
 40
0.0
 40
1.0
 40
1.0
 40
1.0
 40
1.0
 10
254.3550984058
 20
244.3687042817
 30
0.0
 10
254.4543083964
 20
244.2784369589
 30
0.0
 10
254.5448840264
 20
244.1781017228
 30
0.0
 10
254.6267742637
 20
244.0718717796
 30
0.0
  0
SPLINE
  5
476
100
AcDbEntity
  8
0
100
AcDbSpline
 62
7
  6
BYLAYER
 70
0
 71
3
 72
8
 73
4
 74
0
 42
0.0000001
 43
0.0000001
 44
0.0000000001
 40
0.0
 40
0.0
 40
0.0
 40
0.0
 40
1.0
 40
1.0
 40
1.0
 40
1.0
 10
254.6267742637
 20
244.0718717796
 30
0.0
 10
254.7164215011
 20
243.9555792733
 30
0.0
 10
254.795331356
 20
243.8312720202
 30
0.0
 10
254.8741244399
 20
243.7073679278
 30
0.0
  0
SPLINE
  5
477
100
AcDbEntity
  8
0
100
AcDbSpline
 62
7
  6
BYLAYER
 70
0
 71
3
 72
12
 73
8
 74
0
 42
0.0000001
 43
0.0000001
 44
0.0000000001
 40
0.0
 40
0.0
 40
0.0
 40
0.0
 40
0.1824516275
 40
0.2966371014
 40
0.4227444711
 40
0.7013096411
 40
1.0
 40
1.0
 40
1.0
 40
1.0
 10
245.3823052622
 20
252.7365729977
 30
0.0
 10
245.2552033686
 20
252.6631910692
 30
0.0
 10
245.1093821758
 20
252.437281299
 30
0.0
 10
245.0791027993
 20
252.0983088192
 30
0.0
 10
245.1072757156
 20
251.6797332265
 30
0.0
 10
245.2912443253
 20
251.1344478526
 30
0.0
 10
245.5508598165
 20
250.7445575331
 30
0.0
 10
245.7018351883
 20
250.557649239
 30
0.0
  0
SPLINE
  5
478
100
AcDbEntity
  8
0
100
AcDbSpline
 62
7
  6
BYLAYER
 70
0
 71
3
 72
9
 73
5
 74
0
 42
0.0000001
 43
0.0000001
 44
0.0000000001
 40
0.0
 40
0.0
 40
0.0
 40
0.0
 40
0.540863466
 40
1.0
 40
1.0
 40
1.0
 40
1.0
 10
245.7018351883
 20
250.557649239
 30
0.0
 10
245.9669124215
 20
250.2294822481
 30
0.0
 10
246.4211777163
 20
249.8817302533
 30
0.0
 10
247.2973573065
 20
248.8322135828
 30
0.0
 10
246.9872259057
 20
248.6531596293
 30
0.0
  0
SPLINE
  5
479
100
AcDbEntity
  8
0
100
AcDbSpline
 62
7
  6
BYLAYER
 70
0
 71
3
 72
9
 73
5
 74
0
 42
0.0000001
 43
0.0000001
 44
0.0000000001
 40
0.0
 40
0.0
 40
0.0
 40
0.0
 40
0.4808959376
 40
1.0
 40
1.0
 40
1.0
 40
1.0
 10
252.8282511566
 20
245.0124670389
 30
0.0
 10
252.9644491833
 20
245.0065185798
 30
0.0
 10
253.2503529776
 20
244.9921893158
 30
0.0
 10
253.5183401366
 20
244.8907280808
 30
0.0
 10
253.6558522551
 20
244.838322923
 30
0.0
  0
SPLINE
  5
47A
100
AcDbEntity
  8
0
100
AcDbSpline
 62
7
  6
BYLAYER
 70
0
 71
3
 72
12
 73
8
 74
0
 42
0.0000001
 43
0.0000001
 44
0.0000000001
 40
0.0
 40
0.0
 40
0.0
 40
0.0
 40
0.0911090784
 40
0.2006604118
 40
0.4505168991
 40
0.7207892665
 40
1.0
 40
1.0
 40
1.0
 40
1.0
 10
246.1579911375
 20
251.756419872
 30
0.0
 10
246.215792547
 20
251.7897913324
 30
0.0
 10
246.3792448214
 20
251.7754511062
 30
0.0
 10
246.677320296
 20
251.6459015317
 30
0.0
 10
247.0577045455
 20
251.3715566794
 30
0.0
 10
247.4812533749
 20
250.9688202132
 30
0.0
 10
247.7555094309
 20
250.6735213191
 30
0.0
 10
247.894688509
 20
250.5236357913
 30
0.0
  0
SPLINE
  5
47B
100
AcDbEntity
  8
0
100
AcDbSpline
 62
7
  6
BYLAYER
 70
0
 71
3
 72
9
 73
5
 74
0
 42
0.0000001
 43
0.0000001
 44
0.0000000001
 40
0.0
 40
0.0
 40
0.0
 40
0.0
 40
0.4213125092
 40
1.0
 40
1.0
 40
1.0
 40
1.0
 10
249.3496694988
 20
248.4942424476
 30
0.0
 10
249.5343837063
 20
248.6008736419
 30
0.0
 10
250.1220105671
 20
248.3810262239
 30
0.0
 10
250.4364162566
 20
248.0190591382
 30
0.0
 10
250.6372163997
 20
247.805752273
 30
0.0
  0
SPLINE
  5
47C
100
AcDbEntity
  8
0
100
AcDbSpline
 62
7
  6
BYLAYER
 70
0
 71
3
 72
9
 73
5
 74
0
 42
0.0000001
 43
0.0000001
 44
0.0000000001
 40
0.0
 40
0.0
 40
0.0
 40
0.0
 40
0.7316542641
 40
1.0
 40
1.0
 40
1.0
 40
1.0
 10
248.6411766577
 20
249.3757144355
 30
0.0
 10
248.5474531489
 20
249.3216031148
 30
0.0
 10
248.438903893
 20
249.2088939581
 30
0.0
 10
248.3735433598
 20
249.0762619141
 30
0.0
 10
248.3580660647
 20
249.0397114619
 30
0.0
  0
SPLINE
  5
47D
100
AcDbEntity
  8
0
100
AcDbSpline
 62
7
  6
BYLAYER
 70
0
 71
3
 72
9
 73
5
 74
0
 42
0.0000001
 43
0.0000001
 44
0.0000000001
 40
0.0
 40
0.0
 40
0.0
 40
0.0
 40
0.2138972756
 40
1.0
 40
1.0
 40
1.0
 40
1.0
 10
248.3580660647
 20
249.0397114619
 30
0.0
 10
248.3207036986
 20
248.9514782555
 30
0.0
 10
248.208176666
 20
248.5133877318
 30
0.0
 10
248.2836009791
 20
248.0462327413
 30
0.0
 10
248.3962435746
 20
247.7125908119
 30
0.0
  0
SPLINE
  5
47E
100
AcDbEntity
  8
0
100
AcDbSpline
 62
7
  6
BYLAYER
 70
0
 71
3
 72
10
 73
6
 74
0
 42
0.0000001
 43
0.0000001
 44
0.0000000001
 40
0.0
 40
0.0
 40
0.0
 40
0.0
 40
0.5529279917
 40
0.7907695697
 40
1.0
 40
1.0
 40
1.0
 40
1.0
 10
248.3962435746
 20
247.7125908119
 30
0.0
 10
248.581099552
 20
247.1650563313
 30
0.0
 10
249.1117875188
 20
246.4595372319
 30
0.0
 10
250.0033377291
 20
245.8949550686
 30
0.0
 10
250.4628695215
 20
245.7822098998
 30
0.0
 10
250.6774520281
 20
245.7400805024
 30
0.0
  0
SPLINE
  5
47F
100
AcDbEntity
  8
0
100
AcDbSpline
 62
7
  6
BYLAYER
 70
0
 71
3
 72
11
 73
7
 74
0
 42
0.0000001
 43
0.0000001
 44
0.0000000001
 40
0.0
 40
0.0
 40
0.0
 40
0.0
 40
0.29752168
 40
0.5685675781
 40
0.8078427198
 40
1.0
 40
1.0
 40
1.0
 40
1.0
 10
245.1661346691
 20
249.1514882312
 30
0.0
 10
245.374822048
 20
248.9222009185
 30
0.0
 10
245.7671795995
 20
248.4777397866
 30
0.0
 10
246.4369297889
 20
247.9522752462
 30
0.0
 10
247.0839276222
 20
247.6240891471
 30
0.0
 10
247.5857531499
 20
247.5875745436
 30
0.0
 10
247.7591668267
 20
247.6876944059
 30
0.0
  0
SPLINE
  5
480
100
AcDbEntity
  8
0
100
AcDbSpline
 62
7
  6
BYLAYER
 70
0
 71
3
 72
8
 73
4
 74
0
 42
0.0000001
 43
0.0000001
 44
0.0000000001
 40
0.0
 40
0.0
 40
0.0
 40
0.0
 40
1.0
 40
1.0
 40
1.0
 40
1.0
 10
252.0287620151
 20
247.0064789698
 30
0.0
 10
252.0990971393
 20
247.0470829535
 30
0.0
 10
252.1895614053
 20
247.063905555
 30
0.0
 10
252.2690044033
 20
247.0470377378
 30
0.0
  0
SPLINE
  5
481
100
AcDbEntity
  8
0
100
AcDbSpline
 62
7
  6
BYLAYER
 70
0
 71
3
 72
9
 73
5
 74
0
 42
0.0000001
 43
0.0000001
 44
0.0000000001
 40
0.0
 40
0.0
 40
0.0
 40
0.0
 40
0.4885258257
 40
1.0
 40
1.0
 40
1.0
 40
1.0
 10
252.2690044033
 20
247.0470377378
 30
0.0
 10
252.4563024837
 20
247.0072694779
 30
0.0
 10
252.7739722803
 20
246.6785375227
 30
0.0
 10
252.8220016096
 20
246.282257609
 30
0.0
 10
252.8282511564
 20
246.081887182
 30
0.0
  0
SPLINE
  5
482
100
AcDbEntity
  8
0
100
AcDbSpline
 62
7
  6
BYLAYER
 70
0
 71
3
 72
9
 73
5
 74
0
 42
0.0000001
 43
0.0000001
 44
0.0000000001
 40
0.0
 40
0.0
 40
0.0
 40
0.0
 40
0.5000011283
 40
1.0
 40
1.0
 40
1.0
 40
1.0
 10
88.472205725
 20
586.5950836205
 30
0.0
 10
88.4722496782
 20
585.8680420541
 30
0.0
 10
88.9691086252
 20
584.4324778681
 30
0.0
 10
89.9639196914
 20
583.2844051456
 30
0.0
 10
90.5935349005
 20
582.9208541055
 30
0.0
  0
SPLINE
  5
483
100
AcDbEntity
  8
0
100
AcDbSpline
 62
7
  6
BYLAYER
 70
0
 71
3
 72
9
 73
5
 74
0
 42
0.0000001
 43
0.0000001
 44
0.0000000001
 40
0.0
 40
0.0
 40
0.0
 40
0.0
 40
0.4259707465
 40
1.0
 40
1.0
 40
1.0
 40
1.0
 10
255.0856672955
 20
245.3176590856
 30
0.0
 10
255.1522222372
 20
245.3560841954
 30
0.0
 10
255.3497836664
 20
245.3818949808
 30
0.0
 10
255.5083551794
 20
245.2708237723
 30
0.0
 10
255.5834449084
 20
245.1995024092
 30
0.0
  0
SPLINE
  5
484
100
AcDbEntity
  8
0
100
AcDbSpline
 62
7
  6
BYLAYER
 70
0
 71
3
 72
9
 73
5
 74
0
 42
0.0000001
 43
0.0000001
 44
0.0000000001
 40
0.0
 40
0.0
 40
0.0
 40
0.0
 40
0.5194652265
 40
1.0
 40
1.0
 40
1.0
 40
1.0
 10
255.5834449084
 20
245.1995024092
 30
0.0
 10
255.6858443957
 20
245.1022418236
 30
0.0
 10
255.8347571167
 20
244.8572407564
 30
0.0
 10
255.8597878542
 20
244.5824967704
 30
0.0
 10
255.8642341093
 20
244.4519287834
 30
0.0
  0
SPLINE
  5
485
100
AcDbEntity
  8
0
100
AcDbSpline
 62
7
  6
BYLAYER
 70
0
 71
3
 72
9
 73
5
 74
0
 42
0.0000001
 43
0.0000001
 44
0.0000000001
 40
0.0
 40
0.0
 40
0.0
 40
0.0
 40
0.4337797728
 40
1.0
 40
1.0
 40
1.0
 40
1.0
 10
260.2098762337
 20
244.3950018914
 30
0.0
 10
260.1393584166
 20
244.3542845773
 30
0.0
 10
260.0077440186
 20
244.1925637835
 30
0.0
 10
260.030582168
 20
243.9922128273
 30
0.0
 10
260.0507873809
 20
243.8878604237
 30
0.0
  0
SPLINE
  5
486
100
AcDbEntity
  8
0
100
AcDbSpline
 62
7
  6
BYLAYER
 70
0
 71
3
 72
11
 73
7
 74
0
 42
0.0000001
 43
0.0000001
 44
0.0000000001
 40
0.0
 40
0.0
 40
0.0
 40
0.0
 40
0.1805825991
 40
0.4164522936
 40
0.7014697707
 40
1.0
 40
1.0
 40
1.0
 40
1.0
 10
268.717252139
 20
237.2028902168
 30
0.0
 10
268.7726371083
 20
237.2348610554
 30
0.0
 10
268.9310586564
 20
237.2649817921
 30
0.0
 10
269.156372576
 20
237.1317394488
 30
0.0
 10
269.3562481002
 20
236.9232182796
 30
0.0
 10
269.4840626125
 20
236.760037322
 30
0.0
 10
269.5490459273
 20
236.6766482047
 30
0.0
  0
SPLINE
  5
487
100
AcDbEntity
  8
0
100
AcDbSpline
 62
7
  6
BYLAYER
 70
0
 71
3
 72
9
 73
5
 74
0
 42
0.0000001
 43
0.0000001
 44
0.0000000001
 40
0.0
 40
0.0
 40
0.0
 40
0.0
 40
0.7194379113
 40
1.0
 40
1.0
 40
1.0
 40
1.0
 10
268.2816648528
 20
233.5850381186
 30
0.0
 10
268.3244146859
 20
233.6097223276
 30
0.0
 10
268.3992889793
 20
233.6181374049
 30
0.0
 10
268.4657088687
 20
233.6021566802
 30
0.0
 10
268.4841168419
 20
233.5965225617
 30
0.0
  0
SPLINE
  5
488
100
AcDbEntity
  8
0
100
AcDbSpline
 62
7
  6
BYLAYER
 70
0
 71
3
 72
9
 73
5
 74
0
 42
0.0000001
 43
0.0000001
 44
0.0000000001
 40
0.0
 40
0.0
 40
0.0
 40
0.0
 40
0.2179138607
 40
1.0
 40
1.0
 40
1.0
 40
1.0
 10
268.4841168419
 20
233.5965225617
 30
0.0
 10
268.5329236574
 20
233.5815842856
 30
0.0
 10
268.7450843193
 20
233.474105776
 30
0.0
 10
268.8938898957
 20
233.28185236
 30
0.0
 10
269.004901217
 20
233.1361333673
 30
0.0
  0
SPLINE
  5
489
100
AcDbEntity
  8
0
100
AcDbSpline
 62
7
  6
BYLAYER
 70
0
 71
3
 72
12
 73
8
 74
0
 42
0.0000001
 43
0.0000001
 44
0.0000000001
 40
0.0
 40
0.0
 40
0.0
 40
0.0
 40
0.1990347841
 40
0.3295889528
 40
0.4765856412
 40
0.7716389723
 40
1.0
 40
1.0
 40
1.0
 40
1.0
 10
268.0560298105
 20
233.9431520031
 30
0.0
 10
267.9035905838
 20
233.8551553612
 30
0.0
 10
267.8135499698
 20
233.5122348223
 30
0.0
 10
267.8496690502
 20
233.1027718708
 30
0.0
 10
268.0085574388
 20
232.614045771
 30
0.0
 10
268.3947459382
 20
232.126548341
 30
0.0
 10
268.8398272615
 20
231.9459037272
 30
0.0
 10
269.0385112178
 20
231.9097365303
 30
0.0
  0
SPLINE
  5
48A
100
AcDbEntity
  8
0
100
AcDbSpline
 62
7
  6
BYLAYER
 70
0
 71
3
 72
9
 73
5
 74
0
 42
0.0000001
 43
0.0000001
 44
0.0000000001
 40
0.0
 40
0.0
 40
0.0
 40
0.0
 40
0.2072244323
 40
1.0
 40
1.0
 40
1.0
 40
1.0
 10
266.8057536614
 20
235.4694137145
 30
0.0
 10
266.7942057058
 20
235.4627455216
 30
0.0
 10
266.744078204
 20
235.4191504562
 30
0.0
 10
266.7419699184
 20
235.3422659501
 30
0.0
 10
266.7513446305
 20
235.2921194986
 30
0.0
  0
SPLINE
  5
48B
100
AcDbEntity
  8
0
100
AcDbSpline
 62
7
  6
BYLAYER
 70
0
 71
3
 72
9
 73
5
 74
0
 42
0.0000001
 43
0.0000001
 44
0.0000000001
 40
0.0
 40
0.0
 40
0.0
 40
0.0
 40
0.7170254711
 40
1.0
 40
1.0
 40
1.0
 40
1.0
 10
265.3260988879
 20
235.3021492017
 30
0.0
 10
265.365997801
 20
235.3251909471
 30
0.0
 10
265.4366569069
 20
235.3344704707
 30
0.0
 10
265.4981146455
 20
235.3154037345
 30
0.0
 10
265.5148775795
 20
235.3083585039
 30
0.0
  0
SPLINE
  5
48C
100
AcDbEntity
  8
0
100
AcDbSpline
 62
7
  6
BYLAYER
 70
0
 71
3
 72
9
 73
5
 74
0
 42
0.0000001
 43
0.0000001
 44
0.0000000001
 40
0.0
 40
0.0
 40
0.0
 40
0.0
 40
0.2247458718
 40
1.0
 40
1.0
 40
1.0
 40
1.0
 10
265.5148775795
 20
235.3083585039
 30
0.0
 10
265.5479253434
 20
235.2944689833
 30
0.0
 10
265.6798610354
 20
235.1993434345
 30
0.0
 10
265.7650773783
 20
235.0599793943
 30
0.0
 10
265.8307438161
 20
234.9551995949
 30
0.0
  0
SPLINE
  5
48D
100
AcDbEntity
  8
0
100
AcDbSpline
 62
7
  6
BYLAYER
 70
0
 71
3
 72
9
 73
5
 74
0
 42
0.0000001
 43
0.0000001
 44
0.0000000001
 40
0.0
 40
0.0
 40
0.0
 40
0.0
 40
0.4991106811
 40
1.0
 40
1.0
 40
1.0
 40
1.0
 10
265.3805778293
 20
235.5720798385
 30
0.0
 10
265.3722536786
 20
235.5672757751
 30
0.0
 10
265.3559965893
 20
235.5569060344
 30
0.0
 10
265.3406269061
 20
235.5452728028
 30
0.0
 10
265.3331461971
 20
235.5391843693
 30
0.0
  0
SPLINE
  5
48E
100
AcDbEntity
  8
0
100
AcDbSpline
 62
7
  6
BYLAYER
 70
0
 71
3
 72
8
 73
4
 74
0
 42
0.0000001
 43
0.0000001
 44
0.0000000001
 40
0.0
 40
0.0
 40
0.0
 40
0.0
 40
1.0
 40
1.0
 40
1.0
 40
1.0
 10
265.3331461971
 20
235.5391843693
 30
0.0
 10
265.3129223425
 20
235.5227244865
 30
0.0
 10
265.2942467255
 20
235.504297854
 30
0.0
 10
265.2768164022
 20
235.4849041473
 30
0.0
  0
SPLINE
  5
48F
100
AcDbEntity
  8
0
100
AcDbSpline
 62
7
  6
BYLAYER
 70
0
 71
3
 72
8
 73
4
 74
0
 42
0.0000001
 43
0.0000001
 44
0.0000000001
 40
0.0
 40
0.0
 40
0.0
 40
0.0
 40
1.0
 40
1.0
 40
1.0
 40
1.0
 10
265.2768164022
 20
235.4849041473
 30
0.0
 10
265.2469888905
 20
235.4517168102
 30
0.0
 10
265.220472667
 20
235.4156672547
 30
0.0
 10
265.1936798396
 20
235.3799849875
 30
0.0
  0
SPLINE
  5
490
100
AcDbEntity
  8
0
100
AcDbSpline
 62
7
  6
BYLAYER
 70
0
 71
3
 72
8
 73
4
 74
0
 42
0.0000001
 43
0.0000001
 44
0.0000000001
 40
0.0
 40
0.0
 40
0.0
 40
0.0
 40
1.0
 40
1.0
 40
1.0
 40
1.0
 10
261.5283163235
 20
237.4831299992
 30
0.0
 10
261.5820435842
 20
237.5141502613
 30
0.0
 10
261.6535705428
 20
237.5151491663
 30
0.0
 10
261.7136848627
 20
237.4998147687
 30
0.0
  0
SPLINE
  5
491
100
AcDbEntity
  8
0
100
AcDbSpline
 62
7
  6
BYLAYER
 70
0
 71
3
 72
9
 73
5
 74
0
 42
0.0000001
 43
0.0000001
 44
0.0000000001
 40
0.0
 40
0.0
 40
0.0
 40
0.0
 40
0.2151009175
 40
1.0
 40
1.0
 40
1.0
 40
1.0
 10
261.7136848627
 20
237.4998147687
 30
0.0
 10
261.7637360315
 20
237.4870473529
 30
0.0
 10
261.9849755445
 20
237.3830666128
 30
0.0
 10
262.1381036883
 20
237.1847704774
 30
0.0
 10
262.25218221
 20
237.0347293057
 30
0.0
  0
SPLINE
  5
492
100
AcDbEntity
  8
0
100
AcDbSpline
 62
7
  6
BYLAYER
 70
0
 71
3
 72
12
 73
8
 74
0
 42
0.0000001
 43
0.0000001
 44
0.0000000001
 40
0.0
 40
0.0
 40
0.0
 40
0.0
 40
0.1990925609
 40
0.3296089609
 40
0.476557219
 40
0.7717289879
 40
1.0
 40
1.0
 40
1.0
 40
1.0
 10
261.3050784752
 20
237.8413433004
 30
0.0
 10
261.1527280505
 20
237.7533905123
 30
0.0
 10
261.0629681004
 20
237.4106956483
 30
0.0
 10
261.0985771111
 20
237.0016352974
 30
0.0
 10
261.2565113435
 20
236.5129615435
 30
0.0
 10
261.6419307124
 20
236.0258480563
 30
0.0
 10
262.0864829935
 20
235.8440385057
 30
0.0
 10
262.2850694152
 20
235.8087497646
 30
0.0
  0
SPLINE
  5
493
100
AcDbEntity
  8
0
100
AcDbSpline
 62
7
  6
BYLAYER
 70
0
 71
3
 72
11
 73
7
 74
0
 42
0.0000001
 43
0.0000001
 44
0.0000000001
 40
0.0
 40
0.0
 40
0.0
 40
0.0
 40
0.1840729638
 40
0.4370613416
 40
0.7283824058
 40
1.0
 40
1.0
 40
1.0
 40
1.0
 10
258.0720292263
 20
243.6769088901
 30
0.0
 10
258.1566280475
 20
243.7257541706
 30
0.0
 10
258.4215720043
 20
243.6854567067
 30
0.0
 10
258.7247444411
 20
243.4441798731
 30
0.0
 10
258.9658387977
 20
243.0682958979
 30
0.0
 10
259.0181846604
 20
242.7700485948
 30
0.0
 10
259.0371868509
 20
242.6271593337
 30
0.0
  0
SPLINE
  5
494
100
AcDbEntity
  8
0
100
AcDbSpline
 62
7
  6
BYLAYER
 70
0
 71
3
 72
9
 73
5
 74
0
 42
0.0000001
 43
0.0000001
 44
0.0000000001
 40
0.0
 40
0.0
 40
0.0
 40
0.0
 40
0.2100563982
 40
1.0
 40
1.0
 40
1.0
 40
1.0
 10
257.4053494201
 20
244.3537086586
 30
0.0
 10
257.3235258085
 20
244.3064680144
 30
0.0
 10
256.9926049812
 20
243.9762445665
 30
0.0
 10
256.9908221683
 20
243.4561895102
 30
0.0
 10
257.0436050961
 20
243.1048217879
 30
0.0
  0
SPLINE
  5
495
100
AcDbEntity
  8
0
100
AcDbSpline
 62
7
  6
BYLAYER
 70
0
 71
3
 72
11
 73
7
 74
0
 42
0.0000001
 43
0.0000001
 44
0.0000000001
 40
0.0
 40
0.0
 40
0.0
 40
0.0
 40
0.2859271956
 40
0.5454233227
 40
0.7833945664
 40
1.0
 40
1.0
 40
1.0
 40
1.0
 10
258.1780585545
 20
241.2416862587
 30
0.0
 10
258.3046370466
 20
241.1435920793
 30
0.0
 10
258.5591940392
 20
240.9723049459
 30
0.0
 10
258.9519570239
 20
240.7764568871
 30
0.0
 10
259.3448376498
 20
240.6662596576
 30
0.0
 10
259.6013273082
 20
240.7001524052
 30
0.0
 10
259.7213129992
 20
240.718056965
 30
0.0
  0
SPLINE
  5
496
100
AcDbEntity
  8
0
100
AcDbSpline
 62
7
  6
BYLAYER
 70
0
 71
3
 72
10
 73
6
 74
0
 42
0.0000001
 43
0.0000001
 44
0.0000000001
 40
0.0
 40
0.0
 40
0.0
 40
0.0
 40
0.1866742606
 40
0.5522310222
 40
1.0
 40
1.0
 40
1.0
 40
1.0
 10
262.3050788017
 20
241.1438663954
 30
0.0
 10
262.3648711696
 20
241.1783934695
 30
0.0
 10
262.5857283794
 20
241.1974943289
 30
0.0
 10
262.9143080161
 20
240.9918136262
 30
0.0
 10
263.1144861986
 20
240.7679170983
 30
0.0
 10
263.2156689041
 20
240.6368032048
 30
0.0
  0
SPLINE
  5
497
100
AcDbEntity
  8
0
100
AcDbSpline
 62
7
  6
BYLAYER
 70
0
 71
3
 72
10
 73
6
 74
0
 42
0.0000001
 43
0.0000001
 44
0.0000000001
 40
0.0
 40
0.0
 40
0.0
 40
0.0
 40
0.4190714078
 40
0.6929125306
 40
1.0
 40
1.0
 40
1.0
 40
1.0
 10
261.6422658638
 20
241.9606276835
 30
0.0
 10
261.4087457144
 20
241.8258072667
 30
0.0
 10
261.2268688638
 20
241.3280274365
 30
0.0
 10
261.2583363054
 20
240.6975616484
 30
0.0
 10
261.3384874051
 20
240.3264421683
 30
0.0
 10
261.4018277532
 20
240.1392792583
 30
0.0
  0
SPLINE
  5
498
100
AcDbEntity
  8
0
100
AcDbSpline
 62
7
  6
BYLAYER
 70
0
 71
3
 72
13
 73
9
 74
0
 42
0.0000001
 43
0.0000001
 44
0.0000000001
 40
0.0
 40
0.0
 40
0.0
 40
0.0
 40
0.2894891604
 40
0.5698123225
 40
0.6965489051
 40
0.8108039893
 40
0.9095615078
 40
1.0
 40
1.0
 40
1.0
 40
1.0
 10
261.4018277532
 20
240.1392792583
 30
0.0
 10
261.4817118234
 20
239.9032316917
 30
0.0
 10
261.6958069845
 20
239.4564840595
 30
0.0
 10
262.087689536
 20
238.9893720572
 30
0.0
 10
262.453034846
 20
238.7274688344
 30
0.0
 10
262.7136561698
 20
238.5881379042
 30
0.0
 10
262.9783347513
 20
238.5500302908
 30
0.0
 10
263.1396113986
 20
238.581083195
 30
0.0
 10
263.2156689041
 20
238.5976994208
 30
0.0
  0
SPLINE
  5
499
100
AcDbEntity
  8
0
100
AcDbSpline
 62
7
  6
BYLAYER
 70
0
 71
3
 72
9
 73
5
 74
0
 42
0.0000001
 43
0.0000001
 44
0.0000000001
 40
0.0
 40
0.0
 40
0.0
 40
0.0
 40
0.5447023803
 40
1.0
 40
1.0
 40
1.0
 40
1.0
 10
105.2928551155
 20
579.5579443703
 30
0.0
 10
105.3820055156
 20
579.5081757869
 30
0.0
 10
105.5382056891
 20
579.4281291761
 30
0.0
 10
105.7498361886
 20
579.3603456131
 30
0.0
 10
105.8237352338
 20
579.4030347479
 30
0.0
  0
SPLINE
  5
49A
100
AcDbEntity
  8
0
100
AcDbSpline
 62
7
  6
BYLAYER
 70
0
 71
3
 72
9
 73
5
 74
0
 42
0.0000001
 43
0.0000001
 44
0.0000000001
 40
0.0
 40
0.0
 40
0.0
 40
0.0
 40
0.2927708932
 40
1.0
 40
1.0
 40
1.0
 40
1.0
 10
104.57110601
 20
578.3824572704
 30
0.0
 10
104.6666146845
 20
578.3289170985
 30
0.0
 10
104.9878002967
 20
578.1556155348
 30
0.0
 10
105.4289991663
 20
578.0785460797
 30
0.0
 10
105.6580568941
 20
578.2107920789
 30
0.0
  0
SPLINE
  5
49B
100
AcDbEntity
  8
0
100
AcDbSpline
 62
7
  6
BYLAYER
 70
0
 71
3
 72
11
 73
7
 74
0
 42
0.0000001
 43
0.0000001
 44
0.0000000001
 40
0.0
 40
0.0
 40
0.0
 40
0.0
 40
0.2329530618
 40
0.4957135615
 40
0.7621517129
 40
1.0
 40
1.0
 40
1.0
 40
1.0
 10
103.056344395
 20
581.0357487857
 30
0.0
 10
103.0600330441
 20
580.7876263616
 30
0.0
 10
103.1125874265
 20
580.2570509017
 30
0.0
 10
103.4120592688
 20
579.4911124859
 30
0.0
 10
103.9115727838
 20
578.8281572938
 30
0.0
 10
104.3540708731
 20
578.5131832148
 30
0.0
 10
104.57110601
 20
578.3824572704
 30
0.0
  0
SPLINE
  5
49C
100
AcDbEntity
  8
0
100
AcDbSpline
 62
7
  6
BYLAYER
 70
0
 71
3
 72
9
 73
5
 74
0
 42
0.0000001
 43
0.0000001
 44
0.0000000001
 40
0.0
 40
0.0
 40
0.0
 40
0.0
 40
0.5012836458
 40
1.0
 40
1.0
 40
1.0
 40
1.0
 10
104.4898988768
 20
581.3687498716
 30
0.0
 10
104.7031974309
 20
581.2426186261
 30
0.0
 10
105.0625930259
 20
580.8570731295
 30
0.0
 10
105.1663493268
 20
580.3569320381
 30
0.0
 10
105.1834740799
 20
580.1109955614
 30
0.0
  0
SPLINE
  5
49D
100
AcDbEntity
  8
0
100
AcDbSpline
 62
7
  6
BYLAYER
 70
0
 71
3
 72
11
 73
7
 74
0
 42
0.0000001
 43
0.0000001
 44
0.0000000001
 40
0.0
 40
0.0
 40
0.0
 40
0.0
 40
0.1840637212
 40
0.4371118853
 40
0.7283679471
 40
1.0
 40
1.0
 40
1.0
 40
1.0
 10
265.4446337404
 20
239.4210124126
 30
0.0
 10
265.5292838342
 20
239.4698839766
 30
0.0
 10
265.7945109128
 20
239.4289462335
 30
0.0
 10
266.0972597568
 20
239.1870809336
 30
0.0
 10
266.3390631765
 20
238.8113991862
 30
0.0
 10
266.3918014458
 20
238.5130119274
 30
0.0
 10
266.4109078462
 20
238.3700358411
 30
0.0
  0
SPLINE
  5
49E
100
AcDbEntity
  8
0
100
AcDbSpline
 62
7
  6
BYLAYER
 70
0
 71
3
 72
9
 73
5
 74
0
 42
0.0000001
 43
0.0000001
 44
0.0000000001
 40
0.0
 40
0.0
 40
0.0
 40
0.0
 40
0.2100415442
 40
1.0
 40
1.0
 40
1.0
 40
1.0
 10
264.7783109626
 20
240.0976225231
 30
0.0
 10
264.6964511612
 20
240.0503609844
 30
0.0
 10
264.3654737749
 20
239.7198294244
 30
0.0
 10
264.3637936027
 20
239.1995668235
 30
0.0
 10
264.4166155329
 20
238.8480138661
 30
0.0
  0
SPLINE
  5
49F
100
AcDbEntity
  8
0
100
AcDbSpline
 62
7
  6
BYLAYER
 70
0
 71
3
 72
13
 73
9
 74
0
 42
0.0000001
 43
0.0000001
 44
0.0000000001
 40
0.0
 40
0.0
 40
0.0
 40
0.0
 40
0.2994853847
 40
0.5698290807
 40
0.6898705346
 40
0.801325116
 40
0.9044271456
 40
1.0
 40
1.0
 40
1.0
 40
1.0
 10
264.6199436681
 20
238.157159455
 30
0.0
 10
264.7503680829
 20
237.866947032
 30
0.0
 10
265.091303775
 20
237.351659337
 30
0.0
 10
265.6624776155
 20
236.8796594782
 30
0.0
 10
266.1255572876
 20
236.6139368701
 30
0.0
 10
266.4542516514
 20
236.4752504268
 30
0.0
 10
266.7836404959
 20
236.416293023
 30
0.0
 10
266.9944672603
 20
236.446164483
 30
0.0
 10
267.0949135289
 20
236.4610030217
 30
0.0
  0
SPLINE
  5
4A0
100
AcDbEntity
  8
0
100
AcDbSpline
 62
7
  6
BYLAYER
 70
0
 71
3
 72
8
 73
4
 74
0
 42
0.0000001
 43
0.0000001
 44
0.0000000001
 40
0.0
 40
0.0
 40
0.0
 40
0.0
 40
1.0
 40
1.0
 40
1.0
 40
1.0
 10
259.4077361087
 20
238.7493791733
 30
0.0
 10
259.4344999886
 20
238.7648434954
 30
0.0
 10
259.4667870816
 20
238.7721285354
 30
0.0
 10
259.4976964287
 20
238.7718779639
 30
0.0
  0
SPLINE
  5
4A1
100
AcDbEntity
  8
0
100
AcDbSpline
 62
7
  6
BYLAYER
 70
0
 71
3
 72
8
 73
4
 74
0
 42
0.0000001
 43
0.0000001
 44
0.0000000001
 40
0.0
 40
0.0
 40
0.0
 40
0.0
 40
1.0
 40
1.0
 40
1.0
 40
1.0
 10
259.4976964287
 20
238.7718779639
 30
0.0
 10
259.564171803
 20
238.7713390708
 30
0.0
 10
259.6274817743
 20
238.7387197238
 30
0.0
 10
259.6869802019
 20
238.7090683678
 30
0.0
  0
SPLINE
  5
4A2
100
AcDbEntity
  8
0
100
AcDbSpline
 62
7
  6
BYLAYER
 70
0
 71
3
 72
9
 73
5
 74
0
 42
0.0000001
 43
0.0000001
 44
0.0000000001
 40
0.0
 40
0.0
 40
0.0
 40
0.0
 40
0.5609367972
 40
1.0
 40
1.0
 40
1.0
 40
1.0
 10
100.8397211355
 20
579.1894956078
 30
0.0
 10
101.0438687738
 20
579.0756922694
 30
0.0
 10
101.3962515637
 20
578.8750755644
 30
0.0
 10
101.8665299633
 20
578.8171336837
 30
0.0
 10
102.0249703227
 20
578.9085952981
 30
0.0
  0
SPLINE
  5
4A3
100
AcDbEntity
  8
0
100
AcDbSpline
 62
7
  6
BYLAYER
 70
0
 71
3
 72
9
 73
5
 74
0
 42
0.0000001
 43
0.0000001
 44
0.0000000001
 40
0.0
 40
0.0
 40
0.0
 40
0.0
 40
0.5176303582
 40
1.0
 40
1.0
 40
1.0
 40
1.0
 10
99.4915170072
 20
580.8739903296
 30
0.0
 10
99.513034054
 20
580.4941182413
 30
0.0
 10
99.9648314144
 20
579.8230816401
 30
0.0
 10
100.5361020002
 20
579.3726081844
 30
0.0
 10
100.8397211355
 20
579.1894956078
 30
0.0
  0
SPLINE
  5
4A4
100
AcDbEntity
  8
0
100
AcDbSpline
 62
7
  6
BYLAYER
 70
0
 71
3
 72
8
 73
4
 74
0
 42
0.0000001
 43
0.0000001
 44
0.0000000001
 40
0.0
 40
0.0
 40
0.0
 40
0.0
 40
1.0
 40
1.0
 40
1.0
 40
1.0
 10
101.61036025
 20
580.7501110351
 30
0.0
 10
101.6068405883
 20
580.5172840143
 30
0.0
 10
101.6133747996
 20
580.2833618874
 30
0.0
 10
101.5878311681
 20
580.0519135509
 30
0.0
  0
SPLINE
  5
4A5
100
AcDbEntity
  8
0
100
AcDbSpline
 62
7
  6
BYLAYER
 70
0
 71
3
 72
9
 73
5
 74
0
 42
0.0000001
 43
0.0000001
 44
0.0000000001
 40
0.0
 40
0.0
 40
0.0
 40
0.0
 40
0.2852660671
 40
1.0
 40
1.0
 40
1.0
 40
1.0
 10
101.5878311681
 20
580.0519135509
 30
0.0
 10
101.5834810086
 20
580.0124971826
 30
0.0
 10
101.5609764816
 20
579.8787028645
 30
0.0
 10
101.5052929179
 20
579.7259557008
 30
0.0
 10
101.4192390601
 20
579.6762907353
 30
0.0
  0
SPLINE
  5
4A6
100
AcDbEntity
  8
0
100
AcDbSpline
 62
7
  6
BYLAYER
 70
0
 71
3
 72
9
 73
5
 74
0
 42
0.0000001
 43
0.0000001
 44
0.0000000001
 40
0.0
 40
0.0
 40
0.0
 40
0.0
 40
0.5453170156
 40
1.0
 40
1.0
 40
1.0
 40
1.0
 10
100.6574194095
 20
580.7032118461
 30
0.0
 10
100.7878835583
 20
580.6321918579
 30
0.0
 10
101.0378236489
 20
580.503866909
 30
0.0
 10
101.3317519406
 20
580.5489457047
 30
0.0
 10
101.4390161362
 20
580.61086607
 30
0.0
  0
SPLINE
  5
4A7
100
AcDbEntity
  8
0
100
AcDbSpline
 62
7
  6
BYLAYER
 70
0
 71
3
 72
9
 73
5
 74
0
 42
0.0000001
 43
0.0000001
 44
0.0000000001
 40
0.0
 40
0.0
 40
0.0
 40
0.0
 40
0.2293138875
 40
1.0
 40
1.0
 40
1.0
 40
1.0
 10
99.3970515666
 20
583.2258986311
 30
0.0
 10
99.3992102801
 20
583.1291050096
 30
0.0
 10
99.4129355732
 20
582.707279268
 30
0.0
 10
99.5078074629
 20
582.286979414
 30
0.0
 10
99.6259548822
 20
581.9837984206
 30
0.0
  0
SPLINE
  5
4A8
100
AcDbEntity
  8
0
100
AcDbSpline
 62
7
  6
BYLAYER
 70
0
 71
3
 72
9
 73
5
 74
0
 42
0.0000001
 43
0.0000001
 44
0.0000000001
 40
0.0
 40
0.0
 40
0.0
 40
0.0
 40
0.7774256312
 40
1.0
 40
1.0
 40
1.0
 40
1.0
 10
99.7238768297
 20
581.7576378856
 30
0.0
 10
99.883059594
 20
581.4257980644
 30
0.0
 10
100.1734647331
 20
581.0226909992
 30
0.0
 10
100.5671629851
 20
580.7575864918
 30
0.0
 10
100.6574194095
 20
580.7032118461
 30
0.0
  0
SPLINE
  5
4A9
100
AcDbEntity
  8
0
100
AcDbSpline
 62
7
  6
BYLAYER
 70
0
 71
3
 72
9
 73
5
 74
0
 42
0.0000001
 43
0.0000001
 44
0.0000000001
 40
0.0
 40
0.0
 40
0.0
 40
0.0
 40
0.2928960746
 40
1.0
 40
1.0
 40
1.0
 40
1.0
 10
101.6244472015
 20
581.8461700545
 30
0.0
 10
101.6228836905
 20
581.7771324021
 30
0.0
 10
101.6171193084
 20
581.5470523767
 30
0.0
 10
101.5183864584
 20
581.2826281225
 30
0.0
 10
101.3740104139
 20
581.1992706168
 30
0.0
  0
SPLINE
  5
4AA
100
AcDbEntity
  8
0
100
AcDbSpline
 62
7
  6
BYLAYER
 70
0
 71
3
 72
9
 73
5
 74
0
 42
0.0000001
 43
0.0000001
 44
0.0000000001
 40
0.0
 40
0.0
 40
0.0
 40
0.0
 40
0.2255987898
 40
1.0
 40
1.0
 40
1.0
 40
1.0
 10
100.8695523277
 20
583.3976729592
 30
0.0
 10
100.9129026284
 20
583.3711342005
 30
0.0
 10
101.1021777862
 20
583.2483995084
 30
0.0
 10
101.2522738504
 20
583.0697397406
 30
0.0
 10
101.3428209372
 20
582.9205974258
 30
0.0
  0
SPLINE
  5
4AB
100
AcDbEntity
  8
0
100
AcDbSpline
 62
7
  6
BYLAYER
 70
0
 71
3
 72
9
 73
5
 74
0
 42
0.0000001
 43
0.0000001
 44
0.0000000001
 40
0.0
 40
0.0
 40
0.0
 40
0.0
 40
0.2736028089
 40
1.0
 40
1.0
 40
1.0
 40
1.0
 10
101.3428209372
 20
582.9205974258
 30
0.0
 10
101.3958135454
 20
582.8333120085
 30
0.0
 10
101.5640688584
 20
582.4980931455
 30
0.0
 10
101.6209026402
 20
582.1172487249
 30
0.0
 10
101.6244472015
 20
581.8461700545
 30
0.0
  0
SPLINE
  5
4AC
100
AcDbEntity
  8
0
100
AcDbSpline
 62
7
  6
BYLAYER
 70
0
 71
3
 72
12
 73
8
 74
0
 42
0.0000001
 43
0.0000001
 44
0.0000000001
 40
0.0
 40
0.0
 40
0.0
 40
0.0
 40
0.2028134991
 40
0.3400191451
 40
0.4907980681
 40
0.7826395311
 40
1.0
 40
1.0
 40
1.0
 40
1.0
 10
259.1956811884
 20
239.065562247
 30
0.0
 10
259.0368654422
 20
238.9738428976
 30
0.0
 10
258.9541213658
 20
238.6028192138
 30
0.0
 10
259.0160039821
 20
238.1766938781
 30
0.0
 10
259.189904945
 20
237.6730863493
 30
0.0
 10
259.5875011348
 20
237.1976854862
 30
0.0
 10
260.0595086091
 20
237.0295903428
 30
0.0
 10
260.2548262185
 20
237.0515887558
 30
0.0
  0
LINE
  5
4AD
100
AcDbEntity
  8
0
100
AcDbLine
 62
7
  6
BYLAYER
 10
260.2548262185
 20
237.0515887558
 11
260.3029226214
 21
237.057443749
  0
SPLINE
  5
4AE
100
AcDbEntity
  8
0
100
AcDbSpline
 62
7
  6
BYLAYER
 70
0
 71
3
 72
9
 73
5
 74
0
 42
0.0000001
 43
0.0000001
 44
0.0000000001
 40
0.0
 40
0.0
 40
0.0
 40
0.0
 40
0.4530055656
 40
1.0
 40
1.0
 40
1.0
 40
1.0
 10
252.9205933437
 20
243.5602455882
 30
0.0
 10
253.0231528077
 20
243.6194293529
 30
0.0
 10
253.3079074484
 20
243.6502905856
 30
0.0
 10
253.5450027328
 20
243.5300332611
 30
0.0
 10
253.6738016825
 20
243.4679547503
 30
0.0
  0
SPLINE
  5
4AF
100
AcDbEntity
  8
0
100
AcDbSpline
 62
7
  6
BYLAYER
 70
0
 71
3
 72
9
 73
5
 74
0
 42
0.0000001
 43
0.0000001
 44
0.0000000001
 40
0.0
 40
0.0
 40
0.0
 40
0.0
 40
0.5087764801
 40
1.0
 40
1.0
 40
1.0
 40
1.0
 10
98.1217681301
 20
582.6331181582
 30
0.0
 10
98.1799219873
 20
582.4848967806
 30
0.0
 10
98.2962561521
 20
582.1996319044
 30
0.0
 10
98.4686916226
 20
581.9170756776
 30
0.0
 10
98.5965812606
 20
581.8317727088
 30
0.0
  0
SPLINE
  5
4B0
100
AcDbEntity
  8
0
100
AcDbSpline
 62
7
  6
BYLAYER
 70
0
 71
3
 72
9
 73
5
 74
0
 42
0.0000001
 43
0.0000001
 44
0.0000000001
 40
0.0
 40
0.0
 40
0.0
 40
0.0
 40
0.5472912101
 40
1.0
 40
1.0
 40
1.0
 40
1.0
 10
97.0213286197
 20
582.7412246705
 30
0.0
 10
97.2040513039
 20
582.641502733
 30
0.0
 10
97.573347292
 20
582.4806688307
 30
0.0
 10
97.9592890907
 20
582.5761132103
 30
0.0
 10
98.1217681301
 20
582.6331181582
 30
0.0
  0
SPLINE
  5
4B1
100
AcDbEntity
  8
0
100
AcDbSpline
 62
7
  6
BYLAYER
 70
0
 71
3
 72
9
 73
5
 74
0
 42
0.0000001
 43
0.0000001
 44
0.0000000001
 40
0.0
 40
0.0
 40
0.0
 40
0.0
 40
0.5036622247
 40
1.0
 40
1.0
 40
1.0
 40
1.0
 10
96.055958116
 20
584.2678466559
 30
0.0
 10
96.0657249572
 20
583.9554911188
 30
0.0
 10
96.2871876068
 20
583.335510885
 30
0.0
 10
96.7589504076
 20
582.9024674744
 30
0.0
 10
97.0213286197
 20
582.7412246705
 30
0.0
  0
SPLINE
  5
4B2
100
AcDbEntity
  8
0
100
AcDbSpline
 62
7
  6
BYLAYER
 70
0
 71
3
 72
9
 73
5
 74
0
 42
0.0000001
 43
0.0000001
 44
0.0000000001
 40
0.0
 40
0.0
 40
0.0
 40
0.0
 40
0.4978871965
 40
1.0
 40
1.0
 40
1.0
 40
1.0
 10
97.5110573466
 20
585.3978947554
 30
0.0
 10
97.681775944
 20
585.2956474294
 30
0.0
 10
98.0243089653
 20
585.0285292456
 30
0.0
 10
98.0605333105
 20
584.601277014
 30
0.0
 10
98.0712208327
 20
584.400877039
 30
0.0
  0
SPLINE
  5
4B3
100
AcDbEntity
  8
0
100
AcDbSpline
 62
7
  6
BYLAYER
 70
0
 71
3
 72
8
 73
4
 74
0
 42
0.0000001
 43
0.0000001
 44
0.0000000001
 40
0.0
 40
0.0
 40
0.0
 40
0.0
 40
1.0
 40
1.0
 40
1.0
 40
1.0
 10
96.5001114114
 20
585.3012390945
 30
0.0
 10
96.525918584
 20
585.286971075
 30
0.0
 10
96.5521048771
 20
585.2731820256
 30
0.0
 10
96.5793518815
 20
585.2619042912
 30
0.0
  0
SPLINE
  5
4B4
100
AcDbEntity
  8
0
100
AcDbSpline
 62
7
  6
BYLAYER
 70
0
 71
3
 72
8
 73
4
 74
0
 42
0.0000001
 43
0.0000001
 44
0.0000000001
 40
0.0
 40
0.0
 40
0.0
 40
0.0
 40
1.0
 40
1.0
 40
1.0
 40
1.0
 10
96.5793518815
 20
585.2619042912
 30
0.0
 10
96.6103653617
 20
585.2490675849
 30
0.0
 10
96.6505129791
 20
585.2354712743
 30
0.0
 10
96.6795833632
 20
585.2522501229
 30
0.0
  0
SPLINE
  5
4B5
100
AcDbEntity
  8
0
100
AcDbSpline
 62
7
  6
BYLAYER
 70
0
 71
3
 72
8
 73
4
 74
0
 42
0.0000001
 43
0.0000001
 44
0.0000000001
 40
0.0
 40
0.0
 40
0.0
 40
0.0
 40
1.0
 40
1.0
 40
1.0
 40
1.0
 10
96.1885411895
 20
585.8198411011
 30
0.0
 10
96.191168653
 20
585.7555788932
 30
0.0
 10
96.2026753355
 20
585.6905197091
 30
0.0
 10
96.2259064184
 20
585.6305459505
 30
0.0
  0
SPLINE
  5
4B6
100
AcDbEntity
  8
0
100
AcDbSpline
 62
7
  6
BYLAYER
 70
0
 71
3
 72
9
 73
5
 74
0
 42
0.0000001
 43
0.0000001
 44
0.0000000001
 40
0.0
 40
0.0
 40
0.0
 40
0.0
 40
0.266579069
 40
1.0
 40
1.0
 40
1.0
 40
1.0
 10
96.2259064184
 20
585.6305459505
 30
0.0
 10
96.2397999749
 20
585.5946781088
 30
0.0
 10
96.3038416608
 20
585.4648970498
 30
0.0
 10
96.4103622538
 20
585.357311248
 30
0.0
 10
96.5001114114
 20
585.3012390945
 30
0.0
  0
SPLINE
  5
4B7
100
AcDbEntity
  8
0
100
AcDbSpline
 62
7
  6
BYLAYER
 70
0
 71
3
 72
9
 73
5
 74
0
 42
0.0000001
 43
0.0000001
 44
0.0000000001
 40
0.0
 40
0.0
 40
0.0
 40
0.0
 40
0.2937637443
 40
1.0
 40
1.0
 40
1.0
 40
1.0
 10
98.5965812606
 20
581.8317727088
 30
0.0
 10
98.6208936314
 20
581.8189540264
 30
0.0
 10
98.7030694821
 20
581.7756929211
 30
0.0
 10
98.8121429801
 20
581.7763411621
 30
0.0
 10
98.8693551795
 20
581.8093985453
 30
0.0
  0
SPLINE
  5
4B8
100
AcDbEntity
  8
0
100
AcDbSpline
 62
7
  6
BYLAYER
 70
0
 71
3
 72
9
 73
5
 74
0
 42
0.0000001
 43
0.0000001
 44
0.0000000001
 40
0.0
 40
0.0
 40
0.0
 40
0.0
 40
0.768171158
 40
1.0
 40
1.0
 40
1.0
 40
1.0
 10
98.0712208327
 20
583.7339604162
 30
0.0
 10
98.0701245251
 20
583.5893488226
 30
0.0
 10
98.0712122653
 20
583.3958660104
 30
0.0
 10
97.9941268332
 20
583.2200389146
 30
0.0
 10
97.9684689515
 20
583.1847334427
 30
0.0
  0
SPLINE
  5
4B9
100
AcDbEntity
  8
0
100
AcDbSpline
 62
7
  6
BYLAYER
 70
0
 71
3
 72
9
 73
5
 74
0
 42
0.0000001
 43
0.0000001
 44
0.0000000001
 40
0.0
 40
0.0
 40
0.0
 40
0.0
 40
0.4491699235
 40
1.0
 40
1.0
 40
1.0
 40
1.0
 10
236.4503049518
 20
260.3983531614
 30
0.0
 10
236.1805391188
 20
260.2426044359
 30
0.0
 10
235.714357958
 20
259.6594424239
 30
0.0
 10
235.6217626231
 20
258.9495890927
 30
0.0
 10
235.6217395281
 20
258.5675895571
 30
0.0
  0
SPLINE
  5
4BA
100
AcDbEntity
  8
0
100
AcDbSpline
 62
7
  6
BYLAYER
 70
0
 71
3
 72
9
 73
5
 74
0
 42
0.0000001
 43
0.0000001
 44
0.0000000001
 40
0.0
 40
0.0
 40
0.0
 40
0.0
 40
0.236488638
 40
1.0
 40
1.0
 40
1.0
 40
1.0
 10
62.9708763856
 20
621.9462137269
 30
0.0
 10
63.0109109279
 20
621.9693275362
 30
0.0
 10
63.1906195562
 20
622.0496169173
 30
0.0
 10
63.3990857867
 20
622.0483189291
 30
0.0
 10
63.5450313992
 20
622.0170960131
 30
0.0
  0
SPLINE
  5
4BB
100
AcDbEntity
  8
0
100
AcDbSpline
 62
7
  6
BYLAYER
 70
0
 71
3
 72
9
 73
5
 74
0
 42
0.0000001
 43
0.0000001
 44
0.0000000001
 40
0.0
 40
0.0
 40
0.0
 40
0.0
 40
0.2351938142
 40
1.0
 40
1.0
 40
1.0
 40
1.0
 10
63.5450313992
 20
622.0170960131
 30
0.0
 10
63.5802611493
 20
622.0095591265
 30
0.0
 10
63.7285230562
 20
621.9704246904
 30
0.0
 10
63.8693923123
 20
621.905778165
 30
0.0
 10
63.9708502159
 20
621.8472027422
 30
0.0
  0
SPLINE
  5
4BC
100
AcDbEntity
  8
0
100
AcDbSpline
 62
7
  6
BYLAYER
 70
0
 71
3
 72
9
 73
5
 74
0
 42
0.0000001
 43
0.0000001
 44
0.0000000001
 40
0.0
 40
0.0
 40
0.0
 40
0.0
 40
0.4494656058
 40
1.0
 40
1.0
 40
1.0
 40
1.0
 10
85.3941630174
 20
628.7600959571
 30
0.0
 10
85.7293001474
 20
628.9556235247
 30
0.0
 10
86.6493599029
 20
629.0880414777
 30
0.0
 10
87.4739677261
 20
628.7552405155
 30
0.0
 10
87.885566077
 20
628.5176426509
 30
0.0
  0
SPLINE
  5
4BD
100
AcDbEntity
  8
0
100
AcDbSpline
 62
7
  6
BYLAYER
 70
0
 71
3
 72
9
 73
5
 74
0
 42
0.0000001
 43
0.0000001
 44
0.0000000001
 40
0.0
 40
0.0
 40
0.0
 40
0.0
 40
0.5583974953
 40
1.0
 40
1.0
 40
1.0
 40
1.0
 10
110.7784797801
 20
574.7987094276
 30
0.0
 10
110.9631495694
 20
574.6960641432
 30
0.0
 10
111.2890700349
 20
574.5227320924
 30
0.0
 10
111.714341
 20
574.4769003393
 30
0.0
 10
111.8590478564
 20
574.5604366833
 30
0.0
  0
SPLINE
  5
4BE
100
AcDbEntity
  8
0
100
AcDbSpline
 62
7
  6
BYLAYER
 70
0
 71
3
 72
8
 73
4
 74
0
 42
0.0000001
 43
0.0000001
 44
0.0000000001
 40
0.0
 40
0.0
 40
0.0
 40
0.0
 40
1.0
 40
1.0
 40
1.0
 40
1.0
 10
109.4932526124
 20
576.5032986959
 30
0.0
 10
109.4945311295
 20
576.477465164
 30
0.0
 10
109.4961727039
 20
576.4516387453
 30
0.0
 10
109.4985991476
 20
576.4258876609
 30
0.0
  0
SPLINE
  5
4BF
100
AcDbEntity
  8
0
100
AcDbSpline
 62
7
  6
BYLAYER
 70
0
 71
3
 72
9
 73
5
 74
0
 42
0.0000001
 43
0.0000001
 44
0.0000000001
 40
0.0
 40
0.0
 40
0.0
 40
0.0
 40
0.5257168917
 40
1.0
 40
1.0
 40
1.0
 40
1.0
 10
109.4985991476
 20
576.4258876609
 30
0.0
 10
109.5333960845
 20
576.0565987048
 30
0.0
 10
109.9375258266
 20
575.406228626
 30
0.0
 10
110.4919680538
 20
574.9716015801
 30
0.0
 10
110.7784797801
 20
574.7987094276
 30
0.0
  0
SPLINE
  5
4C0
100
AcDbEntity
  8
0
100
AcDbSpline
 62
7
  6
BYLAYER
 70
0
 71
3
 72
11
 73
7
 74
0
 42
0.0000001
 43
0.0000001
 44
0.0000000001
 40
0.0
 40
0.0
 40
0.0
 40
0.0
 40
0.2464907517
 40
0.6246313031
 40
0.8208340489
 40
1.0
 40
1.0
 40
1.0
 40
1.0
 10
110.7403621465
 20
576.3392192855
 30
0.0
 10
110.811027769
 20
576.277896913
 30
0.0
 10
110.9888940665
 20
576.121351205
 30
0.0
 10
111.2129524405
 20
575.9031001563
 30
0.0
 10
111.3631570741
 20
575.6529375841
 30
0.0
 10
111.3798363742
 20
575.5082320893
 30
0.0
 10
111.3825614093
 20
575.4402787542
 30
0.0
  0
SPLINE
  5
4C1
100
AcDbEntity
  8
0
100
AcDbSpline
 62
7
  6
BYLAYER
 70
0
 71
3
 72
9
 73
5
 74
0
 42
0.0000001
 43
0.0000001
 44
0.0000000001
 40
0.0
 40
0.0
 40
0.0
 40
0.0
 40
0.4814987169
 40
1.0
 40
1.0
 40
1.0
 40
1.0
 10
109.5263983808
 20
578.080169479
 30
0.0
 10
109.5318341722
 20
577.8998766009
 30
0.0
 10
109.6261273725
 20
577.524010179
 30
0.0
 10
109.8510669146
 20
577.2177073761
 30
0.0
 10
109.9766638623
 20
577.0695413291
 30
0.0
  0
SPLINE
  5
4C2
100
AcDbEntity
  8
0
100
AcDbSpline
 62
7
  6
BYLAYER
 70
0
 71
3
 72
9
 73
5
 74
0
 42
0.0000001
 43
0.0000001
 44
0.0000000001
 40
0.0
 40
0.0
 40
0.0
 40
0.0
 40
0.2617202799
 40
1.0
 40
1.0
 40
1.0
 40
1.0
 10
109.9766638623
 20
577.0695413291
 30
0.0
 10
110.0363179227
 20
576.9991677534
 30
0.0
 10
110.2765213039
 20
576.7406538177
 30
0.0
 10
110.5427780347
 20
576.5085877919
 30
0.0
 10
110.7403621465
 20
576.3392192855
 30
0.0
  0
SPLINE
  5
4C3
100
AcDbEntity
  8
0
100
AcDbSpline
 62
7
  6
BYLAYER
 70
0
 71
3
 72
9
 73
5
 74
0
 42
0.0000001
 43
0.0000001
 44
0.0000000001
 40
0.0
 40
0.0
 40
0.0
 40
0.0
 40
0.2917917478
 40
1.0
 40
1.0
 40
1.0
 40
1.0
 10
111.6402697576
 20
576.7076155148
 30
0.0
 10
111.662654242
 20
576.6954207966
 30
0.0
 10
111.7370655142
 20
576.6546152362
 30
0.0
 10
111.8402704114
 20
576.6318397974
 30
0.0
 10
111.893847095
 20
576.6627793503
 30
0.0
  0
SPLINE
  5
4C4
100
AcDbEntity
  8
0
100
AcDbSpline
 62
7
  6
BYLAYER
 70
0
 71
3
 72
9
 73
5
 74
0
 42
0.0000001
 43
0.0000001
 44
0.0000000001
 40
0.0
 40
0.0
 40
0.0
 40
0.0
 40
0.7728361205
 40
1.0
 40
1.0
 40
1.0
 40
1.0
 10
111.2532929119
 20
577.2487021198
 30
0.0
 10
111.3288850867
 20
577.0926647012
 30
0.0
 10
111.4178163741
 20
576.8750382052
 30
0.0
 10
111.5968825536
 20
576.7343519083
 30
0.0
 10
111.6402697576
 20
576.7076155148
 30
0.0
  0
SPLINE
  5
4C5
100
AcDbEntity
  8
0
100
AcDbSpline
 62
7
  6
BYLAYER
 70
0
 71
3
 72
9
 73
5
 74
0
 42
0.0000001
 43
0.0000001
 44
0.0000000001
 40
0.0
 40
0.0
 40
0.0
 40
0.0
 40
0.4739641573
 40
1.0
 40
1.0
 40
1.0
 40
1.0
 10
110.7403621465
 20
577.8213625396
 30
0.0
 10
110.8458081729
 20
577.7579181957
 30
0.0
 10
111.0591143861
 20
577.5999686938
 30
0.0
 10
111.1909461406
 20
577.370222889
 30
0.0
 10
111.2532929119
 20
577.2487021198
 30
0.0
  0
SPLINE
  5
4C6
100
AcDbEntity
  8
0
100
AcDbSpline
 62
7
  6
BYLAYER
 70
0
 71
3
 72
8
 73
4
 74
0
 42
0.0000001
 43
0.0000001
 44
0.0000000001
 40
0.0
 40
0.0
 40
0.0
 40
0.0
 40
1.0
 40
1.0
 40
1.0
 40
1.0
 10
466.6063455331
 20
130.706880674
 30
0.0
 10
466.473907513
 20
130.629421763
 30
0.0
 10
466.3286360974
 20
130.5713635124
 30
0.0
 10
466.179930845
 20
130.5335950078
 30
0.0
  0
SPLINE
  5
4C7
100
AcDbEntity
  8
0
100
AcDbSpline
 62
7
  6
BYLAYER
 70
0
 71
3
 72
9
 73
5
 74
0
 42
0.0000001
 43
0.0000001
 44
0.0000000001
 40
0.0
 40
0.0
 40
0.0
 40
0.0
 40
0.2814938432
 40
1.0
 40
1.0
 40
1.0
 40
1.0
 10
108.5229102428
 20
580.0813829313
 30
0.0
 10
108.540309979
 20
580.0720989973
 30
0.0
 10
108.6022201564
 20
580.0403372722
 30
0.0
 10
108.6750759328
 20
580.022661448
 30
0.0
 10
108.7248917068
 20
580.0299001333
 30
0.0
  0
SPLINE
  5
4C8
100
AcDbEntity
  8
0
100
AcDbSpline
 62
7
  6
BYLAYER
 70
0
 71
3
 72
8
 73
4
 74
0
 42
0.0000001
 43
0.0000001
 44
0.0000000001
 40
0.0
 40
0.0
 40
0.0
 40
0.0
 40
1.0
 40
1.0
 40
1.0
 40
1.0
 10
108.7248917068
 20
580.0299001333
 30
0.0
 10
108.7482138376
 20
580.0332890512
 30
0.0
 10
108.7714883479
 20
580.0406734817
 30
0.0
 10
108.7918980144
 20
580.0524570323
 30
0.0
  0
SPLINE
  5
4C9
100
AcDbEntity
  8
0
100
AcDbSpline
 62
7
  6
BYLAYER
 70
0
 71
3
 72
8
 73
4
 74
0
 42
0.0000001
 43
0.0000001
 44
0.0000000001
 40
0.0
 40
0.0
 40
0.0
 40
0.0
 40
1.0
 40
1.0
 40
1.0
 40
1.0
 10
108.1475344167
 20
580.7286788092
 30
0.0
 10
108.1505501964
 20
580.6384967683
 30
0.0
 10
108.1645564632
 20
580.5463062627
 30
0.0
 10
108.1990567458
 20
580.4629298516
 30
0.0
  0
SPLINE
  5
4CA
100
AcDbEntity
  8
0
100
AcDbSpline
 62
7
  6
BYLAYER
 70
0
 71
3
 72
9
 73
5
 74
0
 42
0.0000001
 43
0.0000001
 44
0.0000000001
 40
0.0
 40
0.0
 40
0.0
 40
0.0
 40
0.2665873789
 40
1.0
 40
1.0
 40
1.0
 40
1.0
 10
108.1990567458
 20
580.4629298516
 30
0.0
 10
108.2162237777
 20
580.4214424954
 30
0.0
 10
108.2929401062
 20
580.2710307418
 30
0.0
 10
108.418046656
 20
580.1466615559
 30
0.0
 10
108.5229102428
 20
580.0813829313
 30
0.0
  0
SPLINE
  5
4CB
100
AcDbEntity
  8
0
100
AcDbSpline
 62
7
  6
BYLAYER
 70
0
 71
3
 72
9
 73
5
 74
0
 42
0.0000001
 43
0.0000001
 44
0.0000000001
 40
0.0
 40
0.0
 40
0.0
 40
0.0
 40
0.29394535
 40
1.0
 40
1.0
 40
1.0
 40
1.0
 10
108.5146238007
 20
576.1057177183
 30
0.0
 10
108.537467308
 20
576.0939689412
 30
0.0
 10
108.6131013186
 20
576.0532611948
 30
0.0
 10
108.7159378839
 20
576.0440258029
 30
0.0
 10
108.769375401
 20
576.07487281
 30
0.0
  0
SPLINE
  5
4CC
100
AcDbEntity
  8
0
100
AcDbSpline
 62
7
  6
BYLAYER
 70
0
 71
3
 72
9
 73
5
 74
0
 42
0.0000001
 43
0.0000001
 44
0.0000000001
 40
0.0
 40
0.0
 40
0.0
 40
0.0
 40
0.4887523044
 40
1.0
 40
1.0
 40
1.0
 40
1.0
 10
108.147534416
 20
576.8486975961
 30
0.0
 10
108.1514830251
 20
576.7091806763
 30
0.0
 10
108.1926108395
 20
576.4177249477
 30
0.0
 10
108.391319051
 20
576.1838906024
 30
0.0
 10
108.5146238007
 20
576.1057177183
 30
0.0
  0
SPLINE
  5
4CD
100
AcDbEntity
  8
0
100
AcDbSpline
 62
7
  6
BYLAYER
 70
0
 71
3
 72
9
 73
5
 74
0
 42
0.0000001
 43
0.0000001
 44
0.0000000001
 40
0.0
 40
0.0
 40
0.0
 40
0.0
 40
0.4913575357
 40
1.0
 40
1.0
 40
1.0
 40
1.0
 10
106.6095707633
 20
577.7423622661
 30
0.0
 10
106.6133955539
 20
577.6012127722
 30
0.0
 10
106.6537730318
 20
577.307754954
 30
0.0
 10
106.853259426
 20
577.0719834552
 30
0.0
 10
106.9766601485
 20
576.993641361
 30
0.0
  0
SPLINE
  5
4CE
100
AcDbEntity
  8
0
100
AcDbSpline
 62
7
  6
BYLAYER
 70
0
 71
3
 72
9
 73
5
 74
0
 42
0.0000001
 43
0.0000001
 44
0.0000000001
 40
0.0
 40
0.0
 40
0.0
 40
0.0
 40
0.2935043829
 40
1.0
 40
1.0
 40
1.0
 40
1.0
 10
106.9766601485
 20
576.993641361
 30
0.0
 10
106.9994777078
 20
576.9819159737
 30
0.0
 10
107.074862189
 20
576.9408590783
 30
0.0
 10
107.1778824466
 20
576.9306991727
 30
0.0
 10
107.2313617589
 20
576.961573799
 30
0.0
  0
SPLINE
  5
4CF
100
AcDbEntity
  8
0
100
AcDbSpline
 62
7
  6
BYLAYER
 70
0
 71
3
 72
9
 73
5
 74
0
 42
0.0000001
 43
0.0000001
 44
0.0000000001
 40
0.0
 40
0.0
 40
0.0
 40
0.0
 40
0.4989264812
 40
1.0
 40
1.0
 40
1.0
 40
1.0
 10
92.8449618028
 20
585.9437023056
 30
0.0
 10
92.8886360305
 20
585.735595147
 30
0.0
 10
92.9397030599
 20
585.308209485
 30
0.0
 10
93.2224825015
 20
584.9414969831
 30
0.0
 10
93.404296647
 20
584.8294718119
 30
0.0
  0
SPLINE
  5
4D0
100
AcDbEntity
  8
0
100
AcDbSpline
 62
7
  6
BYLAYER
 70
0
 71
3
 72
9
 73
5
 74
0
 42
0.0000001
 43
0.0000001
 44
0.0000000001
 40
0.0
 40
0.0
 40
0.0
 40
0.0
 40
0.2936295292
 40
1.0
 40
1.0
 40
1.0
 40
1.0
 10
91.8116424767
 20
585.748970324
 30
0.0
 10
91.8342825711
 20
585.737255676
 30
0.0
 10
91.908900157
 20
585.6962626052
 30
0.0
 10
92.0113637923
 20
585.6845533531
 30
0.0
 10
92.0644722604
 20
585.7152132276
 30
0.0
  0
SPLINE
  5
4D1
100
AcDbEntity
  8
0
100
AcDbSpline
 62
7
  6
BYLAYER
 70
0
 71
3
 72
9
 73
5
 74
0
 42
0.0000001
 43
0.0000001
 44
0.0000000001
 40
0.0
 40
0.0
 40
0.0
 40
0.0
 40
0.4923621807
 40
1.0
 40
1.0
 40
1.0
 40
1.0
 10
91.4420671594
 20
586.5000832937
 30
0.0
 10
91.44600622
 20
586.3579230155
 30
0.0
 10
91.4834781802
 20
586.0615316449
 30
0.0
 10
91.6880519333
 20
585.8278682314
 30
0.0
 10
91.8116424767
 20
585.748970324
 30
0.0
  0
SPLINE
  5
4D2
100
AcDbEntity
  8
0
100
AcDbSpline
 62
7
  6
BYLAYER
 70
0
 71
3
 72
9
 73
5
 74
0
 42
0.0000001
 43
0.0000001
 44
0.0000000001
 40
0.0
 40
0.0
 40
0.0
 40
0.0
 40
0.4963971481
 40
1.0
 40
1.0
 40
1.0
 40
1.0
 10
94.6240609226
 20
584.6658704139
 30
0.0
 10
94.6278448134
 20
584.5225618684
 30
0.0
 10
94.6657958439
 20
584.2264419014
 30
0.0
 10
94.8686444886
 20
583.9917119959
 30
0.0
 10
94.9911503072
 20
583.9133221501
 30
0.0
  0
SPLINE
  5
4D3
100
AcDbEntity
  8
0
100
AcDbSpline
 62
7
  6
BYLAYER
 70
0
 71
3
 72
9
 73
5
 74
0
 42
0.0000001
 43
0.0000001
 44
0.0000000001
 40
0.0
 40
0.0
 40
0.0
 40
0.0
 40
0.2820519678
 40
1.0
 40
1.0
 40
1.0
 40
1.0
 10
84.1087581413
 20
626.2083184592
 30
0.0
 10
83.9454435267
 20
626.3025816807
 30
0.0
 10
83.3496799946
 20
626.6004816355
 30
0.0
 10
82.6523999396
 20
626.7435481405
 30
0.0
 10
82.1775319179
 20
626.6736477337
 30
0.0
  0
SPLINE
  5
4D4
100
AcDbEntity
  8
0
100
AcDbSpline
 62
7
  6
BYLAYER
 70
0
 71
3
 72
8
 73
4
 74
0
 42
0.0000001
 43
0.0000001
 44
0.0000000001
 40
0.0
 40
0.0
 40
0.0
 40
0.0
 40
1.0
 40
1.0
 40
1.0
 40
1.0
 10
81.9858978269
 20
626.6354472262
 30
0.0
 10
81.8768884
 20
626.6077554641
 30
0.0
 10
81.7698975056
 20
626.5697347601
 30
0.0
 10
81.668340424
 20
626.5214020794
 30
0.0
  0
SPLINE
  5
4D5
100
AcDbEntity
  8
0
100
AcDbSpline
 62
7
  6
BYLAYER
 70
0
 71
3
 72
11
 73
7
 74
0
 42
0.0000001
 43
0.0000001
 44
0.0000000001
 40
0.0
 40
0.0
 40
0.0
 40
0.0
 40
0.2375813238
 40
0.5000012324
 40
0.7624204685
 40
1.0
 40
1.0
 40
1.0
 40
1.0
 10
467.2573281223
 20
400.7987915282
 30
0.0
 10
467.2572612237
 20
401.3962951432
 30
0.0
 10
467.0265635917
 20
402.6529813227
 30
0.0
 10
466.256022871
 20
404.4242762861
 30
0.0
 10
465.107300481
 20
405.9772212322
 30
0.0
 10
464.134324833
 20
406.8053429534
 30
0.0
 10
463.6169053379
 20
407.1041443154
 30
0.0
  0
SPLINE
  5
4D6
100
AcDbEntity
  8
0
100
AcDbSpline
 62
7
  6
BYLAYER
 70
0
 71
3
 72
9
 73
5
 74
0
 42
0.0000001
 43
0.0000001
 44
0.0000000001
 40
0.0
 40
0.0
 40
0.0
 40
0.0
 40
0.2943710285
 40
1.0
 40
1.0
 40
1.0
 40
1.0
 10
112.0474096903
 20
576.8967549142
 30
0.0
 10
112.0463221823
 20
576.8757080378
 30
0.0
 10
112.0443806276
 20
576.8053234992
 30
0.0
 10
112.0083028006
 20
576.7288644679
 30
0.0
 10
111.9645546205
 20
576.7036021151
 30
0.0
  0
SPLINE
  5
4D7
100
AcDbEntity
  8
0
100
AcDbSpline
 62
7
  6
BYLAYER
 70
0
 71
3
 72
8
 73
4
 74
0
 42
0.0000001
 43
0.0000001
 44
0.0000000001
 40
0.0
 40
0.0
 40
0.0
 40
0.0
 40
1.0
 40
1.0
 40
1.0
 40
1.0
 10
110.7895277808
 20
578.4257646728
 30
0.0
 10
110.8907980407
 20
578.3649919436
 30
0.0
 10
110.9907866987
 20
578.3018485356
 30
0.0
 10
111.0875431598
 20
578.2341198311
 30
0.0
  0
SPLINE
  5
4D8
100
AcDbEntity
  8
0
100
AcDbSpline
 62
7
  6
BYLAYER
 70
0
 71
3
 72
9
 73
5
 74
0
 42
0.0000001
 43
0.0000001
 44
0.0000000001
 40
0.0
 40
0.0
 40
0.0
 40
0.0
 40
0.2357391958
 40
1.0
 40
1.0
 40
1.0
 40
1.0
 10
111.0875431598
 20
578.2341198311
 30
0.0
 10
111.1484958185
 20
578.1914534853
 30
0.0
 10
111.4011114456
 20
578.0021343618
 30
0.0
 10
111.6206663295
 20
577.7685882719
 30
0.0
 10
111.7622738661
 20
577.5733213276
 30
0.0
  0
SPLINE
  5
4D9
100
AcDbEntity
  8
0
100
AcDbSpline
 62
7
  6
BYLAYER
 70
0
 71
3
 72
8
 73
4
 74
0
 42
0.0000001
 43
0.0000001
 44
0.0000000001
 40
0.0
 40
0.0
 40
0.0
 40
0.0
 40
1.0
 40
1.0
 40
1.0
 40
1.0
 10
111.7622738661
 20
577.5733213276
 30
0.0
 10
111.861533243
 20
577.4364495504
 30
0.0
 10
111.9480221219
 20
577.2867932794
 30
0.0
 10
112.0032391988
 20
577.1269890813
 30
0.0
  0
SPLINE
  5
4DA
100
AcDbEntity
  8
0
100
AcDbSpline
 62
7
  6
BYLAYER
 70
0
 71
3
 72
8
 73
4
 74
0
 42
0.0000001
 43
0.0000001
 44
0.0000000001
 40
0.0
 40
0.0
 40
0.0
 40
0.0
 40
1.0
 40
1.0
 40
1.0
 40
1.0
 10
112.0032391988
 20
577.1269890813
 30
0.0
 10
112.0287598507
 20
577.0531295518
 30
0.0
 10
112.0442449603
 20
576.9748351183
 30
0.0
 10
112.0474096903
 20
576.8967549142
 30
0.0
  0
SPLINE
  5
4DB
100
AcDbEntity
  8
0
100
AcDbSpline
 62
7
  6
BYLAYER
 70
0
 71
3
 72
8
 73
4
 74
0
 42
0.0000001
 43
0.0000001
 44
0.0000000001
 40
0.0
 40
0.0
 40
0.0
 40
0.0
 40
1.0
 40
1.0
 40
1.0
 40
1.0
 10
254.7787122741
 20
243.4089884003
 30
0.0
 10
254.8692181069
 20
243.2340476548
 30
0.0
 10
254.9562371971
 20
243.0543203436
 30
0.0
 10
255.0072506198
 20
242.8640752362
 30
0.0
  0
SPLINE
  5
4DC
100
AcDbEntity
  8
0
100
AcDbSpline
 62
7
  6
BYLAYER
 70
0
 71
3
 72
9
 73
5
 74
0
 42
0.0000001
 43
0.0000001
 44
0.0000000001
 40
0.0
 40
0.0
 40
0.0
 40
0.0
 40
0.2627781163
 40
1.0
 40
1.0
 40
1.0
 40
1.0
 10
255.0072506198
 20
242.8640752362
 30
0.0
 10
255.019260673
 20
242.8192859685
 30
0.0
 10
255.0592163364
 20
242.6474379069
 30
0.0
 10
255.0820550093
 20
242.4709575764
 30
0.0
 10
255.08320224
 20
242.3408676492
 30
0.0
  0
SPLINE
  5
4DD
100
AcDbEntity
  8
0
100
AcDbSpline
 62
7
  6
BYLAYER
 70
0
 71
3
 72
8
 73
4
 74
0
 42
0.0000001
 43
0.0000001
 44
0.0000000001
 40
0.0
 40
0.0
 40
0.0
 40
0.0
 40
1.0
 40
1.0
 40
1.0
 40
1.0
 10
255.0806941647
 20
242.2249671412
 30
0.0
 10
255.07489793
 20
242.1100604529
 30
0.0
 10
255.059570922
 20
241.9957090728
 30
0.0
 10
255.0425327114
 20
241.8819248791
 30
0.0
  0
SPLINE
  5
4DE
100
AcDbEntity
  8
0
100
AcDbSpline
 62
7
  6
BYLAYER
 70
0
 71
3
 72
9
 73
5
 74
0
 42
0.0000001
 43
0.0000001
 44
0.0000000001
 40
0.0
 40
0.0
 40
0.0
 40
0.0
 40
0.4696999054
 40
1.0
 40
1.0
 40
1.0
 40
1.0
 10
252.0944899054
 20
244.404922732
 30
0.0
 10
252.2999709044
 20
244.4846644834
 30
0.0
 10
252.7504464331
 20
244.6487576951
 30
0.0
 10
253.2352626637
 20
244.569047269
 30
0.0
 10
253.4711812201
 20
244.489876015
 30
0.0
  0
SPLINE
  5
4DF
100
AcDbEntity
  8
0
100
AcDbSpline
 62
7
  6
BYLAYER
 70
0
 71
3
 72
9
 73
5
 74
0
 42
0.0000001
 43
0.0000001
 44
0.0000000001
 40
0.0
 40
0.0
 40
0.0
 40
0.0
 40
0.2365945356
 40
1.0
 40
1.0
 40
1.0
 40
1.0
 10
253.5967346218
 20
244.4434838218
 30
0.0
 10
253.6401607501
 20
244.4259696937
 30
0.0
 10
253.8213462895
 20
244.3463514217
 30
0.0
 10
253.99403905
 20
244.2463319943
 30
0.0
 10
254.1159576963
 20
244.1570953448
 30
0.0
  0
SPLINE
  5
4E0
100
AcDbEntity
  8
0
100
AcDbSpline
 62
7
  6
BYLAYER
 70
0
 71
3
 72
9
 73
5
 74
0
 42
0.0000001
 43
0.0000001
 44
0.0000000001
 40
0.0
 40
0.0
 40
0.0
 40
0.0
 40
0.2353934125
 40
1.0
 40
1.0
 40
1.0
 40
1.0
 10
254.1159576963
 20
244.1570953448
 30
0.0
 10
254.1738700143
 20
244.1147072329
 30
0.0
 10
254.4111503498
 20
243.9218345928
 30
0.0
 10
254.5957937528
 20
243.67367402
 30
0.0
 10
254.7283951898
 20
243.48194518
 30
0.0
  0
LINE
  5
4E1
100
AcDbEntity
  8
0
100
AcDbLine
 62
7
  6
BYLAYER
 10
254.7283951898
 20
243.48194518
 11
254.7787122741
 21
243.4089884003
  0
SPLINE
  5
4E2
100
AcDbEntity
  8
0
100
AcDbSpline
 62
7
  6
BYLAYER
 70
0
 71
3
 72
9
 73
5
 74
0
 42
0.0000001
 43
0.0000001
 44
0.0000000001
 40
0.0
 40
0.0
 40
0.0
 40
0.0
 40
0.2799893465
 40
1.0
 40
1.0
 40
1.0
 40
1.0
 10
110.93702645
 20
575.4011994996
 30
0.0
 10
110.9671313542
 20
575.3851343053
 30
0.0
 10
111.0734066534
 20
575.3277919242
 30
0.0
 10
111.1980154324
 20
575.2882049497
 30
0.0
 10
111.2852163357
 20
575.2980072936
 30
0.0
  0
SPLINE
  5
4E3
100
AcDbEntity
  8
0
100
AcDbSpline
 62
7
  6
BYLAYER
 70
0
 71
3
 72
8
 73
4
 74
0
 42
0.0000001
 43
0.0000001
 44
0.0000000001
 40
0.0
 40
0.0
 40
0.0
 40
0.0
 40
1.0
 40
1.0
 40
1.0
 40
1.0
 10
111.2852163357
 20
575.2980072936
 30
0.0
 10
111.3156235853
 20
575.3014254041
 30
0.0
 10
111.3464358085
 20
575.3097626786
 30
0.0
 10
111.372935288
 20
575.32506176
 30
0.0
  0
SPLINE
  5
4E4
100
AcDbEntity
  8
0
100
AcDbSpline
 62
7
  6
BYLAYER
 70
0
 71
3
 72
8
 73
4
 74
0
 42
0.0000001
 43
0.0000001
 44
0.0000000001
 40
0.0
 40
0.0
 40
0.0
 40
0.0
 40
1.0
 40
1.0
 40
1.0
 40
1.0
 10
110.2185919214
 20
576.2723905795
 30
0.0
 10
110.268078681
 20
576.1514197385
 30
0.0
 10
110.3224716081
 20
576.0315526484
 30
0.0
 10
110.390735551
 20
575.9200945044
 30
0.0
  0
SPLINE
  5
4E5
100
AcDbEntity
  8
0
100
AcDbSpline
 62
7
  6
BYLAYER
 70
0
 71
3
 72
8
 73
4
 74
0
 42
0.0000001
 43
0.0000001
 44
0.0000000001
 40
0.0
 40
0.0
 40
0.0
 40
0.0
 40
1.0
 40
1.0
 40
1.0
 40
1.0
 10
110.390735551
 20
575.9200945044
 30
0.0
 10
110.4608857485
 20
575.805556573
 30
0.0
 10
110.5462586682
 20
575.6980937183
 30
0.0
 10
110.6466257678
 20
575.6088388401
 30
0.0
  0
SPLINE
  5
4E6
100
AcDbEntity
  8
0
100
AcDbSpline
 62
7
  6
BYLAYER
 70
0
 71
3
 72
8
 73
4
 74
0
 42
0.0000001
 43
0.0000001
 44
0.0000000001
 40
0.0
 40
0.0
 40
0.0
 40
0.0
 40
1.0
 40
1.0
 40
1.0
 40
1.0
 10
110.6466257678
 20
575.6088388401
 30
0.0
 10
110.7355491992
 20
575.5297606355
 30
0.0
 10
110.8348361226
 20
575.4621738885
 30
0.0
 10
110.93702645
 20
575.4011994996
 30
0.0
  0
SPLINE
  5
4E7
100
AcDbEntity
  8
0
100
AcDbSpline
 62
7
  6
BYLAYER
 70
0
 71
3
 72
9
 73
5
 74
0
 42
0.0000001
 43
0.0000001
 44
0.0000000001
 40
0.0
 40
0.0
 40
0.0
 40
0.0
 40
0.2281391392
 40
1.0
 40
1.0
 40
1.0
 40
1.0
 10
109.8954206791
 20
576.7106179572
 30
0.0
 10
109.9185349459
 20
576.6966176254
 30
0.0
 10
110.0196834644
 20
576.634401027
 30
0.0
 10
110.0938540515
 20
576.5344238437
 30
0.0
 10
110.1363501794
 20
576.4534712428
 30
0.0
  0
SPLINE
  5
4E8
100
AcDbEntity
  8
0
100
AcDbSpline
 62
7
  6
BYLAYER
 70
0
 71
3
 72
8
 73
4
 74
0
 42
0.0000001
 43
0.0000001
 44
0.0000000001
 40
0.0
 40
0.0
 40
0.0
 40
0.0
 40
1.0
 40
1.0
 40
1.0
 40
1.0
 10
110.1363501794
 20
576.4534712428
 30
0.0
 10
110.167163557
 20
576.3947735875
 30
0.0
 10
110.1929244958
 20
576.3335139158
 30
0.0
 10
110.2185919214
 20
576.2723905795
 30
0.0
  0
SPLINE
  5
4E9
100
AcDbEntity
  8
0
100
AcDbSpline
 62
7
  6
BYLAYER
 70
0
 71
3
 72
8
 73
4
 74
0
 42
0.0000001
 43
0.0000001
 44
0.0000000001
 40
0.0
 40
0.0
 40
0.0
 40
0.0
 40
1.0
 40
1.0
 40
1.0
 40
1.0
 10
267.0179552383
 20
235.1477216331
 30
0.0
 10
267.0450886128
 20
235.1633894472
 30
0.0
 10
267.0645261606
 20
235.1933841655
 30
0.0
 10
267.0738418322
 20
235.2232993569
 30
0.0
  0
SPLINE
  5
4EA
100
AcDbEntity
  8
0
100
AcDbSpline
 62
7
  6
BYLAYER
 70
0
 71
3
 72
8
 73
4
 74
0
 42
0.0000001
 43
0.0000001
 44
0.0000000001
 40
0.0
 40
0.0
 40
0.0
 40
0.0
 40
1.0
 40
1.0
 40
1.0
 40
1.0
 10
267.0738418322
 20
235.2232993569
 30
0.0
 10
267.0839939813
 20
235.2559007085
 30
0.0
 10
267.0786405879
 20
235.2922430309
 30
0.0
 10
267.0719045321
 20
235.3257174959
 30
0.0
  0
LINE
  5
4EB
100
AcDbEntity
  8
0
100
AcDbLine
 62
7
  6
BYLAYER
 10
254.7080018904
 20
243.3681639849
 11
254.6583566921
 21
243.4401492172
  0
SPLINE
  5
4EC
100
AcDbEntity
  8
0
100
AcDbSpline
 62
7
  6
BYLAYER
 70
0
 71
3
 72
9
 73
5
 74
0
 42
0.0000001
 43
0.0000001
 44
0.0000000001
 40
0.0
 40
0.0
 40
0.0
 40
0.0
 40
0.5411711719
 40
1.0
 40
1.0
 40
1.0
 40
1.0
 10
254.6583566921
 20
243.4401492172
 30
0.0
 10
254.4887373294
 20
243.6854352061
 30
0.0
 10
254.1339911278
 20
244.1243099901
 30
0.0
 10
253.6265430792
 20
244.3749783849
 30
0.0
 10
253.3862839144
 20
244.4537579896
 30
0.0
  0
SPLINE
  5
4ED
100
AcDbEntity
  8
0
100
AcDbSpline
 62
7
  6
BYLAYER
 70
0
 71
3
 72
9
 73
5
 74
0
 42
0.0000001
 43
0.0000001
 44
0.0000000001
 40
0.0
 40
0.0
 40
0.0
 40
0.0
 40
0.529824131
 40
1.0
 40
1.0
 40
1.0
 40
1.0
 10
253.3862839144
 20
244.4537579896
 30
0.0
 10
253.1525033368
 20
244.5304133026
 30
0.0
 10
252.6725937776
 20
244.6060827904
 30
0.0
 10
252.2273193358
 20
244.4430867454
 30
0.0
 10
252.0237795217
 20
244.3640983167
 30
0.0
  0
SPLINE
  5
4EE
100
AcDbEntity
  8
0
100
AcDbSpline
 62
7
  6
BYLAYER
 70
0
 71
3
 72
9
 73
5
 74
0
 42
0.0000001
 43
0.0000001
 44
0.0000000001
 40
0.0
 40
0.0
 40
0.0
 40
0.0
 40
0.782929164
 40
1.0
 40
1.0
 40
1.0
 40
1.0
 10
108.9607100104
 20
580.3408504331
 30
0.0
 10
108.9589961334
 20
580.2903251676
 30
0.0
 10
108.9559741571
 20
580.2239130847
 30
0.0
 10
108.9291617954
 20
580.1645471853
 30
0.0
 10
108.9219804772
 20
580.1525102046
 30
0.0
  0
SPLINE
  5
4EF
100
AcDbEntity
  8
0
100
AcDbSpline
 62
7
  6
BYLAYER
 70
0
 71
3
 72
8
 73
4
 74
0
 42
0.0000001
 43
0.0000001
 44
0.0000000001
 40
0.0
 40
0.0
 40
0.0
 40
0.0
 40
1.0
 40
1.0
 40
1.0
 40
1.0
 10
108.9219804772
 20
580.1525102046
 30
0.0
 10
108.9076583073
 20
580.1285040713
 30
0.0
 10
108.8868186845
 20
580.1072596776
 30
0.0
 10
108.8626101002
 20
580.0932824304
 30
0.0
  0
SPLINE
  5
4F0
100
AcDbEntity
  8
0
100
AcDbSpline
 62
7
  6
BYLAYER
 70
0
 71
3
 72
8
 73
4
 74
0
 42
0.0000001
 43
0.0000001
 44
0.0000000001
 40
0.0
 40
0.0
 40
0.0
 40
0.0
 40
1.0
 40
1.0
 40
1.0
 40
1.0
 10
108.5936206272
 20
580.979534885
 30
0.0
 10
108.6693703555
 20
580.9318989564
 30
0.0
 10
108.739385516
 20
580.8721041151
 30
0.0
 10
108.7949458647
 20
580.8019596166
 30
0.0
  0
SPLINE
  5
4F1
100
AcDbEntity
  8
0
100
AcDbSpline
 62
7
  6
BYLAYER
 70
0
 71
3
 72
8
 73
4
 74
0
 42
0.0000001
 43
0.0000001
 44
0.0000000001
 40
0.0
 40
0.0
 40
0.0
 40
0.0
 40
1.0
 40
1.0
 40
1.0
 40
1.0
 10
108.7949458647
 20
580.8019596166
 30
0.0
 10
108.849338466
 20
580.7332893899
 30
0.0
 10
108.8937558566
 20
580.6549425989
 30
0.0
 10
108.9225360278
 20
580.5722029055
 30
0.0
  0
SPLINE
  5
4F2
100
AcDbEntity
  8
0
100
AcDbSpline
 62
7
  6
BYLAYER
 70
0
 71
3
 72
8
 73
4
 74
0
 42
0.0000001
 43
0.0000001
 44
0.0000000001
 40
0.0
 40
0.0
 40
0.0
 40
0.0
 40
1.0
 40
1.0
 40
1.0
 40
1.0
 10
108.9225360278
 20
580.5722029055
 30
0.0
 10
108.9482141946
 20
580.4983811192
 30
0.0
 10
108.9585914979
 20
580.4189819651
 30
0.0
 10
108.9607100104
 20
580.3408504331
 30
0.0
  0
SPLINE
  5
4F3
100
AcDbEntity
  8
0
100
AcDbSpline
 62
7
  6
BYLAYER
 70
0
 71
3
 72
8
 73
4
 74
0
 42
0.0000001
 43
0.0000001
 44
0.0000000001
 40
0.0
 40
0.0
 40
0.0
 40
0.0
 40
1.0
 40
1.0
 40
1.0
 40
1.0
 10
265.3968276092
 20
235.3429842056
 30
0.0
 10
265.3605990762
 20
235.3220677119
 30
0.0
 10
265.3316376428
 20
235.2870331936
 30
0.0
 10
265.3130149173
 20
235.2495738769
 30
0.0
  0
SPLINE
  5
4F4
100
AcDbEntity
  8
0
100
AcDbSpline
 62
7
  6
BYLAYER
 70
0
 71
3
 72
8
 73
4
 74
0
 42
0.0000001
 43
0.0000001
 44
0.0000000001
 40
0.0
 40
0.0
 40
0.0
 40
0.0
 40
1.0
 40
1.0
 40
1.0
 40
1.0
 10
265.3130149173
 20
235.2495738769
 30
0.0
 10
265.2758864049
 20
235.174890463
 30
0.0
 10
265.2703581276
 20
235.0873784365
 30
0.0
 10
265.2639483751
 20
235.004221634
 30
0.0
  0
SPLINE
  5
4F5
100
AcDbEntity
  8
0
100
AcDbSpline
 62
7
  6
BYLAYER
 70
0
 71
3
 72
9
 73
5
 74
0
 42
0.0000001
 43
0.0000001
 44
0.0000000001
 40
0.0
 40
0.0
 40
0.0
 40
0.0
 40
0.7290432293
 40
1.0
 40
1.0
 40
1.0
 40
1.0
 10
108.5853341844
 20
579.6983276498
 30
0.0
 10
108.6420093802
 20
579.6618498713
 30
0.0
 10
108.7171729184
 20
579.6053883553
 30
0.0
 10
108.7752162383
 20
579.5331152869
 30
0.0
 10
108.7901326609
 20
579.5129908689
 30
0.0
  0
SPLINE
  5
4F6
100
AcDbEntity
  8
0
100
AcDbSpline
 62
7
  6
BYLAYER
 70
0
 71
3
 72
8
 73
4
 74
0
 42
0.0000001
 43
0.0000001
 44
0.0000000001
 40
0.0
 40
0.0
 40
0.0
 40
0.0
 40
1.0
 40
1.0
 40
1.0
 40
1.0
 10
108.7901326609
 20
579.5129908689
 30
0.0
 10
108.8473429453
 20
579.4358058956
 30
0.0
 10
108.8924855426
 20
579.3479514078
 30
0.0
 10
108.9210924338
 20
579.2562334569
 30
0.0
  0
SPLINE
  5
4F7
100
AcDbEntity
  8
0
100
AcDbSpline
 62
7
  6
BYLAYER
 70
0
 71
3
 72
8
 73
4
 74
0
 42
0.0000001
 43
0.0000001
 44
0.0000000001
 40
0.0
 40
0.0
 40
0.0
 40
0.0
 40
1.0
 40
1.0
 40
1.0
 40
1.0
 10
108.9210924338
 20
579.2562334569
 30
0.0
 10
108.9482034056
 20
579.169311646
 30
0.0
 10
108.9579717733
 20
579.0769772171
 30
0.0
 10
108.9607100119
 20
578.9859667339
 30
0.0
  0
SPLINE
  5
4F8
100
AcDbEntity
  8
0
100
AcDbSpline
 62
7
  6
BYLAYER
 70
0
 71
3
 72
9
 73
5
 74
0
 42
0.0000001
 43
0.0000001
 44
0.0000000001
 40
0.0
 40
0.0
 40
0.0
 40
0.0
 40
0.2832933902
 40
1.0
 40
1.0
 40
1.0
 40
1.0
 10
467.6210571106
 20
132.8012530526
 30
0.0
 10
467.6138447748
 20
132.6161946254
 30
0.0
 10
467.5476848682
 20
131.9688248192
 30
0.0
 10
467.2813025537
 20
131.3162953926
 30
0.0
 10
466.9543501428
 20
130.9806936093
 30
0.0
  0
SPLINE
  5
4F9
100
AcDbEntity
  8
0
100
AcDbSpline
 62
7
  6
BYLAYER
 70
0
 71
3
 72
8
 73
4
 74
0
 42
0.0000001
 43
0.0000001
 44
0.0000000001
 40
0.0
 40
0.0
 40
0.0
 40
0.0
 40
1.0
 40
1.0
 40
1.0
 40
1.0
 10
466.9543501428
 20
130.9806936093
 30
0.0
 10
466.8513501164
 20
130.8749687657
 30
0.0
 10
466.73375694
 20
130.7813996741
 30
0.0
 10
466.6063455331
 20
130.706880674
 30
0.0
  0
SPLINE
  5
4FA
100
AcDbEntity
  8
0
100
AcDbSpline
 62
7
  6
BYLAYER
 70
0
 71
3
 72
9
 73
5
 74
0
 42
0.0000001
 43
0.0000001
 44
0.0000000001
 40
0.0
 40
0.0
 40
0.0
 40
0.0
 40
0.7213025572
 40
1.0
 40
1.0
 40
1.0
 40
1.0
 10
265.4512183056
 20
235.6128638971
 30
0.0
 10
265.4931111846
 20
235.6370551169
 30
0.0
 10
265.5634285291
 20
235.6565686776
 30
0.0
 10
265.6293474964
 20
235.6411799773
 30
0.0
 10
265.6470994476
 20
235.635328381
 30
0.0
  0
SPLINE
  5
4FB
100
AcDbEntity
  8
0
100
AcDbSpline
 62
7
  6
BYLAYER
 70
0
 71
3
 72
9
 73
5
 74
0
 42
0.0000001
 43
0.0000001
 44
0.0000000001
 40
0.0
 40
0.0
 40
0.0
 40
0.0
 40
0.2151210279
 40
1.0
 40
1.0
 40
1.0
 40
1.0
 10
265.6470994476
 20
235.635328381
 30
0.0
 10
265.6880636064
 20
235.6218253176
 30
0.0
 10
265.8626120719
 20
235.5145937198
 30
0.0
 10
265.9739620187
 20
235.3391169765
 30
0.0
 10
266.0574576092
 20
235.20572336
 30
0.0
  0
SPLINE
  5
4FC
100
AcDbEntity
  8
0
100
AcDbSpline
 62
7
  6
BYLAYER
 70
0
 71
3
 72
8
 73
4
 74
0
 42
0.0000001
 43
0.0000001
 44
0.0000000001
 40
0.0
 40
0.0
 40
0.0
 40
0.0
 40
1.0
 40
1.0
 40
1.0
 40
1.0
 10
108.9607100119
 20
576.4608692188
 30
0.0
 10
108.9584405332
 20
576.3772860338
 30
0.0
 10
108.9559935915
 20
576.2894809733
 30
0.0
 10
108.9221977119
 20
576.2130013167
 30
0.0
  0
SPLINE
  5
4FD
100
AcDbEntity
  8
0
100
AcDbSpline
 62
7
  6
BYLAYER
 70
0
 71
3
 72
8
 73
4
 74
0
 42
0.0000001
 43
0.0000001
 44
0.0000000001
 40
0.0
 40
0.0
 40
0.0
 40
0.0
 40
1.0
 40
1.0
 40
1.0
 40
1.0
 10
108.9221977119
 20
576.2130013167
 30
0.0
 10
108.9050447104
 20
576.1741842871
 30
0.0
 10
108.8768445661
 20
576.1369183348
 30
0.0
 10
108.84009146
 20
576.1157005017
 30
0.0
  0
SPLINE
  5
4FE
100
AcDbEntity
  8
0
100
AcDbSpline
 62
7
  6
BYLAYER
 70
0
 71
3
 72
8
 73
4
 74
0
 42
0.0000001
 43
0.0000001
 44
0.0000000001
 40
0.0
 40
0.0
 40
0.0
 40
0.0
 40
1.0
 40
1.0
 40
1.0
 40
1.0
 10
253.8884720107
 20
242.7973446945
 30
0.0
 10
253.8588594778
 20
242.8137298271
 30
0.0
 10
253.8183984697
 20
242.8272688496
 30
0.0
 10
253.788048436
 20
242.8122938661
 30
0.0
  0
SPLINE
  5
4FF
100
AcDbEntity
  8
0
100
AcDbSpline
 62
7
  6
BYLAYER
 70
0
 71
3
 72
9
 73
5
 74
0
 42
0.0000001
 43
0.0000001
 44
0.0000000001
 40
0.0
 40
0.0
 40
0.0
 40
0.0
 40
0.2929756802
 40
1.0
 40
1.0
 40
1.0
 40
1.0
 10
107.422746359
 20
577.3545338938
 30
0.0
 10
107.4218016431
 20
577.3176028355
 30
0.0
 10
107.4193016767
 20
577.1956435986
 30
0.0
 10
107.3792799265
 20
577.0469693571
 30
0.0
 10
107.3020689786
 20
577.0023963878
 30
0.0
  0
SPLINE
  5
500
100
AcDbEntity
  8
0
100
AcDbSpline
 62
7
  6
BYLAYER
 70
0
 71
3
 72
9
 73
5
 74
0
 42
0.0000001
 43
0.0000001
 44
0.0000000001
 40
0.0
 40
0.0
 40
0.0
 40
0.0
 40
0.2271347591
 40
1.0
 40
1.0
 40
1.0
 40
1.0
 10
107.0473705322
 20
581.9334802791
 30
0.0
 10
107.0755316993
 20
581.9155481929
 30
0.0
 10
107.1982805007
 20
581.8342341315
 30
0.0
 10
107.2886731021
 20
581.7087657652
 30
0.0
 10
107.3372429094
 20
581.6060713509
 30
0.0
  0
SPLINE
  5
501
100
AcDbEntity
  8
0
100
AcDbSpline
 62
7
  6
BYLAYER
 70
0
 71
3
 72
9
 73
5
 74
0
 42
0.0000001
 43
0.0000001
 44
0.0000000001
 40
0.0
 40
0.0
 40
0.0
 40
0.0
 40
0.2703455666
 40
1.0
 40
1.0
 40
1.0
 40
1.0
 10
107.3372429094
 20
581.6060713509
 30
0.0
 10
107.3540775524
 20
581.5704767316
 30
0.0
 10
107.4071504869
 20
581.4340744121
 30
0.0
 10
107.4198259315
 20
581.286206793
 30
0.0
 10
107.422746359
 20
581.1799752965
 30
0.0
  0
SPLINE
  5
502
100
AcDbEntity
  8
0
100
AcDbSpline
 62
7
  6
BYLAYER
 70
0
 71
3
 72
8
 73
4
 74
0
 42
0.0000001
 43
0.0000001
 44
0.0000000001
 40
0.0
 40
0.0
 40
0.0
 40
0.0
 40
1.0
 40
1.0
 40
1.0
 40
1.0
 10
261.5990290897
 20
237.5239557901
 30
0.0
 10
261.5809304477
 20
237.5135065943
 30
0.0
 10
261.5643763163
 20
237.5000263395
 30
0.0
 10
261.5500721478
 20
237.484790287
 30
0.0
  0
SPLINE
  5
503
100
AcDbEntity
  8
0
100
AcDbSpline
 62
7
  6
BYLAYER
 70
0
 71
3
 72
9
 73
5
 74
0
 42
0.0000001
 43
0.0000001
 44
0.0000000001
 40
0.0
 40
0.0
 40
0.0
 40
0.0
 40
0.2228523378
 40
1.0
 40
1.0
 40
1.0
 40
1.0
 10
261.5500721478
 20
237.484790287
 30
0.0
 10
261.5353252858
 20
237.4690827005
 30
0.0
 10
261.4787396703
 20
237.3893684765
 30
0.0
 10
261.4609228076
 20
237.2891462613
 30
0.0
 10
261.4561769687
 20
237.2141620242
 30
0.0
  0
SPLINE
  5
504
100
AcDbEntity
  8
0
100
AcDbSpline
 62
7
  6
BYLAYER
 70
0
 71
3
 72
9
 73
5
 74
0
 42
0.0000001
 43
0.0000001
 44
0.0000000001
 40
0.0
 40
0.0
 40
0.0
 40
0.0
 40
0.2262572045
 40
1.0
 40
1.0
 40
1.0
 40
1.0
 10
261.4561769687
 20
237.2141620242
 30
0.0
 10
261.4526934253
 20
237.1591220494
 30
0.0
 10
261.4603056201
 20
236.9147731034
 30
0.0
 10
261.5661684635
 20
236.6750415115
 30
0.0
 10
261.686442121
 20
236.5297692913
 30
0.0
  0
SPLINE
  5
505
100
AcDbEntity
  8
0
100
AcDbSpline
 62
7
  6
BYLAYER
 70
0
 71
3
 72
8
 73
4
 74
0
 42
0.0000001
 43
0.0000001
 44
0.0000000001
 40
0.0
 40
0.0
 40
0.0
 40
0.0
 40
1.0
 40
1.0
 40
1.0
 40
1.0
 10
261.7940064243
 20
236.4182037316
 30
0.0
 10
261.8517711797
 20
236.3667510663
 30
0.0
 10
261.9158810696
 20
236.3214603371
 30
0.0
 10
261.9843074974
 20
236.2853775476
 30
0.0
  0
SPLINE
  5
506
100
AcDbEntity
  8
0
100
AcDbSpline
 62
7
  6
BYLAYER
 70
0
 71
3
 72
9
 73
5
 74
0
 42
0.0000001
 43
0.0000001
 44
0.0000000001
 40
0.0
 40
0.0
 40
0.0
 40
0.0
 40
0.269642679
 40
1.0
 40
1.0
 40
1.0
 40
1.0
 10
261.9843074974
 20
236.2853775476
 30
0.0
 10
262.0150439819
 20
236.2691695102
 30
0.0
 10
262.1327024622
 20
236.2150999644
 30
0.0
 10
262.2623878431
 20
236.1966277038
 30
0.0
 10
262.3557797989
 20
236.1849503476
 30
0.0
  0
SPLINE
  5
507
100
AcDbEntity
  8
0
100
AcDbSpline
 62
7
  6
BYLAYER
 70
0
 71
3
 72
8
 73
4
 74
0
 42
0.0000001
 43
0.0000001
 44
0.0000000001
 40
0.0
 40
0.0
 40
0.0
 40
0.0
 40
1.0
 40
1.0
 40
1.0
 40
1.0
 10
261.3757765407
 20
237.8821606041
 30
0.0
 10
261.4388434278
 20
237.9185733332
 30
0.0
 10
261.5182189192
 20
237.9299906586
 30
0.0
 10
261.5905963393
 20
237.9219390652
 30
0.0
  0
SPLINE
  5
508
100
AcDbEntity
  8
0
100
AcDbSpline
 62
7
  6
BYLAYER
 70
0
 71
3
 72
8
 73
4
 74
0
 42
0.0000001
 43
0.0000001
 44
0.0000000001
 40
0.0
 40
0.0
 40
0.0
 40
0.0
 40
1.0
 40
1.0
 40
1.0
 40
1.0
 10
261.5905963393
 20
237.9219390652
 30
0.0
 10
261.6412643418
 20
237.9163025262
 30
0.0
 10
261.6912521083
 20
237.902798314
 30
0.0
 10
261.7389807
 20
237.8848818809
 30
0.0
  0
SPLINE
  5
509
100
AcDbEntity
  8
0
100
AcDbSpline
 62
7
  6
BYLAYER
 70
0
 71
3
 72
9
 73
5
 74
0
 42
0.0000001
 43
0.0000001
 44
0.0000000001
 40
0.0
 40
0.0
 40
0.0
 40
0.0
 40
0.224158474
 40
1.0
 40
1.0
 40
1.0
 40
1.0
 10
261.7389807
 20
237.8848818809
 30
0.0
 10
261.7904877192
 20
237.8655470958
 30
0.0
 10
262.0116439293
 20
237.7549634141
 30
0.0
 10
262.1870762742
 20
237.5763899898
 30
0.0
 10
262.3228925937
 20
237.4429234659
 30
0.0
  0
SPLINE
  5
50A
100
AcDbEntity
  8
0
100
AcDbSpline
 62
7
  6
BYLAYER
 70
0
 71
3
 72
8
 73
4
 74
0
 42
0.0000001
 43
0.0000001
 44
0.0000000001
 40
0.0
 40
0.0
 40
0.0
 40
0.0
 40
1.0
 40
1.0
 40
1.0
 40
1.0
 10
94.0343418723
 20
585.3386770735
 30
0.0
 10
94.0061683861
 20
585.2270014038
 30
0.0
 10
93.97748386
 20
585.1152500977
 30
0.0
 10
93.9411276266
 20
585.0059641204
 30
0.0
  0
SPLINE
  5
50B
100
AcDbEntity
  8
0
100
AcDbSpline
 62
7
  6
BYLAYER
 70
0
 71
3
 72
9
 73
5
 74
0
 42
0.0000001
 43
0.0000001
 44
0.0000000001
 40
0.0
 40
0.0
 40
0.0
 40
0.0
 40
0.2797860581
 40
1.0
 40
1.0
 40
1.0
 40
1.0
 10
93.9411276266
 20
585.0059641204
 30
0.0
 10
93.934404371
 20
584.9857541729
 30
0.0
 10
93.910157396
 20
584.9137986963
 30
0.0
 10
93.8565744727
 20
584.8508240272
 30
0.0
 10
93.8090915769
 20
584.8234131624
 30
0.0
  0
SPLINE
  5
50C
100
AcDbEntity
  8
0
100
AcDbSpline
 62
7
  6
BYLAYER
 70
0
 71
3
 72
8
 73
4
 74
0
 42
0.0000001
 43
0.0000001
 44
0.0000000001
 40
0.0
 40
0.0
 40
0.0
 40
0.0
 40
1.0
 40
1.0
 40
1.0
 40
1.0
 10
95.437236517
 20
584.2751715221
 30
0.0
 10
95.4349007672
 20
584.1901195326
 30
0.0
 10
95.4331087324
 20
584.1013075421
 30
0.0
 10
95.4010380209
 20
584.0224991282
 30
0.0
  0
SPLINE
  5
50D
100
AcDbEntity
  8
0
100
AcDbSpline
 62
7
  6
BYLAYER
 70
0
 71
3
 72
8
 73
4
 74
0
 42
0.0000001
 43
0.0000001
 44
0.0000000001
 40
0.0
 40
0.0
 40
0.0
 40
0.0
 40
1.0
 40
1.0
 40
1.0
 40
1.0
 10
95.4010380209
 20
584.0224991282
 30
0.0
 10
95.3844366967
 20
583.9817041484
 30
0.0
 10
95.3568543216
 20
583.9411698694
 30
0.0
 10
95.3187084622
 20
583.9191533359
 30
0.0
  0
SPLINE
  5
50E
100
AcDbEntity
  8
0
100
AcDbSpline
 62
7
  6
BYLAYER
 70
0
 71
3
 72
8
 73
4
 74
0
 42
0.0000001
 43
0.0000001
 44
0.0000000001
 40
0.0
 40
0.0
 40
0.0
 40
0.0
 40
1.0
 40
1.0
 40
1.0
 40
1.0
 10
94.923477108
 20
588.8105796963
 30
0.0
 10
95.0257171353
 20
588.7483362185
 30
0.0
 10
95.1252966411
 20
588.6782430083
 30
0.0
 10
95.2086017057
 20
588.5922922089
 30
0.0
  0
SPLINE
  5
50F
100
AcDbEntity
  8
0
100
AcDbSpline
 62
7
  6
BYLAYER
 70
0
 71
3
 72
9
 73
5
 74
0
 42
0.0000001
 43
0.0000001
 44
0.0000000001
 40
0.0
 40
0.0
 40
0.0
 40
0.0
 40
0.5266980141
 40
1.0
 40
1.0
 40
1.0
 40
1.0
 10
95.2086017057
 20
588.5922922089
 30
0.0
 10
95.2889023394
 20
588.5094412598
 30
0.0
 10
95.4169013917
 20
588.3187298563
 30
0.0
 10
95.4345484159
 20
588.0951810791
 30
0.0
 10
95.437236517
 20
587.9915333042
 30
0.0
  0
SPLINE
  5
510
100
AcDbEntity
  8
0
100
AcDbSpline
 62
7
  6
BYLAYER
 70
0
 71
3
 72
9
 73
5
 74
0
 42
0.0000001
 43
0.0000001
 44
0.0000000001
 40
0.0
 40
0.0
 40
0.0
 40
0.0
 40
0.4970959687
 40
1.0
 40
1.0
 40
1.0
 40
1.0
 10
258.1427404892
 20
243.717733813
 30
0.0
 10
258.1345711415
 20
243.7130170782
 30
0.0
 10
258.1186811366
 20
243.7025564285
 30
0.0
 10
258.1040699582
 20
243.6903813701
 30
0.0
 10
258.0970721144
 20
243.6838923349
 30
0.0
  0
SPLINE
  5
511
100
AcDbEntity
  8
0
100
AcDbSpline
 62
7
  6
BYLAYER
 70
0
 71
3
 72
9
 73
5
 74
0
 42
0.0000001
 43
0.0000001
 44
0.0000000001
 40
0.0
 40
0.0
 40
0.0
 40
0.0
 40
0.2236206435
 40
1.0
 40
1.0
 40
1.0
 40
1.0
 10
258.0970721144
 20
243.6838923349
 30
0.0
 10
258.0760090213
 20
243.6643607255
 30
0.0
 10
257.9955433886
 20
243.5610279857
 30
0.0
 10
257.9798725506
 20
243.4264198555
 30
0.0
 10
257.9650367371
 20
243.327799638
 30
0.0
  0
SPLINE
  5
512
100
AcDbEntity
  8
0
100
AcDbSpline
 62
7
  6
BYLAYER
 70
0
 71
3
 72
9
 73
5
 74
0
 42
0.0000001
 43
0.0000001
 44
0.0000000001
 40
0.0
 40
0.0
 40
0.0
 40
0.0
 40
0.4868499959
 40
1.0
 40
1.0
 40
1.0
 40
1.0
 10
92.2776161482
 20
590.3381336758
 30
0.0
 10
92.423219046
 20
590.2519941672
 30
0.0
 10
92.7415219719
 20
590.0561785669
 30
0.0
 10
92.8083241262
 20
589.6885339035
 30
0.0
 10
92.8461950154
 20
589.514287792
 30
0.0
  0
SPLINE
  5
513
100
AcDbEntity
  8
0
100
AcDbSpline
 62
7
  6
BYLAYER
 70
0
 71
3
 72
8
 73
4
 74
0
 42
0.0000001
 43
0.0000001
 44
0.0000000001
 40
0.0
 40
0.0
 40
0.0
 40
0.0
 40
1.0
 40
1.0
 40
1.0
 40
1.0
 10
257.4760598033
 20
244.3945330736
 30
0.0
 10
257.5973685916
 20
244.4645703795
 30
0.0
 10
257.7484681002
 20
244.4906323347
 30
0.0
 10
257.8879538499
 20
244.4777959799
 30
0.0
  0
SPLINE
  5
514
100
AcDbEntity
  8
0
100
AcDbSpline
 62
7
  6
BYLAYER
 70
0
 71
3
 72
9
 73
5
 74
0
 42
0.0000001
 43
0.0000001
 44
0.0000000001
 40
0.0
 40
0.0
 40
0.0
 40
0.0
 40
0.2333612531
 40
1.0
 40
1.0
 40
1.0
 40
1.0
 10
257.8879538499
 20
244.4777959799
 30
0.0
 10
257.9215806043
 20
244.4747014347
 30
0.0
 10
258.0649420215
 20
244.4525031249
 30
0.0
 10
258.2015484138
 20
244.3993712089
 30
0.0
 10
258.3024198774
 20
244.3531968931
 30
0.0
  0
SPLINE
  5
515
100
AcDbEntity
  8
0
100
AcDbSpline
 62
7
  6
BYLAYER
 70
0
 71
3
 72
8
 73
4
 74
0
 42
0.0000001
 43
0.0000001
 44
0.0000000001
 40
0.0
 40
0.0
 40
0.0
 40
0.0
 40
1.0
 40
1.0
 40
1.0
 40
1.0
 10
258.3024198774
 20
244.3531968931
 30
0.0
 10
258.3621036486
 20
244.3258764081
 30
0.0
 10
258.4209185597
 20
244.2966875068
 30
0.0
 10
258.4797877543
 20
244.2676533998
 30
0.0
  0
SPLINE
  5
516
100
AcDbEntity
  8
0
100
AcDbSpline
 62
7
  6
BYLAYER
 70
0
 71
3
 72
8
 73
4
 74
0
 42
0.0000001
 43
0.0000001
 44
0.0000000001
 40
0.0
 40
0.0
 40
0.0
 40
0.0
 40
1.0
 40
1.0
 40
1.0
 40
1.0
 10
92.2552427538
 20
586.1151254337
 30
0.0
 10
92.2529918681
 20
586.0301258535
 30
0.0
 10
92.2513915789
 20
585.9414229544
 30
0.0
 10
92.2196793983
 20
585.8625285141
 30
0.0
  0
SPLINE
  5
517
100
AcDbEntity
  8
0
100
AcDbSpline
 62
7
  6
BYLAYER
 70
0
 71
3
 72
8
 73
4
 74
0
 42
0.0000001
 43
0.0000001
 44
0.0000000001
 40
0.0
 40
0.0
 40
0.0
 40
0.0
 40
1.0
 40
1.0
 40
1.0
 40
1.0
 10
92.2196793983
 20
585.8625285141
 30
0.0
 10
92.202778557
 20
585.8204821335
 30
0.0
 10
92.174422988
 20
585.7786888893
 30
0.0
 10
92.1351764037
 20
585.7560340405
 30
0.0
  0
SPLINE
  5
518
100
AcDbEntity
  8
0
100
AcDbSpline
 62
7
  6
BYLAYER
 70
0
 71
3
 72
9
 73
5
 74
0
 42
0.0000001
 43
0.0000001
 44
0.0000000001
 40
0.0
 40
0.0
 40
0.0
 40
0.0
 40
0.6663262599
 40
1.0
 40
1.0
 40
1.0
 40
1.0
 10
252.4396279915
 20
242.2455731442
 30
0.0
 10
252.4511176944
 20
242.2532517341
 30
0.0
 10
252.4676500589
 20
242.2714445767
 30
0.0
 10
252.4640755539
 20
242.2929068212
 30
0.0
 10
252.4624473611
 20
242.2996328117
 30
0.0
  0
SPLINE
  5
519
100
AcDbEntity
  8
0
100
AcDbSpline
 62
7
  6
BYLAYER
 70
0
 71
3
 72
9
 73
5
 74
0
 42
0.0000001
 43
0.0000001
 44
0.0000000001
 40
0.0
 40
0.0
 40
0.0
 40
0.0
 40
0.4297723498
 40
1.0
 40
1.0
 40
1.0
 40
1.0
 10
262.3757951616
 20
241.1846942616
 30
0.0
 10
262.2289656568
 20
241.0999128784
 30
0.0
 10
262.122419231
 20
240.6425599049
 30
0.0
 10
262.1659406615
 20
240.2660887074
 30
0.0
 10
262.2276723129
 20
240.0497648609
 30
0.0
  0
SPLINE
  5
51A
100
AcDbEntity
  8
0
100
AcDbSpline
 62
7
  6
BYLAYER
 70
0
 71
3
 72
10
 73
6
 74
0
 42
0.0000001
 43
0.0000001
 44
0.0000000001
 40
0.0
 40
0.0
 40
0.0
 40
0.0
 40
0.2751166809
 40
0.6783266523
 40
1.0
 40
1.0
 40
1.0
 40
1.0
 10
262.2276723129
 20
240.0497648609
 30
0.0
 10
262.2594434863
 20
239.9384303627
 30
0.0
 10
262.365382625
 20
239.6700764275
 30
0.0
 10
262.6293124698
 20
239.335514995
 30
0.0
 10
262.9180242389
 20
239.1781131863
 30
0.0
 10
263.05327303
 20
239.1723452749
 30
0.0
  0
SPLINE
  5
51B
100
AcDbEntity
  8
0
100
AcDbSpline
 62
7
  6
BYLAYER
 70
0
 71
3
 72
8
 73
4
 74
0
 42
0.0000001
 43
0.0000001
 44
0.0000000001
 40
0.0
 40
0.0
 40
0.0
 40
0.0
 40
1.0
 40
1.0
 40
1.0
 40
1.0
 10
263.05327303
 20
239.1723452749
 30
0.0
 10
263.1153410263
 20
239.1696982811
 30
0.0
 10
263.1783962205
 20
239.1839069987
 30
0.0
 10
263.2366986276
 20
239.205360951
 30
0.0
  0
SPLINE
  5
51C
100
AcDbEntity
  8
0
100
AcDbSpline
 62
7
  6
BYLAYER
 70
0
 71
3
 72
9
 73
5
 74
0
 42
0.0000001
 43
0.0000001
 44
0.0000000001
 40
0.0
 40
0.0
 40
0.0
 40
0.0
 40
0.5002684526
 40
1.0
 40
1.0
 40
1.0
 40
1.0
 10
263.2366986276
 20
239.205360951
 30
0.0
 10
263.2450341699
 20
239.2084282399
 30
0.0
 10
263.2616195642
 20
239.2147677939
 30
0.0
 10
263.2781274301
 20
239.2213028087
 30
0.0
 10
263.2863792878
 20
239.2245627362
 30
0.0
  0
SPLINE
  5
51D
100
AcDbEntity
  8
0
100
AcDbSpline
 62
7
  6
BYLAYER
 70
0
 71
3
 72
9
 73
5
 74
0
 42
0.0000001
 43
0.0000001
 44
0.0000000001
 40
0.0
 40
0.0
 40
0.0
 40
0.0
 40
0.2755482476
 40
1.0
 40
1.0
 40
1.0
 40
1.0
 10
62.5566307656
 20
621.030679417
 30
0.0
 10
62.5566307656
 20
621.0927538048
 30
0.0
 10
62.5678707606
 20
621.3172315592
 30
0.0
 10
62.6280827613
 20
621.5440255158
 30
0.0
 10
62.7115182704
 20
621.6842869122
 30
0.0
  0
SPLINE
  5
51E
100
AcDbEntity
  8
0
100
AcDbSpline
 62
7
  6
BYLAYER
 70
0
 71
3
 72
8
 73
4
 74
0
 42
0.0000001
 43
0.0000001
 44
0.0000000001
 40
0.0
 40
0.0
 40
0.0
 40
0.0
 40
1.0
 40
1.0
 40
1.0
 40
1.0
 10
62.7115182704
 20
621.6842869122
 30
0.0
 10
62.7743343532
 20
621.7898854948
 30
0.0
 10
62.8644680868
 20
621.8847792508
 30
0.0
 10
62.9708763856
 20
621.9462137269
 30
0.0
  0
SPLINE
  5
51F
100
AcDbEntity
  8
0
100
AcDbSpline
 62
7
  6
BYLAYER
 70
0
 71
3
 72
9
 73
5
 74
0
 42
0.0000001
 43
0.0000001
 44
0.0000000001
 40
0.0
 40
0.0
 40
0.0
 40
0.0
 40
0.5105831043
 40
1.0
 40
1.0
 40
1.0
 40
1.0
 10
104.548732615
 20
579.0077510766
 30
0.0
 10
104.3109152689
 20
579.156746056
 30
0.0
 10
103.928463022
 20
579.5968973399
 30
0.0
 10
103.8068596469
 20
580.1516306189
 30
0.0
 10
103.7988096057
 20
580.4205124336
 30
0.0
  0
SPLINE
  5
520
100
AcDbEntity
  8
0
100
AcDbSpline
 62
7
  6
BYLAYER
 70
0
 71
3
 72
8
 73
4
 74
0
 42
0.0000001
 43
0.0000001
 44
0.0000000001
 40
0.0
 40
0.0
 40
0.0
 40
0.0
 40
1.0
 40
1.0
 40
1.0
 40
1.0
 10
105.4461542942
 20
579.0513005079
 30
0.0
 10
105.3610839123
 20
579.0086982966
 30
0.0
 10
105.2758779044
 20
578.9655489666
 30
0.0
 10
105.1868019542
 20
578.932121532
 30
0.0
  0
SPLINE
  5
521
100
AcDbEntity
  8
0
100
AcDbSpline
 62
7
  6
BYLAYER
 70
0
 71
3
 72
9
 73
5
 74
0
 42
0.0000001
 43
0.0000001
 44
0.0000000001
 40
0.0
 40
0.0
 40
0.0
 40
0.0
 40
0.4580186476
 40
1.0
 40
1.0
 40
1.0
 40
1.0
 10
105.1868019542
 20
578.932121532
 30
0.0
 10
105.092032555
 20
578.8965575229
 30
0.0
 10
104.8633847661
 20
578.8515415188
 30
0.0
 10
104.6543818127
 20
578.9513138967
 30
0.0
 10
104.548732615
 20
579.0077510766
 30
0.0
  0
SPLINE
  5
522
100
AcDbEntity
  8
0
100
AcDbSpline
 62
7
  6
BYLAYER
 70
0
 71
3
 72
8
 73
4
 74
0
 42
0.0000001
 43
0.0000001
 44
0.0000000001
 40
0.0
 40
0.0
 40
0.0
 40
0.0
 40
1.0
 40
1.0
 40
1.0
 40
1.0
 10
105.6143690686
 20
579.0115941859
 30
0.0
 10
105.5767376603
 20
579.0316829967
 30
0.0
 10
105.5372779822
 20
579.0533512318
 30
0.0
 10
105.4947930661
 20
579.0571872616
 30
0.0
  0
SPLINE
  5
523
100
AcDbEntity
  8
0
100
AcDbSpline
 62
7
  6
BYLAYER
 70
0
 71
3
 72
9
 73
5
 74
0
 42
0.0000001
 43
0.0000001
 44
0.0000000001
 40
0.0
 40
0.0
 40
0.0
 40
0.0
 40
0.5125278109
 40
1.0
 40
1.0
 40
1.0
 40
1.0
 10
105.4947930661
 20
579.0571872616
 30
0.0
 10
105.4864156228
 20
579.0579436741
 30
0.0
 10
105.4697942036
 20
579.0576457591
 30
0.0
 10
105.4538879989
 20
579.0533486381
 30
0.0
 10
105.4461542942
 20
579.0513005079
 30
0.0
  0
SPLINE
  5
524
100
AcDbEntity
  8
0
100
AcDbSpline
 62
7
  6
BYLAYER
 70
0
 71
3
 72
9
 73
5
 74
0
 42
0.0000001
 43
0.0000001
 44
0.0000000001
 40
0.0
 40
0.0
 40
0.0
 40
0.0
 40
0.2280814863
 40
1.0
 40
1.0
 40
1.0
 40
1.0
 10
105.8770492829
 20
578.5709738158
 30
0.0
 10
105.8763907289
 20
578.5973526993
 30
0.0
 10
105.8701065813
 20
578.7130954954
 30
0.0
 10
105.8144935993
 20
578.8240353011
 30
0.0
 10
105.7569952953
 20
578.8923670723
 30
0.0
  0
SPLINE
  5
525
100
AcDbEntity
  8
0
100
AcDbSpline
 62
7
  6
BYLAYER
 70
0
 71
3
 72
8
 73
4
 74
0
 42
0.0000001
 43
0.0000001
 44
0.0000000001
 40
0.0
 40
0.0
 40
0.0
 40
0.0
 40
1.0
 40
1.0
 40
1.0
 40
1.0
 10
105.7569952953
 20
578.8923670723
 30
0.0
 10
105.7170991595
 20
578.9397801861
 30
0.0
 10
105.6670847534
 20
578.9790248507
 30
0.0
 10
105.6143690686
 20
579.0115941859
 30
0.0
  0
SPLINE
  5
526
100
AcDbEntity
  8
0
100
AcDbSpline
 62
7
  6
BYLAYER
 70
0
 71
3
 72
9
 73
5
 74
0
 42
0.0000001
 43
0.0000001
 44
0.0000000001
 40
0.0
 40
0.0
 40
0.0
 40
0.0
 40
0.5074461689
 40
1.0
 40
1.0
 40
1.0
 40
1.0
 10
105.9217960709
 20
579.7096126133
 30
0.0
 10
105.906667492
 20
580.1728589343
 30
0.0
 10
105.5834919307
 20
581.0811773186
 30
0.0
 10
104.9028177099
 20
581.7391528384
 30
0.0
 10
104.5147582031
 20
581.9667744704
 30
0.0
  0
SPLINE
  5
527
100
AcDbEntity
  8
0
100
AcDbSpline
 62
7
  6
BYLAYER
 70
0
 71
3
 72
9
 73
5
 74
0
 42
0.0000001
 43
0.0000001
 44
0.0000000001
 40
0.0
 40
0.0
 40
0.0
 40
0.0
 40
0.2828423997
 40
1.0
 40
1.0
 40
1.0
 40
1.0
 10
103.7988096057
 20
580.9104138831
 30
0.0
 10
103.8051761159
 20
580.9641102587
 30
0.0
 10
103.8286508827
 20
581.1493817066
 30
0.0
 10
103.910491078
 20
581.3581927149
 30
0.0
 10
104.0292257526
 20
581.4267438669
 30
0.0
  0
SPLINE
  5
528
100
AcDbEntity
  8
0
100
AcDbSpline
 62
7
  6
BYLAYER
 70
0
 71
3
 72
9
 73
5
 74
0
 42
0.0000001
 43
0.0000001
 44
0.0000000001
 40
0.0
 40
0.0
 40
0.0
 40
0.0
 40
0.7325754164
 40
1.0
 40
1.0
 40
1.0
 40
1.0
 10
261.712972939
 20
242.0014501887
 30
0.0
 10
261.7976909167
 20
242.0503619879
 30
0.0
 10
261.9349049821
 20
242.0840317469
 30
0.0
 10
262.0680815986
 20
242.075343696
 30
0.0
 10
262.1035297779
 20
242.0710248134
 30
0.0
  0
SPLINE
  5
529
100
AcDbEntity
  8
0
100
AcDbSpline
 62
7
  6
BYLAYER
 70
0
 71
3
 72
9
 73
5
 74
0
 42
0.0000001
 43
0.0000001
 44
0.0000000001
 40
0.0
 40
0.0
 40
0.0
 40
0.0
 40
0.2277183711
 40
1.0
 40
1.0
 40
1.0
 40
1.0
 10
262.1035297779
 20
242.0710248134
 30
0.0
 10
262.1503695268
 20
242.0653180217
 30
0.0
 10
262.3540503705
 20
242.023522726
 30
0.0
 10
262.5433920015
 20
241.9283856999
 30
0.0
 10
262.6782005579
 20
241.8421585049
 30
0.0
  0
SPLINE
  5
52A
100
AcDbEntity
  8
0
100
AcDbSpline
 62
7
  6
BYLAYER
 70
0
 71
3
 72
9
 73
5
 74
0
 42
0.0000001
 43
0.0000001
 44
0.0000000001
 40
0.0
 40
0.0
 40
0.0
 40
0.0
 40
0.2370619347
 40
1.0
 40
1.0
 40
1.0
 40
1.0
 10
262.6782005579
 20
241.8421585049
 30
0.0
 10
262.7264331414
 20
241.8113076414
 30
0.0
 10
262.9251804399
 20
241.6734999497
 30
0.0
 10
263.0984497535
 20
241.5026001569
 30
0.0
 10
263.2247606375
 20
241.3684395104
 30
0.0
  0
SPLINE
  5
52B
100
AcDbEntity
  8
0
100
AcDbSpline
 62
7
  6
BYLAYER
 70
0
 71
3
 72
9
 73
5
 74
0
 42
0.0000001
 43
0.0000001
 44
0.0000000001
 40
0.0
 40
0.0
 40
0.0
 40
0.0
 40
0.4970224767
 40
1.0
 40
1.0
 40
1.0
 40
1.0
 10
265.5153387527
 20
239.4618337268
 30
0.0
 10
265.5071178803
 20
239.4570872374
 30
0.0
 10
265.4911305362
 20
239.4465495281
 30
0.0
 10
265.4764421376
 20
239.4342745261
 30
0.0
 10
265.4694092645
 20
239.427730607
 30
0.0
  0
SPLINE
  5
52C
100
AcDbEntity
  8
0
100
AcDbSpline
 62
7
  6
BYLAYER
 70
0
 71
3
 72
9
 73
5
 74
0
 42
0.0000001
 43
0.0000001
 44
0.0000000001
 40
0.0
 40
0.0
 40
0.0
 40
0.0
 40
0.223739846
 40
1.0
 40
1.0
 40
1.0
 40
1.0
 10
265.4694092645
 20
239.427730607
 30
0.0
 10
265.4483630672
 20
239.408147627
 30
0.0
 10
265.3680382549
 20
239.3046849949
 30
0.0
 10
265.3522269105
 20
239.1701290708
 30
0.0
 10
265.3373121406
 20
239.0715107393
 30
0.0
  0
SPLINE
  5
52D
100
AcDbEntity
  8
0
100
AcDbSpline
 62
7
  6
BYLAYER
 70
0
 71
3
 72
8
 73
4
 74
0
 42
0.0000001
 43
0.0000001
 44
0.0000000001
 40
0.0
 40
0.0
 40
0.0
 40
0.0
 40
1.0
 40
1.0
 40
1.0
 40
1.0
 10
108.3226015102
 20
581.0053114796
 30
0.0
 10
108.34432523
 20
581.0178549672
 30
0.0
 10
108.3688591563
 20
581.0262349281
 30
0.0
 10
108.3936346507
 20
581.030163536
 30
0.0
  0
SPLINE
  5
52E
100
AcDbEntity
  8
0
100
AcDbSpline
 62
7
  6
BYLAYER
 70
0
 71
3
 72
8
 73
4
 74
0
 42
0.0000001
 43
0.0000001
 44
0.0000000001
 40
0.0
 40
0.0
 40
0.0
 40
0.0
 40
1.0
 40
1.0
 40
1.0
 40
1.0
 10
108.3936346507
 20
581.030163536
 30
0.0
 10
108.4615511282
 20
581.0409329361
 30
0.0
 10
108.5324981138
 20
581.0110414915
 30
0.0
 10
108.5936206272
 20
580.979534885
 30
0.0
  0
SPLINE
  5
52F
100
AcDbEntity
  8
0
100
AcDbSpline
 62
7
  6
BYLAYER
 70
0
 71
3
 72
8
 73
4
 74
0
 42
0.0000001
 43
0.0000001
 44
0.0000000001
 40
0.0
 40
0.0
 40
0.0
 40
0.0
 40
1.0
 40
1.0
 40
1.0
 40
1.0
 10
264.8490213459
 20
240.1384469382
 30
0.0
 10
264.970197312
 20
240.2084075603
 30
0.0
 10
265.1211351991
 20
240.2344559813
 30
0.0
 10
265.2604660801
 20
240.221610399
 30
0.0
  0
SPLINE
  5
530
100
AcDbEntity
  8
0
100
AcDbSpline
 62
7
  6
BYLAYER
 70
0
 71
3
 72
9
 73
5
 74
0
 42
0.0000001
 43
0.0000001
 44
0.0000000001
 40
0.0
 40
0.0
 40
0.0
 40
0.0
 40
0.233309484
 40
1.0
 40
1.0
 40
1.0
 40
1.0
 10
265.2604660801
 20
240.221610399
 30
0.0
 10
265.2941345014
 20
240.2185063457
 30
0.0
 10
265.4377022148
 20
240.1962245416
 30
0.0
 10
265.5744701604
 20
240.142905822
 30
0.0
 10
265.6754773805
 20
240.0966164896
 30
0.0
  0
SPLINE
  5
531
100
AcDbEntity
  8
0
100
AcDbSpline
 62
7
  6
BYLAYER
 70
0
 71
3
 72
8
 73
4
 74
0
 42
0.0000001
 43
0.0000001
 44
0.0000000001
 40
0.0
 40
0.0
 40
0.0
 40
0.0
 40
1.0
 40
1.0
 40
1.0
 40
1.0
 10
265.6754773805
 20
240.0966164896
 30
0.0
 10
265.7346873068
 20
240.0694819149
 30
0.0
 10
265.7930472611
 20
240.0405211966
 30
0.0
 10
265.8514608296
 20
240.0117122477
 30
0.0
  0
SPLINE
  5
532
100
AcDbEntity
  8
0
100
AcDbSpline
 62
7
  6
BYLAYER
 70
0
 71
3
 72
8
 73
4
 74
0
 42
0.0000001
 43
0.0000001
 44
0.0000000001
 40
0.0
 40
0.0
 40
0.0
 40
0.0
 40
1.0
 40
1.0
 40
1.0
 40
1.0
 10
254.5990975381
 20
241.0338798333
 30
0.0
 10
254.5182916185
 20
240.9517814265
 30
0.0
 10
254.433484231
 20
240.871959511
 30
0.0
 10
254.3381137988
 20
240.807351263
 30
0.0
  0
SPLINE
  5
533
100
AcDbEntity
  8
0
100
AcDbSpline
 62
7
  6
BYLAYER
 70
0
 71
3
 72
8
 73
4
 74
0
 42
0.0000001
 43
0.0000001
 44
0.0000000001
 40
0.0
 40
0.0
 40
0.0
 40
0.0
 40
1.0
 40
1.0
 40
1.0
 40
1.0
 10
254.3381137988
 20
240.807351263
 30
0.0
 10
254.2912067092
 20
240.7755742771
 30
0.0
 10
254.2428962919
 20
240.7458924289
 30
0.0
 10
254.1944524008
 20
240.7165114606
 30
0.0
  0
SPLINE
  5
534
100
AcDbEntity
  8
0
100
AcDbSpline
 62
7
  6
BYLAYER
 70
0
 71
3
 72
10
 73
6
 74
0
 42
0.0000001
 43
0.0000001
 44
0.0000000001
 40
0.0
 40
0.0
 40
0.0
 40
0.0
 40
0.4841466376
 40
0.7533942422
 40
1.0
 40
1.0
 40
1.0
 40
1.0
 10
102.366912413
 20
582.5465870109
 30
0.0
 10
102.3653441991
 20
582.7078302551
 30
0.0
 10
102.3546308844
 20
582.9620341745
 30
0.0
 10
102.2137126867
 20
583.2759408931
 30
0.0
 10
102.0715740189
 20
583.3816672308
 30
0.0
 10
102.0014803167
 20
583.424481179
 30
0.0
  0
SPLINE
  5
535
100
AcDbEntity
  8
0
100
AcDbSpline
 62
7
  6
BYLAYER
 70
0
 71
3
 72
8
 73
4
 74
0
 42
0.0000001
 43
0.0000001
 44
0.0000000001
 40
0.0
 40
0.0
 40
0.0
 40
0.0
 40
1.0
 40
1.0
 40
1.0
 40
1.0
 10
108.7918980144
 20
580.0524570323
 30
0.0
 10
108.8163044956
 20
580.0665481497
 30
0.0
 10
108.8372813316
 20
580.0880359082
 30
0.0
 10
108.8516301122
 20
580.1122918026
 30
0.0
  0
SPLINE
  5
536
100
AcDbEntity
  8
0
100
AcDbSpline
 62
7
  6
BYLAYER
 70
0
 71
3
 72
8
 73
4
 74
0
 42
0.0000001
 43
0.0000001
 44
0.0000000001
 40
0.0
 40
0.0
 40
0.0
 40
0.0
 40
1.0
 40
1.0
 40
1.0
 40
1.0
 10
108.8516301122
 20
580.1122918026
 30
0.0
 10
108.8841499793
 20
580.1672650076
 30
0.0
 10
108.8878342679
 20
580.2361910254
 30
0.0
 10
108.8899996267
 20
580.3000260177
 30
0.0
  0
SPLINE
  5
537
100
AcDbEntity
  8
0
100
AcDbSpline
 62
7
  6
BYLAYER
 70
0
 71
3
 72
9
 73
5
 74
0
 42
0.0000001
 43
0.0000001
 44
0.0000000001
 40
0.0
 40
0.0
 40
0.0
 40
0.0
 40
0.2961794269
 40
1.0
 40
1.0
 40
1.0
 40
1.0
 10
99.8055731624
 20
581.0725390191
 30
0.0
 10
99.785538281
 20
581.0830342047
 30
0.0
 10
99.7192385512
 20
581.119073656
 30
0.0
 10
99.6296339692
 20
581.122459371
 30
0.0
 10
99.5830908973
 20
581.0955815919
 30
0.0
  0
SPLINE
  5
538
100
AcDbEntity
  8
0
100
AcDbSpline
 62
7
  6
BYLAYER
 70
0
 71
3
 72
9
 73
5
 74
0
 42
0.0000001
 43
0.0000001
 44
0.0000000001
 40
0.0
 40
0.0
 40
0.0
 40
0.0
 40
0.2691467843
 40
1.0
 40
1.0
 40
1.0
 40
1.0
 10
100.0906267711
 20
580.6984192731
 30
0.0
 10
100.0727030958
 20
580.7369359758
 30
0.0
 10
100.0062217938
 20
580.8795282767
 30
0.0
 10
99.9010339104
 20
581.0077690351
 30
0.0
 10
99.8055731624
 20
581.0725390191
 30
0.0
  0
SPLINE
  5
539
100
AcDbEntity
  8
0
100
AcDbSpline
 62
7
  6
BYLAYER
 70
0
 71
3
 72
9
 73
5
 74
0
 42
0.0000001
 43
0.0000001
 44
0.0000000001
 40
0.0
 40
0.0
 40
0.0
 40
0.0
 40
0.472336622
 40
1.0
 40
1.0
 40
1.0
 40
1.0
 10
100.8198336752
 20
579.8133541915
 30
0.0
 10
100.6627553679
 20
579.9082340714
 30
0.0
 10
100.342346386
 20
580.150713417
 30
0.0
 10
100.1820512753
 20
580.5149293218
 30
0.0
 10
100.0906267711
 20
580.6984192731
 30
0.0
  0
SPLINE
  5
53A
100
AcDbEntity
  8
0
100
AcDbSpline
 62
7
  6
BYLAYER
 70
0
 71
3
 72
8
 73
4
 74
0
 42
0.0000001
 43
0.0000001
 44
0.0000000001
 40
0.0
 40
0.0
 40
0.0
 40
0.0
 40
1.0
 40
1.0
 40
1.0
 40
1.0
 10
254.9435258802
 20
241.5648994382
 30
0.0
 10
254.9170220679
 20
241.5021161159
 30
0.0
 10
254.8875949974
 20
241.4404296163
 30
0.0
 10
254.8545183354
 20
241.3808466316
 30
0.0
  0
SPLINE
  5
53B
100
AcDbEntity
  8
0
100
AcDbSpline
 62
7
  6
BYLAYER
 70
0
 71
3
 72
8
 73
4
 74
0
 42
0.0000001
 43
0.0000001
 44
0.0000000001
 40
0.0
 40
0.0
 40
0.0
 40
0.0
 40
1.0
 40
1.0
 40
1.0
 40
1.0
 10
109.6538496185
 20
576.7400936654
 30
0.0
 10
109.6759721169
 20
576.7528660479
 30
0.0
 10
109.7018888932
 20
576.7600842633
 30
0.0
 10
109.72738458
 20
576.7616681332
 30
0.0
  0
SPLINE
  5
53C
100
AcDbEntity
  8
0
100
AcDbSpline
 62
7
  6
BYLAYER
 70
0
 71
3
 72
8
 73
4
 74
0
 42
0.0000001
 43
0.0000001
 44
0.0000000001
 40
0.0
 40
0.0
 40
0.0
 40
0.0
 40
1.0
 40
1.0
 40
1.0
 40
1.0
 10
109.72738458
 20
576.7616681332
 30
0.0
 10
109.7858118187
 20
576.7652978118
 30
0.0
 10
109.8435152951
 20
576.7376872737
 30
0.0
 10
109.8954206791
 20
576.7106179572
 30
0.0
  0
SPLINE
  5
53D
100
AcDbEntity
  8
0
100
AcDbSpline
 62
7
  6
BYLAYER
 70
0
 71
3
 72
9
 73
5
 74
0
 42
0.0000001
 43
0.0000001
 44
0.0000000001
 40
0.0
 40
0.0
 40
0.0
 40
0.0
 40
0.55546776
 40
1.0
 40
1.0
 40
1.0
 40
1.0
 10
100.6516189
 20
584.1971085301
 30
0.0
 10
100.5068056644
 20
584.2769741315
 30
0.0
 10
100.230393875
 20
584.4108817383
 30
0.0
 10
99.9107728153
 20
584.3624791537
 30
0.0
 10
99.7961555909
 20
584.2963055062
 30
0.0
  0
SPLINE
  5
53E
100
AcDbEntity
  8
0
100
AcDbSpline
 62
7
  6
BYLAYER
 70
0
 71
3
 72
8
 73
4
 74
0
 42
0.0000001
 43
0.0000001
 44
0.0000000001
 40
0.0
 40
0.0
 40
0.0
 40
0.0
 40
1.0
 40
1.0
 40
1.0
 40
1.0
 10
101.6526211054
 20
583.0058590607
 30
0.0
 10
101.5746471724
 20
583.1679108684
 30
0.0
 10
101.4909765324
 20
583.3280255649
 30
0.0
 10
101.3926261428
 20
583.4785842692
 30
0.0
  0
SPLINE
  5
53F
100
AcDbEntity
  8
0
100
AcDbSpline
 62
7
  6
BYLAYER
 70
0
 71
3
 72
9
 73
5
 74
0
 42
0.0000001
 43
0.0000001
 44
0.0000000001
 40
0.0
 40
0.0
 40
0.0
 40
0.0
 40
0.5269051446
 40
1.0
 40
1.0
 40
1.0
 40
1.0
 10
101.3926261428
 20
583.4785842692
 30
0.0
 10
101.2927210367
 20
583.6315229955
 30
0.0
 10
101.0777931887
 20
583.9095786288
 30
0.0
 10
100.7915940739
 20
584.1116089107
 30
0.0
 10
100.6516189
 20
584.1971085301
 30
0.0
  0
SPLINE
  5
540
100
AcDbEntity
  8
0
100
AcDbSpline
 62
7
  6
BYLAYER
 70
0
 71
3
 72
9
 73
5
 74
0
 42
0.0000001
 43
0.0000001
 44
0.0000000001
 40
0.0
 40
0.0
 40
0.0
 40
0.0
 40
0.5110294411
 40
1.0
 40
1.0
 40
1.0
 40
1.0
 10
100.8745241923
 20
581.2514836719
 30
0.0
 10
100.6235624083
 20
581.4012529591
 30
0.0
 10
100.2288327504
 20
581.8762841514
 30
0.0
 10
100.1440597343
 20
582.4583196336
 30
0.0
 10
100.1395167787
 20
582.7379218347
 30
0.0
  0
SPLINE
  5
541
100
AcDbEntity
  8
0
100
AcDbSpline
 62
7
  6
BYLAYER
 70
0
 71
3
 72
9
 73
5
 74
0
 42
0.0000001
 43
0.0000001
 44
0.0000000001
 40
0.0
 40
0.0
 40
0.0
 40
0.0
 40
0.2836270685
 40
1.0
 40
1.0
 40
1.0
 40
1.0
 10
100.1395167787
 20
582.7379218347
 30
0.0
 10
100.1407121523
 20
582.8109938471
 30
0.0
 10
100.1461958861
 20
583.060442738
 30
0.0
 10
100.2274919003
 20
583.3649037584
 30
0.0
 10
100.3873473074
 20
583.45719969
 30
0.0
  0
SPLINE
  5
542
100
AcDbEntity
  8
0
100
AcDbSpline
 62
7
  6
BYLAYER
 70
0
 71
3
 72
8
 73
4
 74
0
 42
0.0000001
 43
0.0000001
 44
0.0000000001
 40
0.0
 40
0.0
 40
0.0
 40
0.0
 40
1.0
 40
1.0
 40
1.0
 40
1.0
 10
259.4785301506
 20
238.7902518933
 30
0.0
 10
259.4545386918
 20
238.7764087195
 30
0.0
 10
259.4341711123
 20
238.7554088536
 30
0.0
 10
259.4191123791
 20
238.7321610987
 30
0.0
  0
SPLINE
  5
543
100
AcDbEntity
  8
0
100
AcDbSpline
 62
7
  6
BYLAYER
 70
0
 71
3
 72
8
 73
4
 74
0
 42
0.0000001
 43
0.0000001
 44
0.0000000001
 40
0.0
 40
0.0
 40
0.0
 40
0.0
 40
1.0
 40
1.0
 40
1.0
 40
1.0
 10
259.4191123791
 20
238.7321610987
 30
0.0
 10
259.3850056648
 20
238.6795069661
 30
0.0
 10
259.3698647951
 20
238.6160904976
 30
0.0
 10
259.3555752338
 20
238.5550042138
 30
0.0
  0
SPLINE
  5
544
100
AcDbEntity
  8
0
100
AcDbSpline
 62
7
  6
BYLAYER
 70
0
 71
3
 72
9
 73
5
 74
0
 42
0.0000001
 43
0.0000001
 44
0.0000000001
 40
0.0
 40
0.0
 40
0.0
 40
0.0
 40
0.208701653
 40
1.0
 40
1.0
 40
1.0
 40
1.0
 10
259.266422833
 20
239.1064047136
 30
0.0
 10
259.3046423935
 20
239.128470828
 30
0.0
 10
259.5158161667
 20
239.1866084072
 30
0.0
 10
259.7312794202
 20
239.0742314119
 30
0.0
 10
259.8644095054
 20
238.9728648994
 30
0.0
  0
SPLINE
  5
545
100
AcDbEntity
  8
0
100
AcDbSpline
 62
7
  6
BYLAYER
 70
0
 71
3
 72
9
 73
5
 74
0
 42
0.0000001
 43
0.0000001
 44
0.0000000001
 40
0.0
 40
0.0
 40
0.0
 40
0.0
 40
0.2418548116
 40
1.0
 40
1.0
 40
1.0
 40
1.0
 10
259.8644095054
 20
238.9728648994
 30
0.0
 10
259.9235703838
 20
238.9278192441
 30
0.0
 10
260.1512241887
 20
238.7190407703
 30
0.0
 10
260.2925835778
 20
238.4259788186
 30
0.0
 10
260.3471015858
 20
238.1993530359
 30
0.0
  0
SPLINE
  5
546
100
AcDbEntity
  8
0
100
AcDbSpline
 62
7
  6
BYLAYER
 70
0
 71
3
 72
8
 73
4
 74
0
 42
0.0000001
 43
0.0000001
 44
0.0000000001
 40
0.0
 40
0.0
 40
0.0
 40
0.0
 40
1.0
 40
1.0
 40
1.0
 40
1.0
 10
260.36530242
 20
238.113884262
 30
0.0
 10
260.3890766603
 20
237.9859904028
 30
0.0
 10
260.3952648396
 20
237.8551487848
 30
0.0
 10
260.3995331851
 20
237.7251340358
 30
0.0
  0
SPLINE
  5
547
100
AcDbEntity
  8
0
100
AcDbSpline
 62
7
  6
BYLAYER
 70
0
 71
3
 72
8
 73
4
 74
0
 42
0.0000001
 43
0.0000001
 44
0.0000000001
 40
0.0
 40
0.0
 40
0.0
 40
0.0
 40
1.0
 40
1.0
 40
1.0
 40
1.0
 10
252.9282150789
 20
243.5555720627
 30
0.0
 10
252.8878262986
 20
243.5197033565
 30
0.0
 10
252.8548406406
 20
243.4749146111
 30
0.0
 10
252.8288453493
 20
243.4275641889
 30
0.0
  0
SPLINE
  5
548
100
AcDbEntity
  8
0
100
AcDbSpline
 62
7
  6
BYLAYER
 70
0
 71
3
 72
8
 73
4
 74
0
 42
0.0000001
 43
0.0000001
 44
0.0000000001
 40
0.0
 40
0.0
 40
0.0
 40
0.0
 40
1.0
 40
1.0
 40
1.0
 40
1.0
 10
252.8288453493
 20
243.4275641889
 30
0.0
 10
252.7945491572
 20
243.3650936761
 30
0.0
 10
252.7721093017
 20
243.2966301812
 30
0.0
 10
252.7493428263
 20
243.2290988451
 30
0.0
  0
SPLINE
  5
549
100
AcDbEntity
  8
0
100
AcDbSpline
 62
7
  6
BYLAYER
 70
0
 71
3
 72
9
 73
5
 74
0
 42
0.0000001
 43
0.0000001
 44
0.0000000001
 40
0.0
 40
0.0
 40
0.0
 40
0.0
 40
0.4481121848
 40
1.0
 40
1.0
 40
1.0
 40
1.0
 10
253.3138780571
 20
241.471381068
 30
0.0
 10
253.1986726224
 20
241.4048679533
 30
0.0
 10
252.8763217376
 20
241.3674138931
 30
0.0
 10
252.605789238
 20
241.5030217289
 30
0.0
 10
252.4586616124
 20
241.5750992981
 30
0.0
  0
SPLINE
  5
54A
100
AcDbEntity
  8
0
100
AcDbSpline
 62
7
  6
BYLAYER
 70
0
 71
3
 72
9
 73
5
 74
0
 42
0.0000001
 43
0.0000001
 44
0.0000000001
 40
0.0
 40
0.0
 40
0.0
 40
0.0
 40
0.2906200617
 40
1.0
 40
1.0
 40
1.0
 40
1.0
 10
100.945234576
 20
581.2923080872
 30
0.0
 10
100.9848633103
 20
581.271436199
 30
0.0
 10
101.1199010833
 20
581.200469068
 30
0.0
 10
101.2914144322
 20
581.1781398585
 30
0.0
 10
101.3939126918
 20
581.2161721356
 30
0.0
  0
SPLINE
  5
54B
100
AcDbEntity
  8
0
100
AcDbSpline
 62
7
  6
BYLAYER
 70
0
 71
3
 72
9
 73
5
 74
0
 42
0.0000001
 43
0.0000001
 44
0.0000000001
 40
0.0
 40
0.0
 40
0.0
 40
0.0
 40
0.2351590273
 40
1.0
 40
1.0
 40
1.0
 40
1.0
 10
100.2102271625
 20
582.7787462501
 30
0.0
 10
100.211364061
 20
582.7087743293
 30
0.0
 10
100.2209242713
 20
582.4117732247
 30
0.0
 10
100.2935464161
 20
582.1131742603
 30
0.0
 10
100.3938005244
 20
581.9088332451
 30
0.0
  0
SPLINE
  5
54C
100
AcDbEntity
  8
0
100
AcDbSpline
 62
7
  6
BYLAYER
 70
0
 71
3
 72
9
 73
5
 74
0
 42
0.0000001
 43
0.0000001
 44
0.0000000001
 40
0.0
 40
0.0
 40
0.0
 40
0.0
 40
0.2683673953
 40
1.0
 40
1.0
 40
1.0
 40
1.0
 10
100.3938005244
 20
581.9088332451
 30
0.0
 10
100.4266485703
 20
581.8418813449
 30
0.0
 10
100.5643756178
 20
581.6004338326
 30
0.0
 10
100.770649248
 20
581.3964973376
 30
0.0
 10
100.945234576
 20
581.2923080872
 30
0.0
  0
SPLINE
  5
54D
100
AcDbEntity
  8
0
100
AcDbSpline
 62
7
  6
BYLAYER
 70
0
 71
3
 72
9
 73
5
 74
0
 42
0.0000001
 43
0.0000001
 44
0.0000000001
 40
0.0
 40
0.0
 40
0.0
 40
0.0
 40
0.4535209088
 40
1.0
 40
1.0
 40
1.0
 40
1.0
 10
452.5533278343
 20
116.9241798776
 30
0.0
 10
452.6844837082
 20
116.9999022836
 30
0.0
 10
452.9149683164
 20
117.2721723627
 30
0.0
 10
452.9762946924
 20
117.6109457733
 30
0.0
 10
452.9851146491
 20
117.7932198169
 30
0.0
  0
SPLINE
  5
54E
100
AcDbEntity
  8
0
100
AcDbSpline
 62
7
  6
BYLAYER
 70
0
 71
3
 72
8
 73
4
 74
0
 42
0.0000001
 43
0.0000001
 44
0.0000000001
 40
0.0
 40
0.0
 40
0.0
 40
0.0
 40
1.0
 40
1.0
 40
1.0
 40
1.0
 10
111.3022209155
 20
575.2842350419
 30
0.0
 10
111.275809461
 20
575.2689877189
 30
0.0
 10
111.245113327
 20
575.26065646
 30
0.0
 10
111.2148112089
 20
575.2572173577
 30
0.0
  0
SPLINE
  5
54F
100
AcDbEntity
  8
0
100
AcDbSpline
 62
7
  6
BYLAYER
 70
0
 71
3
 72
9
 73
5
 74
0
 42
0.0000001
 43
0.0000001
 44
0.0000000001
 40
0.0
 40
0.0
 40
0.0
 40
0.0
 40
0.220968898
 40
1.0
 40
1.0
 40
1.0
 40
1.0
 10
111.2148112089
 20
575.2572173577
 30
0.0
 10
111.1879269086
 20
575.2541661564
 30
0.0
 10
111.0639435392
 20
575.2573730639
 30
0.0
 10
110.9504727301
 20
575.3154656852
 30
0.0
 10
110.8663160663
 20
575.3603750842
 30
0.0
  0
SPLINE
  5
550
100
AcDbEntity
  8
0
100
AcDbSpline
 62
7
  6
BYLAYER
 70
0
 71
3
 72
8
 73
4
 74
0
 42
0.0000001
 43
0.0000001
 44
0.0000000001
 40
0.0
 40
0.0
 40
0.0
 40
0.0
 40
1.0
 40
1.0
 40
1.0
 40
1.0
 10
96.776878578
 20
584.7855070896
 30
0.0
 10
96.6542198986
 20
584.8225533458
 30
0.0
 10
96.5195060101
 20
584.848540845
 30
0.0
 10
96.3942005859
 20
584.8217802883
 30
0.0
  0
SPLINE
  5
551
100
AcDbEntity
  8
0
100
AcDbSpline
 62
7
  6
BYLAYER
 70
0
 71
3
 72
8
 73
4
 74
0
 42
0.0000001
 43
0.0000001
 44
0.0000000001
 40
0.0
 40
0.0
 40
0.0
 40
0.0
 40
1.0
 40
1.0
 40
1.0
 40
1.0
 10
96.3942005859
 20
584.8217802883
 30
0.0
 10
96.3558996465
 20
584.8136006387
 30
0.0
 10
96.3182857874
 20
584.7996296034
 30
0.0
 10
96.2843678822
 20
584.7800478687
 30
0.0
  0
SPLINE
  5
552
100
AcDbEntity
  8
0
100
AcDbSpline
 62
7
  6
BYLAYER
 70
0
 71
3
 72
9
 73
5
 74
0
 42
0.0000001
 43
0.0000001
 44
0.0000000001
 40
0.0
 40
0.0
 40
0.0
 40
0.0
 40
0.2713158922
 40
1.0
 40
1.0
 40
1.0
 40
1.0
 10
98.0712208327
 20
584.400877039
 30
0.0
 10
97.9523359582
 20
584.4289588296
 30
0.0
 10
97.5149905569
 20
584.5369304218
 30
0.0
 10
97.089935685
 20
584.687363817
 30
0.0
 10
96.776878578
 20
584.7855070896
 30
0.0
  0
SPLINE
  5
553
100
AcDbEntity
  8
0
100
AcDbSpline
 62
7
  6
BYLAYER
 70
0
 71
3
 72
8
 73
4
 74
0
 42
0.0000001
 43
0.0000001
 44
0.0000000001
 40
0.0
 40
0.0
 40
0.0
 40
0.0
 40
1.0
 40
1.0
 40
1.0
 40
1.0
 10
109.8287198884
 20
578.6046854668
 30
0.0
 10
109.8665056434
 20
578.6265013407
 30
0.0
 10
109.9085441531
 20
578.6417677395
 30
0.0
 10
109.9512413731
 20
578.6507478864
 30
0.0
  0
SPLINE
  5
554
100
AcDbEntity
  8
0
100
AcDbSpline
 62
7
  6
BYLAYER
 70
0
 71
3
 72
9
 73
5
 74
0
 42
0.0000001
 43
0.0000001
 44
0.0000000001
 40
0.0
 40
0.0
 40
0.0
 40
0.0
 40
0.2289115717
 40
1.0
 40
1.0
 40
1.0
 40
1.0
 10
109.9512413731
 20
578.6507478864
 30
0.0
 10
109.9924810147
 20
578.6594214732
 30
0.0
 10
110.1771181032
 20
578.6759608174
 30
0.0
 10
110.3618350843
 20
578.6269459539
 30
0.0
 10
110.4931425002
 20
578.5730055746
 30
0.0
  0
SPLINE
  5
555
100
AcDbEntity
  8
0
100
AcDbSpline
 62
7
  6
BYLAYER
 70
0
 71
3
 72
8
 73
4
 74
0
 42
0.0000001
 43
0.0000001
 44
0.0000000001
 40
0.0
 40
0.0
 40
0.0
 40
0.0
 40
1.0
 40
1.0
 40
1.0
 40
1.0
 10
110.4931425002
 20
578.5730055746
 30
0.0
 10
110.5951829592
 20
578.5310879035
 30
0.0
 10
110.6929867768
 20
578.4791423925
 30
0.0
 10
110.7895277808
 20
578.4257646728
 30
0.0
  0
SPLINE
  5
556
100
AcDbEntity
  8
0
100
AcDbSpline
 62
7
  6
BYLAYER
 70
0
 71
3
 72
8
 73
4
 74
0
 42
0.0000001
 43
0.0000001
 44
0.0000000001
 40
0.0
 40
0.0
 40
0.0
 40
0.0
 40
1.0
 40
1.0
 40
1.0
 40
1.0
 10
259.3501542665
 20
238.3309795308
 30
0.0
 10
259.3557956179
 20
238.2976023537
 30
0.0
 10
259.3613966517
 20
238.2642119807
 30
0.0
 10
259.3678047565
 20
238.2309734941
 30
0.0
  0
SPLINE
  5
557
100
AcDbEntity
  8
0
100
AcDbSpline
 62
7
  6
BYLAYER
 70
0
 71
3
 72
9
 73
5
 74
0
 42
0.0000001
 43
0.0000001
 44
0.0000000001
 40
0.0
 40
0.0
 40
0.0
 40
0.0
 40
0.5133214701
 40
1.0
 40
1.0
 40
1.0
 40
1.0
 10
259.3678047565
 20
238.2309734941
 30
0.0
 10
259.3962365667
 20
238.0834992599
 30
0.0
 10
259.5027422939
 20
237.8010295539
 30
0.0
 10
259.7255407154
 20
237.592792057
 30
0.0
 10
259.8493922318
 20
237.5225280462
 30
0.0
  0
SPLINE
  5
558
100
AcDbEntity
  8
0
100
AcDbSpline
 62
7
  6
BYLAYER
 70
0
 71
3
 72
9
 73
5
 74
0
 42
0.0000001
 43
0.0000001
 44
0.0000000001
 40
0.0
 40
0.0
 40
0.0
 40
0.0
 40
0.2764179299
 40
1.0
 40
1.0
 40
1.0
 40
1.0
 10
259.9361443878
 20
237.4793283709
 30
0.0
 10
259.9671273942
 20
237.4659504405
 30
0.0
 10
260.0816952736
 20
237.4228448255
 30
0.0
 10
260.2072784402
 20
237.4143870778
 30
0.0
 10
260.295321794
 20
237.4216453289
 30
0.0
  0
SPLINE
  5
559
100
AcDbEntity
  8
0
100
AcDbSpline
 62
7
  6
BYLAYER
 70
0
 71
3
 72
8
 73
4
 74
0
 42
0.0000001
 43
0.0000001
 44
0.0000000001
 40
0.0
 40
0.0
 40
0.0
 40
0.0
 40
1.0
 40
1.0
 40
1.0
 40
1.0
 10
260.295321794
 20
237.4216453289
 30
0.0
 10
260.3214668588
 20
237.4238007153
 30
0.0
 10
260.3475499859
 20
237.4266630156
 30
0.0
 10
260.3736330051
 20
237.4294712548
 30
0.0
  0
SPLINE
  5
55A
100
AcDbEntity
  8
0
100
AcDbSpline
 62
7
  6
BYLAYER
 70
0
 71
3
 72
9
 73
5
 74
0
 42
0.0000001
 43
0.0000001
 44
0.0000000001
 40
0.0
 40
0.0
 40
0.0
 40
0.0
 40
0.5519281587
 40
1.0
 40
1.0
 40
1.0
 40
1.0
 10
97.5152005676
 20
586.0078795326
 30
0.0
 10
97.327198556
 20
586.1127090411
 30
0.0
 10
96.9898014992
 20
586.2940769505
 30
0.0
 10
96.5519628001
 20
586.3281244188
 30
0.0
 10
96.400627115
 20
586.2407473417
 30
0.0
  0
SPLINE
  5
55B
100
AcDbEntity
  8
0
100
AcDbSpline
 62
7
  6
BYLAYER
 70
0
 71
3
 72
10
 73
6
 74
0
 42
0.0000001
 43
0.0000001
 44
0.0000000001
 40
0.0
 40
0.0
 40
0.0
 40
0.0
 40
0.2364994659
 40
0.51153902
 40
1.0
 40
1.0
 40
1.0
 40
1.0
 10
98.8194894391
 20
583.9080627236
 30
0.0
 10
98.8183834578
 20
584.113733707
 30
0.0
 10
98.7913986273
 20
584.5604525076
 30
0.0
 10
98.4604530925
 20
585.3943961262
 30
0.0
 10
97.8820841593
 20
585.7937606261
 30
0.0
 10
97.5152005676
 20
586.0078795326
 30
0.0
  0
SPLINE
  5
55C
100
AcDbEntity
  8
0
100
AcDbSpline
 62
7
  6
BYLAYER
 70
0
 71
3
 72
8
 73
4
 74
0
 42
0.0000001
 43
0.0000001
 44
0.0000000001
 40
0.0
 40
0.0
 40
0.0
 40
0.0
 40
1.0
 40
1.0
 40
1.0
 40
1.0
 10
98.9562128481
 20
581.9781743571
 30
0.0
 10
98.946912217
 20
582.1249977549
 30
0.0
 10
98.9048649984
 20
582.2679564038
 30
0.0
 10
98.874112284
 20
582.4118239903
 30
0.0
  0
SPLINE
  5
55D
100
AcDbEntity
  8
0
100
AcDbSpline
 62
7
  6
BYLAYER
 70
0
 71
3
 72
9
 73
5
 74
0
 42
0.0000001
 43
0.0000001
 44
0.0000000001
 40
0.0
 40
0.0
 40
0.0
 40
0.0
 40
0.2646021379
 40
1.0
 40
1.0
 40
1.0
 40
1.0
 10
98.874112284
 20
582.4118239903
 30
0.0
 10
98.8647604111
 20
582.4555739943
 30
0.0
 10
98.830691856
 20
582.6211957796
 30
0.0
 10
98.8155846705
 20
582.7905924329
 30
0.0
 10
98.8136860447
 20
582.9149174092
 30
0.0
  0
SPLINE
  5
55E
100
AcDbEntity
  8
0
100
AcDbSpline
 62
7
  6
BYLAYER
 70
0
 71
3
 72
9
 73
5
 74
0
 42
0.0000001
 43
0.0000001
 44
0.0000000001
 40
0.0
 40
0.0
 40
0.0
 40
0.0
 40
0.2965285179
 40
1.0
 40
1.0
 40
1.0
 40
1.0
 10
96.7984233267
 20
583.926266193
 30
0.0
 10
96.7991902133
 20
583.9483572719
 30
0.0
 10
96.7999349748
 20
584.0215583691
 30
0.0
 10
96.8361742322
 20
584.1023583555
 30
0.0
 10
96.8815883568
 20
584.1285777707
 30
0.0
  0
SPLINE
  5
55F
100
AcDbEntity
  8
0
100
AcDbSpline
 62
7
  6
BYLAYER
 70
0
 71
3
 72
9
 73
5
 74
0
 42
0.0000001
 43
0.0000001
 44
0.0000000001
 40
0.0
 40
0.0
 40
0.0
 40
0.0
 40
0.2342818051
 40
1.0
 40
1.0
 40
1.0
 40
1.0
 10
97.2715791708
 20
583.2091225288
 30
0.0
 10
97.2131988602
 20
583.2448745044
 30
0.0
 10
96.9730434144
 20
583.4094847824
 30
0.0
 10
96.8094421659
 20
583.7027928216
 30
0.0
 10
96.7984233267
 20
583.926266193
 30
0.0
  0
SPLINE
  5
560
100
AcDbEntity
  8
0
100
AcDbSpline
 62
7
  6
BYLAYER
 70
0
 71
3
 72
9
 73
5
 74
0
 42
0.0000001
 43
0.0000001
 44
0.0000000001
 40
0.0
 40
0.0
 40
0.0
 40
0.0
 40
0.7056298318
 40
1.0
 40
1.0
 40
1.0
 40
1.0
 10
111.893847095
 20
576.6627793503
 30
0.0
 10
111.93759411
 20
576.6880424496
 30
0.0
 10
111.973670167
 20
576.7645003885
 30
0.0
 10
111.9756118167
 20
576.8348839745
 30
0.0
 10
111.9766993065
 20
576.8559304988
 30
0.0
  0
SPLINE
  5
561
100
AcDbEntity
  8
0
100
AcDbSpline
 62
7
  6
BYLAYER
 70
0
 71
3
 72
8
 73
4
 74
0
 42
0.0000001
 43
0.0000001
 44
0.0000000001
 40
0.0
 40
0.0
 40
0.0
 40
0.0
 40
1.0
 40
1.0
 40
1.0
 40
1.0
 10
236.6624882386
 20
260.5207360996
 30
0.0
 10
236.7674094501
 20
260.5813120032
 30
0.0
 10
236.8816130358
 20
260.6277958065
 30
0.0
 10
236.9987841129
 20
260.6585990435
 30
0.0
  0
SPLINE
  5
562
100
AcDbEntity
  8
0
100
AcDbSpline
 62
7
  6
BYLAYER
 70
0
 71
3
 72
9
 73
5
 74
0
 42
0.0000001
 43
0.0000001
 44
0.0000000001
 40
0.0
 40
0.0
 40
0.0
 40
0.0
 40
0.2215001302
 40
1.0
 40
1.0
 40
1.0
 40
1.0
 10
236.9987841129
 20
260.6585990435
 30
0.0
 10
237.1218377097
 20
260.6909487428
 30
0.0
 10
237.6983861834
 20
260.7615006037
 30
0.0
 10
238.2750174539
 20
260.5464998577
 30
0.0
 10
238.6623095799
 20
260.3229329219
 30
0.0
  0
SPLINE
  5
563
100
AcDbEntity
  8
0
100
AcDbSpline
 62
7
  6
BYLAYER
 70
0
 71
3
 72
9
 73
5
 74
0
 42
0.0000001
 43
0.0000001
 44
0.0000000001
 40
0.0
 40
0.0
 40
0.0
 40
0.0
 40
0.7406677412
 40
1.0
 40
1.0
 40
1.0
 40
1.0
 10
265.8514608296
 20
240.0117122477
 30
0.0
 10
265.9775870086
 20
239.9261709486
 30
0.0
 10
266.1482669949
 20
239.8101138887
 30
0.0
 10
266.3020389688
 20
239.6730285597
 30
0.0
 10
266.3405313009
 20
239.6360747781
 30
0.0
  0
SPLINE
  5
564
100
AcDbEntity
  8
0
100
AcDbSpline
 62
7
  6
BYLAYER
 70
0
 71
3
 72
9
 73
5
 74
0
 42
0.0000001
 43
0.0000001
 44
0.0000000001
 40
0.0
 40
0.0
 40
0.0
 40
0.0
 40
0.2421198947
 40
1.0
 40
1.0
 40
1.0
 40
1.0
 10
266.3405313009
 20
239.6360747781
 30
0.0
 10
266.3910639409
 20
239.5875619435
 30
0.0
 10
266.5904666415
 20
239.3775938317
 30
0.0
 10
266.7549859851
 20
239.1355379862
 30
0.0
 10
266.859314975
 20
238.9426780418
 30
0.0
  0
SPLINE
  5
565
100
AcDbEntity
  8
0
100
AcDbSpline
 62
7
  6
BYLAYER
 70
0
 71
3
 72
9
 73
5
 74
0
 42
0.0000001
 43
0.0000001
 44
0.0000000001
 40
0.0
 40
0.0
 40
0.0
 40
0.0
 40
0.5276279902
 40
1.0
 40
1.0
 40
1.0
 40
1.0
 10
266.9536065246
 20
238.753256516
 30
0.0
 10
267.0485874782
 20
238.5449413387
 30
0.0
 10
267.1897646333
 20
238.1273763163
 30
0.0
 10
267.2059426449
 20
237.6908993201
 30
0.0
 10
267.2104372469
 20
237.4859784022
 30
0.0
  0
SPLINE
  5
566
100
AcDbEntity
  8
0
100
AcDbSpline
 62
7
  6
BYLAYER
 70
0
 71
3
 72
8
 73
4
 74
0
 42
0.0000001
 43
0.0000001
 44
0.0000000001
 40
0.0
 40
0.0
 40
0.0
 40
0.0
 40
1.0
 40
1.0
 40
1.0
 40
1.0
 10
452.9619302344
 20
116.7063577762
 30
0.0
 10
452.8489951032
 20
116.6411550552
 30
0.0
 10
452.7124766213
 20
116.6109291544
 30
0.0
 10
452.582082894
 20
116.612722067
 30
0.0
  0
SPLINE
  5
567
100
AcDbEntity
  8
0
100
AcDbSpline
 62
7
  6
BYLAYER
 70
0
 71
3
 72
9
 73
5
 74
0
 42
0.0000001
 43
0.0000001
 44
0.0000000001
 40
0.0
 40
0.0
 40
0.0
 40
0.0
 40
0.2276653573
 40
1.0
 40
1.0
 40
1.0
 40
1.0
 10
452.582082894
 20
116.612722067
 30
0.0
 10
452.5324949848
 20
116.6134039003
 30
0.0
 10
452.3149019198
 20
116.6350543765
 30
0.0
 10
452.107656051
 20
116.7212509335
 30
0.0
 10
451.9619564041
 20
116.8053687609
 30
0.0
  0
SPLINE
  5
568
100
AcDbEntity
  8
0
100
AcDbSpline
 62
7
  6
BYLAYER
 70
0
 71
3
 72
8
 73
4
 74
0
 42
0.0000001
 43
0.0000001
 44
0.0000000001
 40
0.0
 40
0.0
 40
0.0
 40
0.0
 40
1.0
 40
1.0
 40
1.0
 40
1.0
 10
110.4103960796
 20
577.9358178051
 30
0.0
 10
110.3930528978
 20
577.9258049009
 30
0.0
 10
110.3775142545
 20
577.9115564066
 30
0.0
 10
110.3664216702
 20
577.8948831112
 30
0.0
  0
SPLINE
  5
569
100
AcDbEntity
  8
0
100
AcDbSpline
 62
7
  6
BYLAYER
 70
0
 71
3
 72
8
 73
4
 74
0
 42
0.0000001
 43
0.0000001
 44
0.0000000001
 40
0.0
 40
0.0
 40
0.0
 40
0.0
 40
1.0
 40
1.0
 40
1.0
 40
1.0
 10
110.3664216702
 20
577.8948831112
 30
0.0
 10
110.3460786688
 20
577.8643054874
 30
0.0
 10
110.3419201753
 20
577.8246763659
 30
0.0
 10
110.3395739752
 20
577.7880249795
 30
0.0
  0
SPLINE
  5
56A
100
AcDbEntity
  8
0
100
AcDbSpline
 62
7
  6
BYLAYER
 70
0
 71
3
 72
9
 73
5
 74
0
 42
0.0000001
 43
0.0000001
 44
0.0000000001
 40
0.0
 40
0.0
 40
0.0
 40
0.0
 40
0.5475607989
 40
1.0
 40
1.0
 40
1.0
 40
1.0
 10
252.5293719961
 20
241.6159237135
 30
0.0
 10
252.6638428171
 20
241.550046691
 30
0.0
 10
252.9112553788
 20
241.4261554207
 30
0.0
 10
253.2038220168
 20
241.4338600691
 30
0.0
 10
253.3185788584
 20
241.4801137551
 30
0.0
  0
SPLINE
  5
56B
100
AcDbEntity
  8
0
100
AcDbSpline
 62
7
  6
BYLAYER
 70
0
 71
3
 72
9
 73
5
 74
0
 42
0.0000001
 43
0.0000001
 44
0.0000000001
 40
0.0
 40
0.0
 40
0.0
 40
0.0
 40
0.2254604075
 40
1.0
 40
1.0
 40
1.0
 40
1.0
 10
96.8691337104
 20
583.9670906084
 30
0.0
 10
96.871305458
 20
583.9230453388
 30
0.0
 10
96.8926758926
 20
583.7275407177
 30
0.0
 10
97.0038238659
 20
583.5501928221
 30
0.0
 10
97.1061492287
 20
583.4384770052
 30
0.0
  0
SPLINE
  5
56C
100
AcDbEntity
  8
0
100
AcDbSpline
 62
7
  6
BYLAYER
 70
0
 71
3
 72
9
 73
5
 74
0
 42
0.0000001
 43
0.0000001
 44
0.0000000001
 40
0.0
 40
0.0
 40
0.0
 40
0.0
 40
0.2697548716
 40
1.0
 40
1.0
 40
1.0
 40
1.0
 10
97.1061492287
 20
583.4384770052
 30
0.0
 10
97.1245451267
 20
583.4183929056
 30
0.0
 10
97.195561844
 20
583.3463907799
 30
0.0
 10
97.2794141626
 20
583.2884516977
 30
0.0
 10
97.3422895546
 20
583.2499469442
 30
0.0
  0
SPLINE
  5
56D
100
AcDbEntity
  8
0
100
AcDbSpline
 62
7
  6
BYLAYER
 70
0
 71
3
 72
8
 73
4
 74
0
 42
0.0000001
 43
0.0000001
 44
0.0000000001
 40
0.0
 40
0.0
 40
0.0
 40
0.0
 40
1.0
 40
1.0
 40
1.0
 40
1.0
 10
81.8673963217
 20
626.7035936389
 30
0.0
 10
82.0010824913
 20
626.781589569
 30
0.0
 10
82.147638144
 20
626.8400770756
 30
0.0
 10
82.2976505089
 20
626.8781775668
 30
0.0
  0
SPLINE
  5
56E
100
AcDbEntity
  8
0
100
AcDbSpline
 62
7
  6
BYLAYER
 70
0
 71
3
 72
9
 73
5
 74
0
 42
0.0000001
 43
0.0000001
 44
0.0000000001
 40
0.0
 40
0.0
 40
0.0
 40
0.0
 40
0.2248422428
 40
1.0
 40
1.0
 40
1.0
 40
1.0
 10
82.2976505089
 20
626.8781775668
 30
0.0
 10
82.4367549313
 20
626.9135076332
 30
0.0
 10
83.0751046409
 20
626.9959169034
 30
0.0
 10
83.7222752248
 20
626.7983674941
 30
0.0
 10
84.1641704835
 20
626.5757623982
 30
0.0
  0
SPLINE
  5
56F
100
AcDbEntity
  8
0
100
AcDbSpline
 62
7
  6
BYLAYER
 70
0
 71
3
 72
9
 73
5
 74
0
 42
0.0000001
 43
0.0000001
 44
0.0000000001
 40
0.0
 40
0.0
 40
0.0
 40
0.0
 40
0.7709618824
 40
1.0
 40
1.0
 40
1.0
 40
1.0
 10
97.3422895546
 20
583.2499469442
 30
0.0
 10
97.4122807225
 20
583.2118193819
 30
0.0
 10
97.5053399312
 20
583.164837976
 30
0.0
 10
97.6048453488
 20
583.1360817944
 30
0.0
 10
97.6278989838
 20
583.1306798516
 30
0.0
  0
SPLINE
  5
570
100
AcDbEntity
  8
0
100
AcDbSpline
 62
7
  6
BYLAYER
 70
0
 71
3
 72
8
 73
4
 74
0
 42
0.0000001
 43
0.0000001
 44
0.0000000001
 40
0.0
 40
0.0
 40
0.0
 40
0.0
 40
1.0
 40
1.0
 40
1.0
 40
1.0
 10
97.6278989838
 20
583.1306798516
 30
0.0
 10
97.7059953725
 20
583.1123802547
 30
0.0
 10
97.7898532649
 20
583.1075012644
 30
0.0
 10
97.8684303518
 20
583.1236122106
 30
0.0
  0
SPLINE
  5
571
100
AcDbEntity
  8
0
100
AcDbSpline
 62
7
  6
BYLAYER
 70
0
 71
3
 72
8
 73
4
 74
0
 42
0.0000001
 43
0.0000001
 44
0.0000000001
 40
0.0
 40
0.0
 40
0.0
 40
0.0
 40
1.0
 40
1.0
 40
1.0
 40
1.0
 10
97.8684303518
 20
583.1236122106
 30
0.0
 10
97.898566551
 20
583.1297911452
 30
0.0
 10
97.9284976716
 20
583.139836162
 30
0.0
 10
97.9551389176
 20
583.1552184163
 30
0.0
  0
SPLINE
  5
572
100
AcDbEntity
  8
0
100
AcDbSpline
 62
7
  6
BYLAYER
 70
0
 71
3
 72
9
 73
5
 74
0
 42
0.0000001
 43
0.0000001
 44
0.0000000001
 40
0.0
 40
0.0
 40
0.0
 40
0.0
 40
0.2281014113
 40
1.0
 40
1.0
 40
1.0
 40
1.0
 10
112.12502662
 20
575.2001232001
 30
0.0
 10
112.1214775841
 20
575.2987688439
 30
0.0
 10
112.0611678677
 20
575.7328579811
 30
0.0
 10
111.7754034629
 20
576.096637759
 30
0.0
 10
111.5468523144
 20
576.3402425471
 30
0.0
  0
SPLINE
  5
573
100
AcDbEntity
  8
0
100
AcDbSpline
 62
7
  6
BYLAYER
 70
0
 71
3
 72
9
 73
5
 74
0
 42
0.0000001
 43
0.0000001
 44
0.0000000001
 40
0.0
 40
0.0
 40
0.0
 40
0.0
 40
0.2600166948
 40
1.0
 40
1.0
 40
1.0
 40
1.0
 10
111.5468523144
 20
576.3402425471
 30
0.0
 10
111.5099309692
 20
576.3795957358
 30
0.0
 10
111.3652337225
 20
576.528441308
 30
0.0
 10
111.210409215
 20
576.6670229502
 30
0.0
 10
111.0941932238
 20
576.7674098654
 30
0.0
  0
SPLINE
  5
574
100
AcDbEntity
  8
0
100
AcDbSpline
 62
7
  6
BYLAYER
 70
0
 71
3
 72
9
 73
5
 74
0
 42
0.0000001
 43
0.0000001
 44
0.0000000001
 40
0.0
 40
0.0
 40
0.0
 40
0.0
 40
0.5495610253
 40
1.0
 40
1.0
 40
1.0
 40
1.0
 10
252.5408162614
 20
242.3389092078
 30
0.0
 10
252.5389421625
 20
242.328293966
 30
0.0
 10
252.5382429417
 20
242.3072720799
 30
0.0
 10
252.5164432569
 20
242.2950732444
 30
0.0
 10
252.5077582817
 20
242.2966954114
 30
0.0
  0
SPLINE
  5
575
100
AcDbEntity
  8
0
100
AcDbSpline
 62
7
  6
BYLAYER
 70
0
 71
3
 72
9
 73
5
 74
0
 42
0.0000001
 43
0.0000001
 44
0.0000000001
 40
0.0
 40
0.0
 40
0.0
 40
0.0
 40
0.298301183
 40
1.0
 40
1.0
 40
1.0
 40
1.0
 10
109.8247102954
 20
576.6697935418
 30
0.0
 10
109.8027696289
 20
576.6812358778
 30
0.0
 10
109.7311775443
 20
576.7203937682
 30
0.0
 10
109.6335428774
 20
576.7283722466
 30
0.0
 10
109.5831340629
 20
576.6992662639
 30
0.0
  0
SPLINE
  5
576
100
AcDbEntity
  8
0
100
AcDbSpline
 62
7
  6
BYLAYER
 70
0
 71
3
 72
9
 73
5
 74
0
 42
0.0000001
 43
0.0000001
 44
0.0000000001
 40
0.0
 40
0.0
 40
0.0
 40
0.0
 40
0.5239605986
 40
1.0
 40
1.0
 40
1.0
 40
1.0
 10
110.1478815376
 20
576.2315661642
 30
0.0
 10
110.110427475
 20
576.320757706
 30
0.0
 10
110.0431552769
 20
576.4962426026
 30
0.0
 10
109.8998847317
 20
576.6242603194
 30
0.0
 10
109.8247102954
 20
576.6697935418
 30
0.0
  0
SPLINE
  5
577
100
AcDbEntity
  8
0
100
AcDbSpline
 62
7
  6
BYLAYER
 70
0
 71
3
 72
9
 73
5
 74
0
 42
0.0000001
 43
0.0000001
 44
0.0000000001
 40
0.0
 40
0.0
 40
0.0
 40
0.0
 40
0.4702865023
 40
1.0
 40
1.0
 40
1.0
 40
1.0
 10
110.8663160663
 20
575.3603750842
 30
0.0
 10
110.7115890224
 20
575.4526968058
 30
0.0
 10
110.3960663931
 20
575.6889196592
 30
0.0
 10
110.2247213594
 20
576.0437305103
 30
0.0
 10
110.1478815376
 20
576.2315661642
 30
0.0
  0
SPLINE
  5
578
100
AcDbEntity
  8
0
100
AcDbSpline
 62
7
  6
BYLAYER
 70
0
 71
3
 72
9
 73
5
 74
0
 42
0.0000001
 43
0.0000001
 44
0.0000000001
 40
0.0
 40
0.0
 40
0.0
 40
0.0
 40
0.2201305519
 40
1.0
 40
1.0
 40
1.0
 40
1.0
 10
97.884421263
 20
583.114389803
 30
0.0
 10
97.8439708588
 20
583.0910361134
 30
0.0
 10
97.6298011337
 20
583.0409098487
 30
0.0
 10
97.4168919828
 20
583.129963637
 30
0.0
 10
97.2715791708
 20
583.2091225288
 30
0.0
  0
SPLINE
  5
579
100
AcDbEntity
  8
0
100
AcDbSpline
 62
7
  6
BYLAYER
 70
0
 71
3
 72
8
 73
4
 74
0
 42
0.0000001
 43
0.0000001
 44
0.0000000001
 40
0.0
 40
0.0
 40
0.0
 40
0.0
 40
1.0
 40
1.0
 40
1.0
 40
1.0
 10
265.3200855088
 20
238.577348797
 30
0.0
 10
265.3238366469
 20
238.5462224896
 30
0.0
 10
265.3275533266
 20
238.5150909051
 30
0.0
 10
265.3316100628
 20
238.4840029501
 30
0.0
  0
SPLINE
  5
57A
100
AcDbEntity
  8
0
100
AcDbSpline
 62
7
  6
BYLAYER
 70
0
 71
3
 72
9
 73
5
 74
0
 42
0.0000001
 43
0.0000001
 44
0.0000000001
 40
0.0
 40
0.0
 40
0.0
 40
0.0
 40
0.2345916648
 40
1.0
 40
1.0
 40
1.0
 40
1.0
 10
265.3316100628
 20
238.4840029501
 30
0.0
 10
265.3400704281
 20
238.4191686979
 30
0.0
 10
265.3818675847
 20
238.1434055664
 30
0.0
 10
265.5107748587
 20
237.8828832447
 30
0.0
 10
265.6394093951
 20
237.7126987014
 30
0.0
  0
SPLINE
  5
57B
100
AcDbEntity
  8
0
100
AcDbSpline
 62
7
  6
BYLAYER
 70
0
 71
3
 72
9
 73
5
 74
0
 42
0.0000001
 43
0.0000001
 44
0.0000000001
 40
0.0
 40
0.0
 40
0.0
 40
0.0
 40
0.2706977412
 40
1.0
 40
1.0
 40
1.0
 40
1.0
 10
265.7758782468
 20
237.5531162792
 30
0.0
 10
265.8199495893
 20
237.5073114224
 30
0.0
 10
265.9913131158
 20
237.3466494389
 30
0.0
 10
266.1925761461
 20
237.2171090912
 30
0.0
 10
266.3495924961
 20
237.1487511464
 30
0.0
  0
SPLINE
  5
57C
100
AcDbEntity
  8
0
100
AcDbSpline
 62
7
  6
BYLAYER
 70
0
 71
3
 72
9
 73
5
 74
0
 42
0.0000001
 43
0.0000001
 44
0.0000000001
 40
0.0
 40
0.0
 40
0.0
 40
0.0
 40
0.5288268093
 40
1.0
 40
1.0
 40
1.0
 40
1.0
 10
266.3495924961
 20
237.1487511464
 30
0.0
 10
266.4839344328
 20
237.090264634
 30
0.0
 10
266.7614262272
 20
237.0143441859
 30
0.0
 10
267.0378304917
 20
237.0694015457
 30
0.0
 10
267.1656239126
 20
237.0960733859
 30
0.0
  0
SPLINE
  5
57D
100
AcDbEntity
  8
0
100
AcDbSpline
 62
7
  6
BYLAYER
 70
0
 71
3
 72
9
 73
5
 74
0
 42
0.0000001
 43
0.0000001
 44
0.0000000001
 40
0.0
 40
0.0
 40
0.0
 40
0.0
 40
0.6929053393
 40
1.0
 40
1.0
 40
1.0
 40
1.0
 10
253.8584689112
 20
242.8529753115
 30
0.0
 10
253.8801402513
 20
242.8636567886
 30
0.0
 10
253.9209270847
 20
242.8626814045
 30
0.0
 10
253.9498130285
 20
242.843353344
 30
0.0
 10
253.9591823945
 20
242.8381691099
 30
0.0
  0
SPLINE
  5
57E
100
AcDbEntity
  8
0
100
AcDbSpline
 62
7
  6
BYLAYER
 70
0
 71
3
 72
9
 73
5
 74
0
 42
0.0000001
 43
0.0000001
 44
0.0000000001
 40
0.0
 40
0.0
 40
0.0
 40
0.0
 40
0.2879316472
 40
1.0
 40
1.0
 40
1.0
 40
1.0
 10
110.718817397
 20
578.3849402574
 30
0.0
 10
110.6353641993
 20
578.4310817021
 30
0.0
 10
110.353029733
 20
578.5839760962
 30
0.0
 10
109.9622593434
 20
578.6817762952
 30
0.0
 10
109.7580218376
 20
578.5638681717
 30
0.0
  0
SPLINE
  5
57F
100
AcDbEntity
  8
0
100
AcDbSpline
 62
7
  6
BYLAYER
 70
0
 71
3
 72
10
 73
6
 74
0
 42
0.0000001
 43
0.0000001
 44
0.0000000001
 40
0.0
 40
0.0
 40
0.0
 40
0.0
 40
0.2560659673
 40
0.524924483
 40
1.0
 40
1.0
 40
1.0
 40
1.0
 10
111.9766993065
 20
576.8559304988
 30
0.0
 10
111.969656194
 20
577.0296981408
 30
0.0
 10
111.823317219
 20
577.3731960411
 30
0.0
 10
111.4096566976
 20
577.911494849
 30
0.0
 10
110.9954775919
 20
578.2189152556
 30
0.0
 10
110.718817397
 20
578.3849402574
 30
0.0
  0
SPLINE
  5
580
100
AcDbEntity
  8
0
100
AcDbSpline
 62
7
  6
BYLAYER
 70
0
 71
3
 72
9
 73
5
 74
0
 42
0.0000001
 43
0.0000001
 44
0.0000000001
 40
0.0
 40
0.0
 40
0.0
 40
0.0
 40
0.5597293291
 40
1.0
 40
1.0
 40
1.0
 40
1.0
 10
260.3288228014
 20
237.6843096204
 30
0.0
 10
260.3167669677
 20
238.0515329881
 30
0.0
 10
260.2224331376
 20
238.7029808256
 30
0.0
 10
259.4459487312
 20
239.210096884
 30
0.0
 10
259.1956811884
 20
239.065562247
 30
0.0
  0
SPLINE
  5
581
100
AcDbEntity
  8
0
100
AcDbSpline
 62
7
  6
BYLAYER
 70
0
 71
3
 72
9
 73
5
 74
0
 42
0.0000001
 43
0.0000001
 44
0.0000000001
 40
0.0
 40
0.0
 40
0.0
 40
0.0
 40
0.4589393631
 40
1.0
 40
1.0
 40
1.0
 40
1.0
 10
260.3029226214
 20
237.3886468394
 30
0.0
 10
260.2204003256
 20
237.379762042
 30
0.0
 10
260.0370283197
 20
237.3640637355
 30
0.0
 10
259.8626476949
 20
237.4339144095
 30
0.0
 10
259.7776056222
 20
237.4823151764
 30
0.0
  0
SPLINE
  5
582
100
AcDbEntity
  8
0
100
AcDbSpline
 62
7
  6
BYLAYER
 70
0
 71
3
 72
9
 73
5
 74
0
 42
0.0000001
 43
0.0000001
 44
0.0000000001
 40
0.0
 40
0.0
 40
0.0
 40
0.0
 40
0.4927815086
 40
1.0
 40
1.0
 40
1.0
 40
1.0
 10
259.7776056222
 20
237.4823151764
 30
0.0
 10
259.6381991617
 20
237.5616568407
 30
0.0
 10
259.3916884443
 20
237.8031566118
 30
0.0
 10
259.306959012
 20
238.127361262
 30
0.0
 10
259.2794438827
 20
238.2901551155
 30
0.0
  0
SPLINE
  5
583
100
AcDbEntity
  8
0
100
AcDbSpline
 62
7
  6
BYLAYER
 70
0
 71
3
 72
9
 73
5
 74
0
 42
0.0000001
 43
0.0000001
 44
0.0000000001
 40
0.0
 40
0.0
 40
0.0
 40
0.0
 40
0.4959488091
 40
1.0
 40
1.0
 40
1.0
 40
1.0
 10
111.0941932238
 20
576.7674098654
 30
0.0
 10
110.9317877183
 20
576.9069463315
 30
0.0
 10
110.6139909512
 20
577.1703232739
 30
0.0
 10
110.2777106486
 20
577.5297656932
 30
0.0
 10
110.2688635915
 20
577.7472005642
 30
0.0
  0
SPLINE
  5
584
100
AcDbEntity
  8
0
100
AcDbSpline
 62
7
  6
BYLAYER
 70
0
 71
3
 72
9
 73
5
 74
0
 42
0.0000001
 43
0.0000001
 44
0.0000000001
 40
0.0
 40
0.0
 40
0.0
 40
0.0
 40
0.2791037078
 40
1.0
 40
1.0
 40
1.0
 40
1.0
 10
259.2848648501
 20
238.5141797984
 30
0.0
 10
259.2905448478
 20
238.5384611565
 30
0.0
 10
259.3111418286
 20
238.6235001614
 30
0.0
 10
259.3519669836
 20
238.7171554553
 30
0.0
 10
259.4077361087
 20
238.7493791733
 30
0.0
  0
SPLINE
  5
585
100
AcDbEntity
  8
0
100
AcDbSpline
 62
7
  6
BYLAYER
 70
0
 71
3
 72
9
 73
5
 74
0
 42
0.0000001
 43
0.0000001
 44
0.0000000001
 40
0.0
 40
0.0
 40
0.0
 40
0.0
 40
0.4922172054
 40
1.0
 40
1.0
 40
1.0
 40
1.0
 10
96.9522954473
 20
584.1694002847
 30
0.0
 10
96.9442267274
 20
584.1647416211
 30
0.0
 10
96.9286238632
 20
584.1537662418
 30
0.0
 10
96.9158840981
 20
584.1395025588
 30
0.0
 10
96.9103098971
 20
584.1316723115
 30
0.0
  0
SPLINE
  5
586
100
AcDbEntity
  8
0
100
AcDbSpline
 62
7
  6
BYLAYER
 70
0
 71
3
 72
8
 73
4
 74
0
 42
0.0000001
 43
0.0000001
 44
0.0000000001
 40
0.0
 40
0.0
 40
0.0
 40
0.0
 40
1.0
 40
1.0
 40
1.0
 40
1.0
 10
96.9103098971
 20
584.1316723115
 30
0.0
 10
96.8775134377
 20
584.0856021408
 30
0.0
 10
96.8710956995
 20
584.0236080302
 30
0.0
 10
96.8691337104
 20
583.9670906084
 30
0.0
  0
SPLINE
  5
587
100
AcDbEntity
  8
0
100
AcDbSpline
 62
7
  6
BYLAYER
 70
0
 71
3
 72
9
 73
5
 74
0
 42
0.0000001
 43
0.0000001
 44
0.0000000001
 40
0.0
 40
0.0
 40
0.0
 40
0.0
 40
0.2930998779
 40
1.0
 40
1.0
 40
1.0
 40
1.0
 10
108.5229102435
 20
580.9387104696
 30
0.0
 10
108.4986980418
 20
580.9511910479
 30
0.0
 10
108.4176409953
 20
580.9945717898
 30
0.0
 10
108.3087883968
 20
580.9973386655
 30
0.0
 10
108.2518942925
 20
580.9644888923
 30
0.0
  0
SPLINE
  5
588
100
AcDbEntity
  8
0
100
AcDbSpline
 62
7
  6
BYLAYER
 70
0
 71
3
 72
8
 73
4
 74
0
 42
0.0000001
 43
0.0000001
 44
0.0000000001
 40
0.0
 40
0.0
 40
0.0
 40
0.0
 40
1.0
 40
1.0
 40
1.0
 40
1.0
 10
108.8899996267
 20
580.3000260177
 30
0.0
 10
108.8878761022
 20
580.3783423914
 30
0.0
 10
108.8774368644
 20
580.4579337298
 30
0.0
 10
108.851640481
 20
580.5319101473
 30
0.0
  0
SPLINE
  5
589
100
AcDbEntity
  8
0
100
AcDbSpline
 62
7
  6
BYLAYER
 70
0
 71
3
 72
9
 73
5
 74
0
 42
0.0000001
 43
0.0000001
 44
0.0000000001
 40
0.0
 40
0.0
 40
0.0
 40
0.0
 40
0.2672313979
 40
1.0
 40
1.0
 40
1.0
 40
1.0
 10
108.851640481
 20
580.5319101473
 30
0.0
 10
108.8361259738
 20
580.5764011768
 30
0.0
 10
108.7623340381
 20
580.7373007388
 30
0.0
 10
108.6322835514
 20
580.8699300369
 30
0.0
 10
108.5229102435
 20
580.9387104696
 30
0.0
  0
SPLINE
  5
58A
100
AcDbEntity
  8
0
100
AcDbSpline
 62
7
  6
BYLAYER
 70
0
 71
3
 72
9
 73
5
 74
0
 42
0.0000001
 43
0.0000001
 44
0.0000000001
 40
0.0
 40
0.0
 40
0.0
 40
0.0
 40
0.4943911113
 40
1.0
 40
1.0
 40
1.0
 40
1.0
 10
108.889999628
 20
578.9451423224
 30
0.0
 10
108.8858760482
 20
579.082197207
 30
0.0
 10
108.8324657949
 20
579.3655050936
 30
0.0
 10
108.6325392611
 20
579.5816094683
 30
0.0
 10
108.5146238007
 20
579.6575032344
 30
0.0
  0
SPLINE
  5
58B
100
AcDbEntity
  8
0
100
AcDbSpline
 62
7
  6
BYLAYER
 70
0
 71
3
 72
8
 73
4
 74
0
 42
0.0000001
 43
0.0000001
 44
0.0000000001
 40
0.0
 40
0.0
 40
0.0
 40
0.0
 40
1.0
 40
1.0
 40
1.0
 40
1.0
 10
96.3550692376
 20
584.8208670717
 30
0.0
 10
96.3954630872
 20
584.8441890412
 30
0.0
 10
96.441211927
 20
584.8592810486
 30
0.0
 10
96.4872452122
 20
584.8667986281
 30
0.0
  0
SPLINE
  5
58C
100
AcDbEntity
  8
0
100
AcDbSpline
 62
7
  6
BYLAYER
 70
0
 71
3
 72
8
 73
4
 74
0
 42
0.0000001
 43
0.0000001
 44
0.0000000001
 40
0.0
 40
0.0
 40
0.0
 40
0.0
 40
1.0
 40
1.0
 40
1.0
 40
1.0
 10
96.4872452122
 20
584.8667986281
 30
0.0
 10
96.548340711
 20
584.8767759797
 30
0.0
 10
96.6116524298
 20
584.8761932146
 30
0.0
 10
96.672957961
 20
584.8676002318
 30
0.0
  0
SPLINE
  5
58D
100
AcDbEntity
  8
0
100
AcDbSpline
 62
7
  6
BYLAYER
 70
0
 71
3
 72
8
 73
4
 74
0
 42
0.0000001
 43
0.0000001
 44
0.0000000001
 40
0.0
 40
0.0
 40
0.0
 40
0.0
 40
1.0
 40
1.0
 40
1.0
 40
1.0
 10
96.672957961
 20
584.8676002318
 30
0.0
 10
96.6987964819
 20
584.8639785363
 30
0.0
 10
96.7244549978
 20
584.8589569852
 30
0.0
 10
96.7498599934
 20
584.8530129095
 30
0.0
  0
SPLINE
  5
58E
100
AcDbEntity
  8
0
100
AcDbSpline
 62
7
  6
BYLAYER
 70
0
 71
3
 72
8
 73
4
 74
0
 42
0.0000001
 43
0.0000001
 44
0.0000000001
 40
0.0
 40
0.0
 40
0.0
 40
0.0
 40
1.0
 40
1.0
 40
1.0
 40
1.0
 10
96.7498599934
 20
584.8530129095
 30
0.0
 10
96.7827405631
 20
584.8453197536
 30
0.0
 10
96.8152626271
 20
584.8360949369
 30
0.0
 10
96.8475889617
 20
584.826331505
 30
0.0
  0
SPLINE
  5
58F
100
AcDbEntity
  8
0
100
AcDbSpline
 62
7
  6
BYLAYER
 70
0
 71
3
 72
8
 73
4
 74
0
 42
0.0000001
 43
0.0000001
 44
0.0000000001
 40
0.0
 40
0.0
 40
0.0
 40
0.0
 40
1.0
 40
1.0
 40
1.0
 40
1.0
 10
108.5146238007
 20
579.6575032344
 30
0.0
 10
108.4529342489
 20
579.6891959428
 30
0.0
 10
108.3806607069
 20
579.7212193735
 30
0.0
 10
108.3126679445
 20
579.7075441104
 30
0.0
  0
SPLINE
  5
590
100
AcDbEntity
  8
0
100
AcDbSpline
 62
7
  6
BYLAYER
 70
0
 71
3
 72
9
 73
5
 74
0
 42
0.0000001
 43
0.0000001
 44
0.0000000001
 40
0.0
 40
0.0
 40
0.0
 40
0.0
 40
0.5040522576
 40
1.0
 40
1.0
 40
1.0
 40
1.0
 10
108.3126679445
 20
579.7075441104
 30
0.0
 10
108.3042550731
 20
579.7058520445
 30
0.0
 10
108.2877975658
 20
579.7011776864
 30
0.0
 10
108.2723281258
 20
579.6938628066
 30
0.0
 10
108.2650163936
 20
579.6896403614
 30
0.0
  0
SPLINE
  5
591
100
AcDbEntity
  8
0
100
AcDbSpline
 62
7
  6
BYLAYER
 70
0
 71
3
 72
9
 73
5
 74
0
 42
0.0000001
 43
0.0000001
 44
0.0000000001
 40
0.0
 40
0.0
 40
0.0
 40
0.0
 40
0.2574144349
 40
1.0
 40
1.0
 40
1.0
 40
1.0
 10
96.6795833632
 20
585.2522501229
 30
0.0
 10
96.7062516247
 20
585.267642514
 30
0.0
 10
96.7833817431
 20
585.3625449051
 30
0.0
 10
96.8558234257
 20
585.4621513073
 30
0.0
 10
96.9327500886
 20
585.5065647029
 30
0.0
  0
SPLINE
  5
592
100
AcDbEntity
  8
0
100
AcDbSpline
 62
7
  6
BYLAYER
 70
0
 71
3
 72
9
 73
5
 74
0
 42
0.0000001
 43
0.0000001
 44
0.0000000001
 40
0.0
 40
0.0
 40
0.0
 40
0.0
 40
0.2942533595
 40
1.0
 40
1.0
 40
1.0
 40
1.0
 10
106.9766601485
 20
581.8926558638
 30
0.0
 10
106.9545724887
 20
581.9040686024
 30
0.0
 10
106.8819306452
 20
581.9438669878
 30
0.0
 10
106.7822239572
 20
581.9555417987
 30
0.0
 10
106.7305911736
 20
581.9257131398
 30
0.0
  0
SPLINE
  5
593
100
AcDbEntity
  8
0
100
AcDbSpline
 62
7
  6
BYLAYER
 70
0
 71
3
 72
9
 73
5
 74
0
 42
0.0000001
 43
0.0000001
 44
0.0000000001
 40
0.0
 40
0.0
 40
0.0
 40
0.0
 40
0.4967000666
 40
1.0
 40
1.0
 40
1.0
 40
1.0
 10
107.3520359752
 20
581.1391508811
 30
0.0
 10
107.3480690803
 20
581.2834479704
 30
0.0
 10
107.3087274751
 20
581.5823660763
 30
0.0
 10
107.1000397187
 20
581.8140918934
 30
0.0
 10
106.9766601485
 20
581.8926558638
 30
0.0
  0
SPLINE
  5
594
100
AcDbEntity
  8
0
100
AcDbSpline
 62
7
  6
BYLAYER
 70
0
 71
3
 72
9
 73
5
 74
0
 42
0.0000001
 43
0.0000001
 44
0.0000000001
 40
0.0
 40
0.0
 40
0.0
 40
0.0
 40
0.4720567936
 40
1.0
 40
1.0
 40
1.0
 40
1.0
 10
267.1397268632
 20
237.445153986
 30
0.0
 10
267.1351470804
 20
237.653958521
 30
0.0
 10
267.1178866803
 20
238.099121822
 30
0.0
 10
266.9708020175
 20
238.5240568043
 30
0.0
 10
266.8721351939
 20
238.735775704
 30
0.0
  0
SPLINE
  5
595
100
AcDbEntity
  8
0
100
AcDbSpline
 62
7
  6
BYLAYER
 70
0
 71
3
 72
9
 73
5
 74
0
 42
0.0000001
 43
0.0000001
 44
0.0000000001
 40
0.0
 40
0.0
 40
0.0
 40
0.0
 40
0.5259694332
 40
1.0
 40
1.0
 40
1.0
 40
1.0
 10
266.8721351939
 20
238.735775704
 30
0.0
 10
266.7486564306
 20
239.0007359706
 30
0.0
 10
266.4486354636
 20
239.4843374175
 30
0.0
 10
265.998787585
 20
239.8230106805
 30
0.0
 10
265.7807504458
 20
239.9708878323
 30
0.0
  0
SPLINE
  5
596
100
AcDbEntity
  8
0
100
AcDbSpline
 62
7
  6
BYLAYER
 70
0
 71
3
 72
12
 73
8
 74
0
 42
0.0000001
 43
0.0000001
 44
0.0000000001
 40
0.0
 40
0.0
 40
0.0
 40
0.0
 40
0.1908806828
 40
0.421854214
 40
0.7089660853
 40
0.8612795918
 40
1.0
 40
1.0
 40
1.0
 40
1.0
 10
267.0949135289
 20
237.0552489705
 30
0.0
 10
266.9285512582
 20
237.020527403
 30
0.0
 10
266.5435549717
 20
236.9651418561
 30
0.0
 10
265.9491541861
 20
237.2495170978
 30
0.0
 10
265.5181723755
 20
237.6806412051
 30
0.0
 10
265.2977324653
 20
238.1549588105
 30
0.0
 10
265.2641524681
 20
238.4139044971
 30
0.0
 10
265.2493751251
 20
238.5365243808
 30
0.0
  0
SPLINE
  5
597
100
AcDbEntity
  8
0
100
AcDbSpline
 62
7
  6
BYLAYER
 70
0
 71
3
 72
9
 73
5
 74
0
 42
0.0000001
 43
0.0000001
 44
0.0000000001
 40
0.0
 40
0.0
 40
0.0
 40
0.0
 40
0.5510603859
 40
1.0
 40
1.0
 40
1.0
 40
1.0
 10
265.7807504458
 20
239.9708878323
 30
0.0
 10
265.6084506161
 20
240.0558642705
 30
0.0
 10
265.2931748049
 20
240.2217710882
 30
0.0
 10
264.9138553399
 20
240.175878709
 30
0.0
 10
264.7783109626
 20
240.0976225231
 30
0.0
  0
SPLINE
  5
598
100
AcDbEntity
  8
0
100
AcDbSpline
 62
7
  6
BYLAYER
 70
0
 71
3
 72
9
 73
5
 74
0
 42
0.0000001
 43
0.0000001
 44
0.0000000001
 40
0.0
 40
0.0
 40
0.0
 40
0.0
 40
0.2898271422
 40
1.0
 40
1.0
 40
1.0
 40
1.0
 10
91.9525120006
 20
590.4441802461
 30
0.0
 10
91.9162468542
 20
590.4639793497
 30
0.0
 10
91.7955274593
 20
590.5287039623
 30
0.0
 10
91.628518787
 20
590.5883065364
 30
0.0
 10
91.5408657161
 20
590.5376411584
 30
0.0
  0
SPLINE
  5
599
100
AcDbEntity
  8
0
100
AcDbSpline
 62
7
  6
BYLAYER
 70
0
 71
3
 72
11
 73
7
 74
0
 42
0.0000001
 43
0.0000001
 44
0.0000000001
 40
0.0
 40
0.0
 40
0.0
 40
0.0
 40
0.2401070109
 40
0.5027674848
 40
0.765020238
 40
1.0
 40
1.0
 40
1.0
 40
1.0
 10
92.8060155383
 20
589.3266051296
 30
0.0
 10
92.7871243521
 20
589.4204784885
 30
0.0
 10
92.7435705795
 20
589.6149533535
 30
0.0
 10
92.6715633506
 20
589.917634367
 30
0.0
 10
92.4589927502
 20
590.1499326405
 30
0.0
 10
92.2875590524
 20
590.2495943132
 30
0.0
 10
92.2069057512
 20
590.2973092683
 30
0.0
  0
SPLINE
  5
59A
100
AcDbEntity
  8
0
100
AcDbSpline
 62
7
  6
BYLAYER
 70
0
 71
3
 72
9
 73
5
 74
0
 42
0.0000001
 43
0.0000001
 44
0.0000000001
 40
0.0
 40
0.0
 40
0.0
 40
0.0
 40
0.5020176005
 40
1.0
 40
1.0
 40
1.0
 40
1.0
 10
95.3665261335
 20
587.9507088825
 30
0.0
 10
95.3621444865
 20
588.1196563685
 30
0.0
 10
95.2867450996
 20
588.4757988157
 30
0.0
 10
94.9959630818
 20
588.6825776897
 30
0.0
 10
94.8527667245
 20
588.7697552808
 30
0.0
  0
SPLINE
  5
59B
100
AcDbEntity
  8
0
100
AcDbSpline
 62
7
  6
BYLAYER
 70
0
 71
3
 72
9
 73
5
 74
0
 42
0.0000001
 43
0.0000001
 44
0.0000000001
 40
0.0
 40
0.0
 40
0.0
 40
0.0
 40
0.7407076596
 40
1.0
 40
1.0
 40
1.0
 40
1.0
 10
258.4797877543
 20
244.2676533998
 30
0.0
 10
258.6056432473
 20
244.1823059174
 30
0.0
 10
258.7759440601
 20
244.0665224197
 30
0.0
 10
258.9294530553
 20
243.9298371575
 30
0.0
 10
258.9678767476
 20
243.8929961323
 30
0.0
  0
SPLINE
  5
59C
100
AcDbEntity
  8
0
100
AcDbSpline
 62
7
  6
BYLAYER
 70
0
 71
3
 72
8
 73
4
 74
0
 42
0.0000001
 43
0.0000001
 44
0.0000000001
 40
0.0
 40
0.0
 40
0.0
 40
0.0
 40
1.0
 40
1.0
 40
1.0
 40
1.0
 10
258.9678767476
 20
243.8929961323
 30
0.0
 10
259.0836254402
 20
243.782015114
 30
0.0
 10
259.1881232543
 20
243.6585882871
 30
0.0
 10
259.2816083697
 20
243.52829984
 30
0.0
  0
SPLINE
  5
59D
100
AcDbEntity
  8
0
100
AcDbSpline
 62
7
  6
BYLAYER
 70
0
 71
3
 72
9
 73
5
 74
0
 42
0.0000001
 43
0.0000001
 44
0.0000000001
 40
0.0
 40
0.0
 40
0.0
 40
0.0
 40
0.5296303941
 40
1.0
 40
1.0
 40
1.0
 40
1.0
 10
259.487392713
 20
243.1990040874
 30
0.0
 10
259.6144024862
 20
242.9641998003
 30
0.0
 10
259.8065036335
 20
242.4872064095
 30
0.0
 10
259.833220392
 20
241.9791560105
 30
0.0
 10
259.8384027741
 20
241.7421282018
 30
0.0
  0
SPLINE
  5
59E
100
AcDbEntity
  8
0
100
AcDbSpline
 62
7
  6
BYLAYER
 70
0
 71
3
 72
8
 73
4
 74
0
 42
0.0000001
 43
0.0000001
 44
0.0000000001
 40
0.0
 40
0.0
 40
0.0
 40
0.0
 40
1.0
 40
1.0
 40
1.0
 40
1.0
 10
257.9473282409
 20
242.8339158931
 30
0.0
 10
257.9510620313
 20
242.8028756165
 30
0.0
 10
257.9547623799
 20
242.7718302048
 30
0.0
 10
257.9588000569
 20
242.7408279931
 30
0.0
  0
SPLINE
  5
59F
100
AcDbEntity
  8
0
100
AcDbSpline
 62
7
  6
BYLAYER
 70
0
 71
3
 72
9
 73
5
 74
0
 42
0.0000001
 43
0.0000001
 44
0.0000000001
 40
0.0
 40
0.0
 40
0.0
 40
0.0
 40
0.2345340923
 40
1.0
 40
1.0
 40
1.0
 40
1.0
 10
257.9588000569
 20
242.7408279931
 30
0.0
 10
257.9669918783
 20
242.677929306
 30
0.0
 10
258.0071621303
 20
242.4103242542
 30
0.0
 10
258.1289781284
 20
242.1566017602
 30
0.0
 10
258.2513537696
 20
241.9896233721
 30
0.0
  0
SPLINE
  5
5A0
100
AcDbEntity
  8
0
100
AcDbSpline
 62
7
  6
BYLAYER
 70
0
 71
3
 72
9
 73
5
 74
0
 42
0.0000001
 43
0.0000001
 44
0.0000000001
 40
0.0
 40
0.0
 40
0.0
 40
0.0
 40
0.2704660512
 40
1.0
 40
1.0
 40
1.0
 40
1.0
 10
258.395981206
 20
241.8171153771
 30
0.0
 10
258.4398533426
 20
241.7710450186
 30
0.0
 10
258.6107089943
 20
241.6092652518
 30
0.0
 10
258.8115206717
 20
241.4782958961
 30
0.0
 10
258.9684724221
 20
241.4089270349
 30
0.0
  0
SPLINE
  5
5A1
100
AcDbEntity
  8
0
100
AcDbSpline
 62
7
  6
BYLAYER
 70
0
 71
3
 72
9
 73
5
 74
0
 42
0.0000001
 43
0.0000001
 44
0.0000000001
 40
0.0
 40
0.0
 40
0.0
 40
0.0
 40
0.5317153433
 40
1.0
 40
1.0
 40
1.0
 40
1.0
 10
258.9684724221
 20
241.4089270349
 30
0.0
 10
259.1045406094
 20
241.3487882013
 30
0.0
 10
259.3846090917
 20
241.2704834645
 30
0.0
 10
259.6637843865
 20
241.3262818805
 30
0.0
 10
259.7920233829
 20
241.3531273292
 30
0.0
  0
SPLINE
  5
5A2
100
AcDbEntity
  8
0
100
AcDbSpline
 62
7
  6
BYLAYER
 70
0
 71
3
 72
8
 73
4
 74
0
 42
0.0000001
 43
0.0000001
 44
0.0000000001
 40
0.0
 40
0.0
 40
0.0
 40
0.0
 40
1.0
 40
1.0
 40
1.0
 40
1.0
 10
97.0034604711
 20
585.5473891176
 30
0.0
 10
96.9568261898
 20
585.5204649443
 30
0.0
 10
96.9180092117
 20
585.4802940934
 30
0.0
 10
96.8843357884
 20
585.4382730528
 30
0.0
  0
SPLINE
  5
5A3
100
AcDbEntity
  8
0
100
AcDbSpline
 62
7
  6
BYLAYER
 70
0
 71
3
 72
8
 73
4
 74
0
 42
0.0000001
 43
0.0000001
 44
0.0000000001
 40
0.0
 40
0.0
 40
0.0
 40
0.0
 40
1.0
 40
1.0
 40
1.0
 40
1.0
 10
96.8843357884
 20
585.4382730528
 30
0.0
 10
96.8512315818
 20
585.3969623373
 30
0.0
 10
96.8176902323
 20
585.3557806018
 30
0.0
 10
96.7805088893
 20
585.3180975626
 30
0.0
  0
SPLINE
  5
5A4
100
AcDbEntity
  8
0
100
AcDbSpline
 62
7
  6
BYLAYER
 70
0
 71
3
 72
9
 73
5
 74
0
 42
0.0000001
 43
0.0000001
 44
0.0000000001
 40
0.0
 40
0.0
 40
0.0
 40
0.0
 40
0.5033194744
 40
1.0
 40
1.0
 40
1.0
 40
1.0
 10
96.7805088893
 20
585.3180975626
 30
0.0
 10
96.7758763186
 20
585.3134024835
 30
0.0
 10
96.7664478086
 20
585.3042994832
 30
0.0
 10
96.7559306262
 20
585.2963279964
 30
0.0
 10
96.750293416
 20
585.2930743473
 30
0.0
  0
SPLINE
  5
5A5
100
AcDbEntity
  8
0
100
AcDbSpline
 62
7
  6
BYLAYER
 70
0
 71
3
 72
9
 73
5
 74
0
 42
0.0000001
 43
0.0000001
 44
0.0000000001
 40
0.0
 40
0.0
 40
0.0
 40
0.0
 40
0.3138420883
 40
1.0
 40
1.0
 40
1.0
 40
1.0
 10
263.2156689041
 20
241.2619299128
 30
0.0
 10
263.0889535345
 20
241.3971438312
 30
0.0
 10
262.708680224
 20
241.8081815525
 30
0.0
 10
261.9931333158
 20
242.1631973386
 30
0.0
 10
261.6422658638
 20
241.9606276835
 30
0.0
  0
SPLINE
  5
5A6
100
AcDbEntity
  8
0
100
AcDbSpline
 62
7
  6
BYLAYER
 70
0
 71
3
 72
13
 73
9
 74
0
 42
0.0000001
 43
0.0000001
 44
0.0000000001
 40
0.0
 40
0.0
 40
0.0
 40
0.0
 40
0.0944606797
 40
0.2138609378
 40
0.3612672403
 40
0.5177768515
 40
0.7942143985
 40
1.0
 40
1.0
 40
1.0
 40
1.0
 10
263.2156689041
 20
239.1837383208
 30
0.0
 10
263.1370655417
 20
239.1526857662
 30
0.0
 10
262.9423018721
 20
239.0975451098
 30
0.0
 10
262.6336549109
 20
239.2509703692
 30
0.0
 10
262.3652701727
 20
239.5200796448
 30
0.0
 10
262.1265401732
 20
239.9960399021
 30
0.0
 10
262.0480041445
 20
240.5424967373
 30
0.0
 10
262.1456346475
 20
241.051795445
 30
0.0
 10
262.3050788017
 20
241.1438663954
 30
0.0
  0
SPLINE
  5
5A7
100
AcDbEntity
  8
0
100
AcDbSpline
 62
7
  6
BYLAYER
 70
0
 71
3
 72
8
 73
4
 74
0
 42
0.0000001
 43
0.0000001
 44
0.0000000001
 40
0.0
 40
0.0
 40
0.0
 40
0.0
 40
1.0
 40
1.0
 40
1.0
 40
1.0
 10
96.4713393028
 20
586.2815727987
 30
0.0
 10
96.528521723
 20
586.3145879614
 30
0.0
 10
96.5949046935
 20
586.3329895605
 30
0.0
 10
96.660531728
 20
586.3402643446
 30
0.0
  0
SPLINE
  5
5A8
100
AcDbEntity
  8
0
100
AcDbSpline
 62
7
  6
BYLAYER
 70
0
 71
3
 72
9
 73
5
 74
0
 42
0.0000001
 43
0.0000001
 44
0.0000000001
 40
0.0
 40
0.0
 40
0.0
 40
0.0
 40
0.2315100863
 40
1.0
 40
1.0
 40
1.0
 40
1.0
 10
96.660531728
 20
586.3402643446
 30
0.0
 10
96.6975910754
 20
586.3443723887
 30
0.0
 10
96.8592711512
 20
586.347830924
 30
0.0
 10
97.0188666331
 20
586.3073260673
 30
0.0
 10
97.1353222596
 20
586.2654060727
 30
0.0
  0
SPLINE
  5
5A9
100
AcDbEntity
  8
0
100
AcDbSpline
 62
7
  6
BYLAYER
 70
0
 71
3
 72
8
 73
4
 74
0
 42
0.0000001
 43
0.0000001
 44
0.0000000001
 40
0.0
 40
0.0
 40
0.0
 40
0.0
 40
1.0
 40
1.0
 40
1.0
 40
1.0
 10
97.1353222596
 20
586.2654060727
 30
0.0
 10
97.2921354154
 20
586.2089587644
 30
0.0
 10
97.4403473712
 20
586.1298698803
 30
0.0
 10
97.5859109514
 20
586.048703948
 30
0.0
  0
SPLINE
  5
5AA
100
AcDbEntity
  8
0
100
AcDbSpline
 62
7
  6
BYLAYER
 70
0
 71
3
 72
9
 73
5
 74
0
 42
0.0000001
 43
0.0000001
 44
0.0000000001
 40
0.0
 40
0.0
 40
0.0
 40
0.0
 40
0.7017400182
 40
1.0
 40
1.0
 40
1.0
 40
1.0
 10
98.8693551795
 20
581.8093985453
 30
0.0
 10
98.908945458
 20
581.8322739289
 30
0.0
 10
98.9533658246
 20
581.893454805
 30
0.0
 10
98.9550625967
 20
581.9587744436
 30
0.0
 10
98.9562128481
 20
581.9781743571
 30
0.0
  0
SPLINE
  5
5AB
100
AcDbEntity
  8
0
100
AcDbSpline
 62
7
  6
BYLAYER
 70
0
 71
3
 72
9
 73
5
 74
0
 42
0.0000001
 43
0.0000001
 44
0.0000000001
 40
0.0
 40
0.0
 40
0.0
 40
0.0
 40
0.4712923814
 40
1.0
 40
1.0
 40
1.0
 40
1.0
 10
259.7676923904
 20
241.7013037864
 30
0.0
 10
259.7628917718
 20
241.9208707893
 30
0.0
 10
259.7423857632
 20
242.3900678685
 30
0.0
 10
259.5786303338
 20
242.835195209
 30
0.0
 10
259.4694958645
 20
243.0560800903
 30
0.0
  0
SPLINE
  5
5AC
100
AcDbEntity
  8
0
100
AcDbSpline
 62
7
  6
BYLAYER
 70
0
 71
3
 72
9
 73
5
 74
0
 42
0.0000001
 43
0.0000001
 44
0.0000000001
 40
0.0
 40
0.0
 40
0.0
 40
0.0
 40
0.5262117166
 40
1.0
 40
1.0
 40
1.0
 40
1.0
 10
259.3702630386
 20
243.2409589087
 30
0.0
 10
259.2479348289
 20
243.4515309577
 30
0.0
 10
258.9708879664
 20
243.8328756658
 30
0.0
 10
258.5905500454
 20
244.1037653377
 30
0.0
 10
258.4090773706
 20
244.2268289844
 30
0.0
  0
SPLINE
  5
5AD
100
AcDbEntity
  8
0
100
AcDbSpline
 62
7
  6
BYLAYER
 70
0
 71
3
 72
9
 73
5
 74
0
 42
0.0000001
 43
0.0000001
 44
0.0000000001
 40
0.0
 40
0.0
 40
0.0
 40
0.0
 40
0.4442788309
 40
1.0
 40
1.0
 40
1.0
 40
1.0
 10
259.7213129992
 20
241.3123029138
 30
0.0
 10
259.5422858461
 20
241.2748255131
 30
0.0
 10
259.118139984
 20
241.2212881384
 30
0.0
 10
258.7352090009
 20
241.4348195336
 30
0.0
 10
258.5528936853
 20
241.5730409849
 30
0.0
  0
SPLINE
  5
5AE
100
AcDbEntity
  8
0
100
AcDbSpline
 62
7
  6
BYLAYER
 70
0
 71
3
 72
10
 73
6
 74
0
 42
0.0000001
 43
0.0000001
 44
0.0000000001
 40
0.0
 40
0.0
 40
0.0
 40
0.0
 40
0.5025341434
 40
0.7625251363
 40
1.0
 40
1.0
 40
1.0
 40
1.0
 10
258.5528936853
 20
241.5730409849
 30
0.0
 10
258.3614618551
 20
241.7181740763
 30
0.0
 10
258.1078750291
 20
241.9974787281
 30
0.0
 10
257.9196164602
 20
242.4428042954
 30
0.0
 10
257.8901754193
 20
242.6803828289
 30
0.0
 10
257.8766178571
 20
242.7930914777
 30
0.0
  0
SPLINE
  5
5AF
100
AcDbEntity
  8
0
100
AcDbSpline
 62
7
  6
BYLAYER
 70
0
 71
3
 72
9
 73
5
 74
0
 42
0.0000001
 43
0.0000001
 44
0.0000000001
 40
0.0
 40
0.0
 40
0.0
 40
0.0
 40
0.5510403868
 40
1.0
 40
1.0
 40
1.0
 40
1.0
 10
258.4090773706
 20
244.2268289844
 30
0.0
 10
258.2365648408
 20
244.3119116374
 30
0.0
 10
257.9208764669
 20
244.4779872678
 30
0.0
 10
257.5410725053
 20
244.4320680202
 30
0.0
 10
257.4053494201
 20
244.3537086586
 30
0.0
  0
SPLINE
  5
5B0
100
AcDbEntity
  8
0
100
AcDbSpline
 62
7
  6
BYLAYER
 70
0
 71
3
 72
9
 73
5
 74
0
 42
0.0000001
 43
0.0000001
 44
0.0000000001
 40
0.0
 40
0.0
 40
0.0
 40
0.0
 40
0.2853213883
 40
1.0
 40
1.0
 40
1.0
 40
1.0
 10
257.8943263534
 20
243.2869752226
 30
0.0
 10
257.9004727921
 20
243.327833321
 30
0.0
 10
257.9189936286
 20
243.4681023339
 30
0.0
 10
257.9824020238
 20
243.6251603458
 30
0.0
 10
258.0720292263
 20
243.6769088901
 30
0.0
  0
SPLINE
  5
5B1
100
AcDbEntity
  8
0
100
AcDbSpline
 62
7
  6
BYLAYER
 70
0
 71
3
 72
8
 73
4
 74
0
 42
0.0000001
 43
0.0000001
 44
0.0000000001
 40
0.0
 40
0.0
 40
0.0
 40
0.0
 40
1.0
 40
1.0
 40
1.0
 40
1.0
 10
100.4580617982
 20
583.4980264767
 30
0.0
 10
100.4331795657
 20
583.4836606582
 30
0.0
 10
100.4100059937
 20
583.4659388215
 30
0.0
 10
100.3894125233
 20
583.4459035722
 30
0.0
  0
SPLINE
  5
5B2
100
AcDbEntity
  8
0
100
AcDbSpline
 62
7
  6
BYLAYER
 70
0
 71
3
 72
9
 73
5
 74
0
 42
0.0000001
 43
0.0000001
 44
0.0000000001
 40
0.0
 40
0.0
 40
0.0
 40
0.0
 40
0.2191043144
 40
1.0
 40
1.0
 40
1.0
 40
1.0
 10
100.3894125233
 20
583.4459035722
 30
0.0
 10
100.3526367818
 20
583.4101246999
 30
0.0
 10
100.2219513454
 20
583.2089325862
 30
0.0
 10
100.2132182396
 20
582.9615878516
 30
0.0
 10
100.2102271625
 20
582.7787462501
 30
0.0
  0
SPLINE
  5
5B3
100
AcDbEntity
  8
0
100
AcDbSpline
 62
7
  6
BYLAYER
 70
0
 71
3
 72
9
 73
5
 74
0
 42
0.0000001
 43
0.0000001
 44
0.0000000001
 40
0.0
 40
0.0
 40
0.0
 40
0.0
 40
0.4453323494
 40
1.0
 40
1.0
 40
1.0
 40
1.0
 10
102.0249703227
 20
578.9085952981
 30
0.0
 10
102.1749264214
 20
578.9951592703
 30
0.0
 10
102.3593919077
 20
579.394211733
 30
0.0
 10
102.364087148
 20
579.775231193
 30
0.0
 10
102.366912413
 20
579.9908706569
 30
0.0
  0
SPLINE
  5
5B4
100
AcDbEntity
  8
0
100
AcDbSpline
 62
7
  6
BYLAYER
 70
0
 71
3
 72
8
 73
4
 74
0
 42
0.0000001
 43
0.0000001
 44
0.0000000001
 40
0.0
 40
0.0
 40
0.0
 40
0.0
 40
1.0
 40
1.0
 40
1.0
 40
1.0
 10
99.6538149862
 20
581.1364139207
 30
0.0
 10
99.6711652247
 20
581.1464308345
 30
0.0
 10
99.6909676618
 20
581.1527841183
 30
0.0
 10
99.7108239527
 20
581.1554481473
 30
0.0
  0
SPLINE
  5
5B5
100
AcDbEntity
  8
0
100
AcDbSpline
 62
7
  6
BYLAYER
 70
0
 71
3
 72
8
 73
4
 74
0
 42
0.0000001
 43
0.0000001
 44
0.0000000001
 40
0.0
 40
0.0
 40
0.0
 40
0.0
 40
1.0
 40
1.0
 40
1.0
 40
1.0
 10
99.7108239527
 20
581.1554481473
 30
0.0
 10
99.7672278556
 20
581.1630156048
 30
0.0
 10
99.8258722558
 20
581.1397711699
 30
0.0
 10
99.8762835462
 20
581.1133634345
 30
0.0
  0
SPLINE
  5
5B6
100
AcDbEntity
  8
0
100
AcDbSpline
 62
7
  6
BYLAYER
 70
0
 71
3
 72
9
 73
5
 74
0
 42
0.0000001
 43
0.0000001
 44
0.0000000001
 40
0.0
 40
0.0
 40
0.0
 40
0.0
 40
0.2090171991
 40
1.0
 40
1.0
 40
1.0
 40
1.0
 10
101.4192390601
 20
579.6762907353
 30
0.0
 10
101.3810217343
 20
579.6542340581
 30
0.0
 10
101.1637985731
 20
579.6109452785
 30
0.0
 10
100.9654411814
 20
579.731610066
 30
0.0
 10
100.8198336752
 20
579.8133541915
 30
0.0
  0
SPLINE
  5
5B7
100
AcDbEntity
  8
0
100
AcDbSpline
 62
7
  6
BYLAYER
 70
0
 71
3
 72
9
 73
5
 74
0
 42
0.0000001
 43
0.0000001
 44
0.0000000001
 40
0.0
 40
0.0
 40
0.0
 40
0.0
 40
0.3129574854
 40
1.0
 40
1.0
 40
1.0
 40
1.0
 10
262.25218221
 20
237.4020990506
 30
0.0
 10
262.1726640796
 20
237.4802414158
 30
0.0
 10
261.9406173216
 20
237.7215541588
 30
0.0
 10
261.5170422676
 20
237.9637112332
 30
0.0
 10
261.3050784752
 20
237.8413433004
 30
0.0
  0
SPLINE
  5
5B8
100
AcDbEntity
  8
0
100
AcDbSpline
 62
7
  6
BYLAYER
 70
0
 71
3
 72
9
 73
5
 74
0
 42
0.0000001
 43
0.0000001
 44
0.0000000001
 40
0.0
 40
0.0
 40
0.0
 40
0.0
 40
0.4559844283
 40
1.0
 40
1.0
 40
1.0
 40
1.0
 10
262.2850694152
 20
236.1441259322
 30
0.0
 10
262.1901042914
 20
236.1559999911
 30
0.0
 10
261.9794558657
 20
236.1876966575
 30
0.0
 10
261.7984198119
 20
236.3086975513
 30
0.0
 10
261.714092055
 20
236.3856790038
 30
0.0
  0
SPLINE
  5
5B9
100
AcDbEntity
  8
0
100
AcDbSpline
 62
7
  6
BYLAYER
 70
0
 71
3
 72
9
 73
5
 74
0
 42
0.0000001
 43
0.0000001
 44
0.0000000001
 40
0.0
 40
0.0
 40
0.0
 40
0.0
 40
0.5851188038
 40
1.0
 40
1.0
 40
1.0
 40
1.0
 10
261.5086759846
 20
236.6453672296
 30
0.0
 10
261.4250269786
 20
236.7958074912
 30
0.0
 10
261.3426200546
 20
237.0765558564
 30
0.0
 10
261.422617752
 20
237.4221032998
 30
0.0
 10
261.5283163235
 20
237.4831299992
 30
0.0
  0
SPLINE
  5
5BA
100
AcDbEntity
  8
0
100
AcDbSpline
 62
7
  6
BYLAYER
 70
0
 71
3
 72
11
 73
7
 74
0
 42
0.0000001
 43
0.0000001
 44
0.0000000001
 40
0.0
 40
0.0
 40
0.0
 40
0.0
 40
0.2375797407
 40
0.4999990468
 40
0.7624188832
 40
1.0
 40
1.0
 40
1.0
 40
1.0
 10
464.101211039
 20
407.2319449855
 30
0.0
 10
464.6019548351
 20
406.9427721814
 30
0.0
 10
465.5435724378
 20
406.1413376346
 30
0.0
 10
466.6552718766
 20
404.6384395794
 30
0.0
 10
467.4009770042
 20
402.9242299456
 30
0.0
 10
467.6242377989
 20
401.7080448684
 30
0.0
 10
467.6243013748
 20
401.1297982691
 30
0.0
  0
SPLINE
  5
5BB
100
AcDbEntity
  8
0
100
AcDbSpline
 62
7
  6
BYLAYER
 70
0
 71
3
 72
9
 73
5
 74
0
 42
0.0000001
 43
0.0000001
 44
0.0000000001
 40
0.0
 40
0.0
 40
0.0
 40
0.0
 40
0.506317091
 40
1.0
 40
1.0
 40
1.0
 40
1.0
 10
263.6647628466
 20
235.5616513252
 30
0.0
 10
263.6690389694
 20
235.4773123364
 30
0.0
 10
263.7108338854
 20
235.3071401828
 30
0.0
 10
263.8449359967
 20
235.188683166
 30
0.0
 10
263.9197080388
 20
235.1542007976
 30
0.0
  0
SPLINE
  5
5BC
100
AcDbEntity
  8
0
100
AcDbSpline
 62
7
  6
BYLAYER
 70
0
 71
3
 72
9
 73
5
 74
0
 42
0.0000001
 43
0.0000001
 44
0.0000000001
 40
0.0
 40
0.0
 40
0.0
 40
0.0
 40
0.2732458687
 40
1.0
 40
1.0
 40
1.0
 40
1.0
 10
263.9197080388
 20
235.1542007976
 30
0.0
 10
263.9444299499
 20
235.1427998779
 30
0.0
 10
264.0393943956
 20
235.1100485563
 30
0.0
 10
264.1411014643
 20
235.1097114163
 30
0.0
 10
264.2134852633
 20
235.1115932464
 30
0.0
  0
SPLINE
  5
5BD
100
AcDbEntity
  8
0
100
AcDbSpline
 62
7
  6
BYLAYER
 70
0
 71
3
 72
9
 73
5
 74
0
 42
0.0000001
 43
0.0000001
 44
0.0000000001
 40
0.0
 40
0.0
 40
0.0
 40
0.0
 40
0.4276851467
 40
1.0
 40
1.0
 40
1.0
 40
1.0
 10
264.1427748796
 20
235.070768831
 30
0.0
 10
264.0563662886
 20
235.0685223851
 30
0.0
 10
263.8471450948
 20
235.0696774448
 30
0.0
 10
263.6793573646
 20
235.231083328
 30
0.0
 10
263.6324511392
 20
235.3368139774
 30
0.0
  0
SPLINE
  5
5BE
100
AcDbEntity
  8
0
100
AcDbSpline
 62
7
  6
BYLAYER
 70
0
 71
3
 72
8
 73
4
 74
0
 42
0.0000001
 43
0.0000001
 44
0.0000000001
 40
0.0
 40
0.0
 40
0.0
 40
0.0
 40
1.0
 40
1.0
 40
1.0
 40
1.0
 10
263.6324511392
 20
235.3368139774
 30
0.0
 10
263.6070414926
 20
235.3940894972
 30
0.0
 10
263.5972252937
 20
235.4582484119
 30
0.0
 10
263.5940524629
 20
235.5208269102
 30
0.0
  0
SPLINE
  5
5BF
100
AcDbEntity
  8
0
100
AcDbSpline
 62
7
  6
BYLAYER
 70
0
 71
3
 72
9
 73
5
 74
0
 42
0.0000001
 43
0.0000001
 44
0.0000000001
 40
0.0
 40
0.0
 40
0.0
 40
0.0
 40
0.2322573374
 40
1.0
 40
1.0
 40
1.0
 40
1.0
 10
99.8668660644
 20
584.3371299734
 30
0.0
 10
99.9052279459
 20
584.3592779935
 30
0.0
 10
100.0815430277
 20
584.4370232906
 30
0.0
 10
100.2879800585
 20
584.4161583854
 30
0.0
 10
100.4276662257
 20
584.3722496849
 30
0.0
  0
SPLINE
  5
5C0
100
AcDbEntity
  8
0
100
AcDbSpline
 62
7
  6
BYLAYER
 70
0
 71
3
 72
8
 73
4
 74
0
 42
0.0000001
 43
0.0000001
 44
0.0000000001
 40
0.0
 40
0.0
 40
0.0
 40
0.0
 40
1.0
 40
1.0
 40
1.0
 40
1.0
 10
100.4276662257
 20
584.3722496849
 30
0.0
 10
100.5306426457
 20
584.3398802607
 30
0.0
 10
100.6278072076
 20
584.2900625897
 30
0.0
 10
100.7223292837
 20
584.2379329454
 30
0.0
  0
SPLINE
  5
5C1
100
AcDbEntity
  8
0
100
AcDbSpline
 62
7
  6
BYLAYER
 70
0
 71
3
 72
9
 73
5
 74
0
 42
0.0000001
 43
0.0000001
 44
0.0000000001
 40
0.0
 40
0.0
 40
0.0
 40
0.0
 40
0.3198584972
 40
1.0
 40
1.0
 40
1.0
 40
1.0
 10
267.1426149158
 20
235.3665419113
 30
0.0
 10
267.1466958097
 20
235.34626213
 30
0.0
 10
267.1606185118
 20
235.2833721662
 30
0.0
 10
267.1267611968
 20
235.2105457965
 30
0.0
 10
267.0886696168
 20
235.1885483552
 30
0.0
  0
SPLINE
  5
5C2
100
AcDbEntity
  8
0
100
AcDbSpline
 62
7
  6
BYLAYER
 70
0
 71
3
 72
9
 73
5
 74
0
 42
0.0000001
 43
0.0000001
 44
0.0000000001
 40
0.0
 40
0.0
 40
0.0
 40
0.0
 40
0.4967925968
 40
1.0
 40
1.0
 40
1.0
 40
1.0
 10
101.8384141163
 20
583.4919422614
 30
0.0
 10
101.8451581896
 20
583.4958357995
 30
0.0
 10
101.8593519749
 20
583.5026482911
 30
0.0
 10
101.8744098742
 20
583.5072309939
 30
0.0
 10
101.8821007732
 20
583.5089826854
 30
0.0
  0
SPLINE
  5
5C3
100
AcDbEntity
  8
0
100
AcDbSpline
 62
7
  6
BYLAYER
 70
0
 71
3
 72
9
 73
5
 74
0
 42
0.0000001
 43
0.0000001
 44
0.0000000001
 40
0.0
 40
0.0
 40
0.0
 40
0.0
 40
0.7132312555
 40
1.0
 40
1.0
 40
1.0
 40
1.0
 10
101.8821007732
 20
583.5089826854
 30
0.0
 10
101.9278338358
 20
583.5193989212
 30
0.0
 10
101.9983064969
 20
583.5054571086
 30
0.0
 10
102.0555214362
 20
583.4741254395
 30
0.0
 10
102.0721907004
 20
583.4653055944
 30
0.0
  0
SPLINE
  5
5C4
100
AcDbEntity
  8
0
100
AcDbSpline
 62
7
  6
BYLAYER
 70
0
 71
3
 72
9
 73
5
 74
0
 42
0.0000001
 43
0.0000001
 44
0.0000000001
 40
0.0
 40
0.0
 40
0.0
 40
0.0
 40
0.2133725938
 40
1.0
 40
1.0
 40
1.0
 40
1.0
 10
266.9333655548
 20
235.530053825
 30
0.0
 10
266.9461341433
 20
235.5299775605
 30
0.0
 10
267.0061967698
 20
235.529728978
 30
0.0
 10
267.0632474953
 20
235.4933768673
 30
0.0
 10
267.0939985364
 20
235.4577351131
 30
0.0
  0
SPLINE
  5
5C5
100
AcDbEntity
  8
0
100
AcDbSpline
 62
7
  6
BYLAYER
 70
0
 71
3
 72
8
 73
4
 74
0
 42
0.0000001
 43
0.0000001
 44
0.0000000001
 40
0.0
 40
0.0
 40
0.0
 40
0.0
 40
1.0
 40
1.0
 40
1.0
 40
1.0
 10
267.0939985364
 20
235.4577351131
 30
0.0
 10
267.1165014156
 20
235.4316533267
 30
0.0
 10
267.1320636609
 20
235.3993338337
 30
0.0
 10
267.1426149158
 20
235.3665419113
 30
0.0
  0
SPLINE
  5
5C6
100
AcDbEntity
  8
0
100
AcDbSpline
 62
7
  6
BYLAYER
 70
0
 71
3
 72
9
 73
5
 74
0
 42
0.0000001
 43
0.0000001
 44
0.0000000001
 40
0.0
 40
0.0
 40
0.0
 40
0.0
 40
0.2762381209
 40
1.0
 40
1.0
 40
1.0
 40
1.0
 10
265.9867472255
 20
235.1648989445
 30
0.0
 10
265.9563504916
 20
235.213461153
 30
0.0
 10
265.8471506114
 20
235.3842648575
 30
0.0
 10
265.6972395035
 20
235.5691044233
 30
0.0
 10
265.5506913116
 20
235.6015916819
 30
0.0
  0
SPLINE
  5
5C7
100
AcDbEntity
  8
0
100
AcDbSpline
 62
7
  6
BYLAYER
 70
0
 71
3
 72
8
 73
4
 74
0
 42
0.0000001
 43
0.0000001
 44
0.0000000001
 40
0.0
 40
0.0
 40
0.0
 40
0.0
 40
1.0
 40
1.0
 40
1.0
 40
1.0
 10
265.5506913116
 20
235.6015916819
 30
0.0
 10
265.4945039036
 20
235.6140474811
 30
0.0
 10
265.4304237574
 20
235.6008470978
 30
0.0
 10
265.3805778293
 20
235.5720798385
 30
0.0
  0
SPLINE
  5
5C8
100
AcDbEntity
  8
0
100
AcDbSpline
 62
7
  6
BYLAYER
 70
0
 71
3
 72
9
 73
5
 74
0
 42
0.0000001
 43
0.0000001
 44
0.0000000001
 40
0.0
 40
0.0
 40
0.0
 40
0.0
 40
0.2912083572
 40
1.0
 40
1.0
 40
1.0
 40
1.0
 10
265.1932379913
 20
234.9633972179
 30
0.0
 10
265.1959944837
 20
234.9991585199
 30
0.0
 10
265.2041467618
 20
235.1186103233
 30
0.0
 10
265.2504998437
 20
235.2584905204
 30
0.0
 10
265.3260988879
 20
235.3021492017
 30
0.0
  0
SPLINE
  5
5C9
100
AcDbEntity
  8
0
100
AcDbSpline
 62
7
  6
BYLAYER
 70
0
 71
3
 72
8
 73
4
 74
0
 42
0.0000001
 43
0.0000001
 44
0.0000000001
 40
0.0
 40
0.0
 40
0.0
 40
0.0
 40
1.0
 40
1.0
 40
1.0
 40
1.0
 10
104.0999467406
 20
581.4675744043
 30
0.0
 10
104.0476364861
 20
581.4373762568
 30
0.0
 10
104.0051893641
 20
581.3888738808
 30
0.0
 10
103.9744073384
 20
581.3369050658
 30
0.0
  0
SPLINE
  5
5CA
100
AcDbEntity
  8
0
100
AcDbSpline
 62
7
  6
BYLAYER
 70
0
 71
3
 72
9
 73
5
 74
0
 42
0.0000001
 43
0.0000001
 44
0.0000000001
 40
0.0
 40
0.0
 40
0.0
 40
0.0
 40
0.7291480074
 40
1.0
 40
1.0
 40
1.0
 40
1.0
 10
103.9744073384
 20
581.3369050658
 30
0.0
 10
103.9247476643
 20
581.2530654109
 30
0.0
 10
103.8908349256
 20
581.119176514
 30
0.0
 10
103.8737817876
 20
580.9871831267
 30
0.0
 10
103.8695199894
 20
580.9512382985
 30
0.0
  0
SPLINE
  5
5CB
100
AcDbEntity
  8
0
100
AcDbSpline
 62
7
  6
BYLAYER
 70
0
 71
3
 72
9
 73
5
 74
0
 42
0.0000001
 43
0.0000001
 44
0.0000000001
 40
0.0
 40
0.0
 40
0.0
 40
0.0
 40
0.2367802661
 40
1.0
 40
1.0
 40
1.0
 40
1.0
 10
105.6580568941
 20
578.2107920789
 30
0.0
 10
105.6875778543
 20
578.2278359434
 30
0.0
 10
105.8065358268
 20
578.3104737607
 30
0.0
 10
105.8712457824
 20
578.4612510247
 30
0.0
 10
105.8770492829
 20
578.5709738158
 30
0.0
  0
SPLINE
  5
5CC
100
AcDbEntity
  8
0
100
AcDbSpline
 62
7
  6
BYLAYER
 70
0
 71
3
 72
9
 73
5
 74
0
 42
0.0000001
 43
0.0000001
 44
0.0000000001
 40
0.0
 40
0.0
 40
0.0
 40
0.0
 40
0.7858683925
 40
1.0
 40
1.0
 40
1.0
 40
1.0
 10
267.0719045321
 20
235.3257174959
 30
0.0
 10
267.0541284087
 20
235.3809633663
 30
0.0
 10
267.0072398857
 20
235.4493112563
 30
0.0
 10
266.9387381945
 20
235.4793577439
 30
0.0
 10
266.9234183648
 20
235.483277452
 30
0.0
  0
SPLINE
  5
5CD
100
AcDbEntity
  8
0
100
AcDbSpline
 62
7
  6
BYLAYER
 70
0
 71
3
 72
8
 73
4
 74
0
 42
0.0000001
 43
0.0000001
 44
0.0000000001
 40
0.0
 40
0.0
 40
0.0
 40
0.0
 40
1.0
 40
1.0
 40
1.0
 40
1.0
 10
266.9234183648
 20
235.483277452
 30
0.0
 10
266.9037021472
 20
235.4883220133
 30
0.0
 10
266.883006143
 20
235.4891078569
 30
0.0
 10
266.8626551711
 20
235.4892294096
 30
0.0
  0
SPLINE
  5
5CE
100
AcDbEntity
  8
0
100
AcDbSpline
 62
7
  6
BYLAYER
 70
0
 71
3
 72
9
 73
5
 74
0
 42
0.0000001
 43
0.0000001
 44
0.0000000001
 40
0.0
 40
0.0
 40
0.0
 40
0.0
 40
0.2288496245
 40
1.0
 40
1.0
 40
1.0
 40
1.0
 10
103.5423500008
 20
582.170572427
 30
0.0
 10
103.5800034387
 20
582.1923115233
 30
0.0
 10
103.7569789348
 20
582.266959451
 30
0.0
 10
103.9596896195
 20
582.2501226961
 30
0.0
 10
104.1018201877
 20
582.2145757552
 30
0.0
  0
SPLINE
  5
5CF
100
AcDbEntity
  8
0
100
AcDbSpline
 62
7
  6
BYLAYER
 70
0
 71
3
 72
9
 73
5
 74
0
 42
0.0000001
 43
0.0000001
 44
0.0000000001
 40
0.0
 40
0.0
 40
0.0
 40
0.0
 40
0.7375589846
 40
1.0
 40
1.0
 40
1.0
 40
1.0
 10
104.1018201877
 20
582.2145757552
 30
0.0
 10
104.2274647885
 20
582.1831519647
 30
0.0
 10
104.3910589821
 20
582.1137142167
 30
0.0
 10
104.5451641562
 20
582.0299443742
 30
0.0
 10
104.5854685868
 20
582.0075988858
 30
0.0
  0
SPLINE
  5
5D0
100
AcDbEntity
  8
0
100
AcDbSpline
 62
7
  6
BYLAYER
 70
0
 71
3
 72
9
 73
5
 74
0
 42
0.0000001
 43
0.0000001
 44
0.0000000001
 40
0.0
 40
0.0
 40
0.0
 40
0.0
 40
0.7074802249
 40
1.0
 40
1.0
 40
1.0
 40
1.0
 10
92.0644722604
 20
585.7152132276
 30
0.0
 10
92.1429936052
 20
585.760544126
 30
0.0
 10
92.1806821414
 20
585.9131114278
 30
0.0
 10
92.1835399988
 20
586.0368263701
 30
0.0
 10
92.1845323702
 20
586.074301022
 30
0.0
  0
SPLINE
  5
5D1
100
AcDbEntity
  8
0
100
AcDbSpline
 62
7
  6
BYLAYER
 70
0
 71
3
 72
9
 73
5
 74
0
 42
0.0000001
 43
0.0000001
 44
0.0000000001
 40
0.0
 40
0.0
 40
0.0
 40
0.0
 40
0.3129471121
 40
1.0
 40
1.0
 40
1.0
 40
1.0
 10
269.004901217
 20
233.5035031121
 30
0.0
 10
268.9252263533
 20
233.5817519837
 30
0.0
 10
268.6927011629
 20
233.8234313696
 30
0.0
 10
268.2683627965
 20
234.0657227489
 30
0.0
 10
268.0560298105
 20
233.9431520031
 30
0.0
  0
SPLINE
  5
5D2
100
AcDbEntity
  8
0
100
AcDbSpline
 62
7
  6
BYLAYER
 70
0
 71
3
 72
9
 73
5
 74
0
 42
0.0000001
 43
0.0000001
 44
0.0000000001
 40
0.0
 40
0.0
 40
0.0
 40
0.0
 40
0.4572330443
 40
1.0
 40
1.0
 40
1.0
 40
1.0
 10
269.0385112177
 20
232.245112697
 30
0.0
 10
268.945538186
 20
232.2569383559
 30
0.0
 10
268.7399829752
 20
232.2874214166
 30
0.0
 10
268.5617575408
 20
232.4028402477
 30
0.0
 10
268.4784952508
 20
232.4766302565
 30
0.0
  0
SPLINE
  5
5D3
100
AcDbEntity
  8
0
100
AcDbSpline
 62
7
  6
BYLAYER
 70
0
 71
3
 72
8
 73
4
 74
0
 42
0.0000001
 43
0.0000001
 44
0.0000000001
 40
0.0
 40
0.0
 40
0.0
 40
0.0
 40
1.0
 40
1.0
 40
1.0
 40
1.0
 10
268.4784952508
 20
232.4766302565
 30
0.0
 10
268.3993332097
 20
232.5467864787
 30
0.0
 10
268.3304805035
 20
232.6303905806
 30
0.0
 10
268.276463357
 20
232.7213338164
 30
0.0
  0
SPLINE
  5
5D4
100
AcDbEntity
  8
0
100
AcDbSpline
 62
7
  6
BYLAYER
 70
0
 71
3
 72
9
 73
5
 74
0
 42
0.0000001
 43
0.0000001
 44
0.0000000001
 40
0.0
 40
0.0
 40
0.0
 40
0.0
 40
0.5855813576
 40
1.0
 40
1.0
 40
1.0
 40
1.0
 10
268.276463357
 20
232.7213338164
 30
0.0
 10
268.185669392
 20
232.8741944817
 30
0.0
 10
268.0952585696
 20
233.1623850017
 30
0.0
 10
268.172700846
 20
233.5221211405
 30
0.0
 10
268.2816648528
 20
233.5850381186
 30
0.0
  0
SPLINE
  5
5D5
100
AcDbEntity
  8
0
100
AcDbSpline
 62
7
  6
BYLAYER
 70
0
 71
3
 72
9
 73
5
 74
0
 42
0.0000001
 43
0.0000001
 44
0.0000000001
 40
0.0
 40
0.0
 40
0.0
 40
0.0
 40
0.5658162352
 40
1.0
 40
1.0
 40
1.0
 40
1.0
 10
261.0240286859
 20
244.0228705862
 30
0.0
 10
261.0440452938
 20
243.91857257
 30
0.0
 10
261.0661432904
 20
243.718046815
 30
0.0
 10
260.9339751263
 20
243.5570187922
 30
0.0
 10
260.8633990651
 20
243.5162710472
 30
0.0
  0
SPLINE
  5
5D6
100
AcDbEntity
  8
0
100
AcDbSpline
 62
7
  6
BYLAYER
 70
0
 71
3
 72
8
 73
4
 74
0
 42
0.0000001
 43
0.0000001
 44
0.0000000001
 40
0.0
 40
0.0
 40
0.0
 40
0.0
 40
1.0
 40
1.0
 40
1.0
 40
1.0
 10
260.4319385264
 20
244.4853081464
 30
0.0
 10
260.5092279624
 20
244.4844938839
 30
0.0
 10
260.5896770018
 20
244.478503664
 30
0.0
 10
260.6608611126
 20
244.4483848607
 30
0.0
  0
SPLINE
  5
5D7
100
AcDbEntity
  8
0
100
AcDbSpline
 62
7
  6
BYLAYER
 70
0
 71
3
 72
9
 73
5
 74
0
 42
0.0000001
 43
0.0000001
 44
0.0000000001
 40
0.0
 40
0.0
 40
0.0
 40
0.0
 40
0.7258840122
 40
1.0
 40
1.0
 40
1.0
 40
1.0
 10
260.6608611126
 20
244.4483848607
 30
0.0
 10
260.7207649585
 20
244.4230388653
 30
0.0
 10
260.7972729842
 20
244.3722667213
 30
0.0
 10
260.8605252961
 20
244.308772638
 30
0.0
 10
260.8769214181
 20
244.290482952
 30
0.0
  0
SPLINE
  5
5D8
100
AcDbEntity
  8
0
100
AcDbSpline
 62
7
  6
BYLAYER
 70
0
 71
3
 72
8
 73
4
 74
0
 42
0.0000001
 43
0.0000001
 44
0.0000000001
 40
0.0
 40
0.0
 40
0.0
 40
0.0
 40
1.0
 40
1.0
 40
1.0
 40
1.0
 10
260.8769214181
 20
244.290482952
 30
0.0
 10
260.9448695344
 20
244.2146876076
 30
0.0
 10
260.9922526143
 20
244.119577163
 30
0.0
 10
261.0240286859
 20
244.0228705862
 30
0.0
  0
SPLINE
  5
5D9
100
AcDbEntity
  8
0
100
AcDbSpline
 62
7
  6
BYLAYER
 70
0
 71
3
 72
9
 73
5
 74
0
 42
0.0000001
 43
0.0000001
 44
0.0000000001
 40
0.0
 40
0.0
 40
0.0
 40
0.0
 40
0.2314643265
 40
1.0
 40
1.0
 40
1.0
 40
1.0
 10
452.9855559424
 20
395.2585115391
 30
0.0
 10
452.981092195
 20
395.3647548912
 30
0.0
 10
452.9256844025
 20
395.8220141821
 30
0.0
 10
452.7512727279
 20
396.2605284777
 30
0.0
 10
452.5747354142
 20
396.5662983772
 30
0.0
  0
SPLINE
  5
5DA
100
AcDbEntity
  8
0
100
AcDbSpline
 62
7
  6
BYLAYER
 70
0
 71
3
 72
9
 73
5
 74
0
 42
0.0000001
 43
0.0000001
 44
0.0000000001
 40
0.0
 40
0.0
 40
0.0
 40
0.0
 40
0.2648430931
 40
1.0
 40
1.0
 40
1.0
 40
1.0
 10
452.5747354142
 20
396.5662983772
 30
0.0
 10
452.5139273138
 20
396.6716205119
 30
0.0
 10
452.2637808876
 20
397.0561532363
 30
0.0
 10
451.9325810675
 20
397.3950509299
 30
0.0
 10
451.6475667404
 20
397.5759634765
 30
0.0
  0
SPLINE
  5
5DB
100
AcDbEntity
  8
0
100
AcDbSpline
 62
7
  6
BYLAYER
 70
0
 71
3
 72
11
 73
7
 74
0
 42
0.0000001
 43
0.0000001
 44
0.0000000001
 40
0.0
 40
0.0
 40
0.0
 40
0.0
 40
0.3056356925
 40
0.5904526104
 40
0.8169190329
 40
1.0
 40
1.0
 40
1.0
 40
1.0
 10
269.7767265792
 20
237.3889955559
 30
0.0
 10
269.7000048943
 20
237.4968212624
 30
0.0
 10
269.5534479821
 20
237.7066888248
 30
0.0
 10
269.3027698059
 20
237.9602343236
 30
0.0
 10
269.013581634
 20
238.0877714186
 30
0.0
 10
268.8285726537
 20
238.0428400629
 30
0.0
 10
268.7599216203
 20
238.0032051028
 30
0.0
  0
SPLINE
  5
5DC
100
AcDbEntity
  8
0
100
AcDbSpline
 62
7
  6
BYLAYER
 70
0
 71
3
 72
9
 73
5
 74
0
 42
0.0000001
 43
0.0000001
 44
0.0000000001
 40
0.0
 40
0.0
 40
0.0
 40
0.0
 40
0.2677273568
 40
1.0
 40
1.0
 40
1.0
 40
1.0
 10
268.3776349983
 20
236.6887328054
 30
0.0
 10
268.3991397422
 20
236.7396707935
 30
0.0
 10
268.4790841055
 20
236.9267200012
 30
0.0
 10
268.5862775194
 20
237.1272854366
 30
0.0
 10
268.717252139
 20
237.2028902168
 30
0.0
  0
SPLINE
  5
5DD
100
AcDbEntity
  8
0
100
AcDbSpline
 62
7
  6
BYLAYER
 70
0
 71
3
 72
8
 73
4
 74
0
 42
0.0000001
 43
0.0000001
 44
0.0000000001
 40
0.0
 40
0.0
 40
0.0
 40
0.0
 40
1.0
 40
1.0
 40
1.0
 40
1.0
 10
91.6114757135
 20
590.5784074822
 30
0.0
 10
91.658671939
 20
590.6057501129
 30
0.0
 10
91.7213512113
 20
590.6001002345
 30
0.0
 10
91.7747632258
 20
590.5890431165
 30
0.0
  0
SPLINE
  5
5DE
100
AcDbEntity
  8
0
100
AcDbSpline
 62
7
  6
BYLAYER
 70
0
 71
3
 72
8
 73
4
 74
0
 42
0.0000001
 43
0.0000001
 44
0.0000000001
 40
0.0
 40
0.0
 40
0.0
 40
0.0
 40
1.0
 40
1.0
 40
1.0
 40
1.0
 10
91.7747632258
 20
590.5890431165
 30
0.0
 10
91.8626863682
 20
590.5708416582
 30
0.0
 10
91.9444149943
 20
590.5280298754
 30
0.0
 10
92.023222376
 20
590.485004666
 30
0.0
  0
SPLINE
  5
5DF
100
AcDbEntity
  8
0
100
AcDbSpline
 62
7
  6
BYLAYER
 70
0
 71
3
 72
11
 73
7
 74
0
 42
0.0000001
 43
0.0000001
 44
0.0000000001
 40
0.0
 40
0.0
 40
0.0
 40
0.0
 40
0.2372523758
 40
0.4999990758
 40
0.7627462798
 40
1.0
 40
1.0
 40
1.0
 40
1.0
 10
463.9812250207
 20
406.8937985752
 30
0.0
 10
464.4463620922
 20
406.625257637
 30
0.0
 10
465.3265929358
 20
405.8845393061
 30
0.0
 10
466.3535499639
 20
404.4805708437
 30
0.0
 10
467.0559518473
 20
402.8892159416
 30
0.0
 10
467.2573251988
 20
401.7565521482
 30
0.0
 10
467.2573251988
 20
401.2194581156
 30
0.0
  0
SPLINE
  5
5E0
100
AcDbEntity
  8
0
100
AcDbSpline
 62
7
  6
BYLAYER
 70
0
 71
3
 72
10
 73
6
 74
0
 42
0.0000001
 43
0.0000001
 44
0.0000000001
 40
0.0
 40
0.0
 40
0.0
 40
0.0
 40
0.5656648658
 40
0.8010350349
 40
1.0
 40
1.0
 40
1.0
 40
1.0
 10
260.9533183022
 20
243.9820461708
 30
0.0
 10
260.9061728444
 20
244.1255275894
 30
0.0
 10
260.7784963209
 20
244.3202127009
 30
0.0
 10
260.532130922
 20
244.4407391406
 30
0.0
 10
260.4143474314
 20
244.4439241068
 30
0.0
 10
260.3612281427
 20
244.444483731
 30
0.0
  0
SPLINE
  5
5E1
100
AcDbEntity
  8
0
100
AcDbSpline
 62
7
  6
BYLAYER
 70
0
 71
3
 72
9
 73
5
 74
0
 42
0.0000001
 43
0.0000001
 44
0.0000000001
 40
0.0
 40
0.0
 40
0.0
 40
0.0
 40
0.7082502167
 40
1.0
 40
1.0
 40
1.0
 40
1.0
 10
95.248016419
 20
583.8783395078
 30
0.0
 10
95.3258865607
 20
583.9232983271
 30
0.0
 10
95.3623034358
 20
584.0748291335
 30
0.0
 10
95.3655093151
 20
584.1973215587
 30
0.0
 10
95.3665261335
 20
584.2343471147
 30
0.0
  0
SPLINE
  5
5E2
100
AcDbEntity
  8
0
100
AcDbSpline
 62
7
  6
BYLAYER
 70
0
 71
3
 72
10
 73
6
 74
0
 42
0.0000001
 43
0.0000001
 44
0.0000000001
 40
0.0
 40
0.0
 40
0.0
 40
0.0
 40
0.2308374404
 40
0.4839332639
 40
1.0
 40
1.0
 40
1.0
 40
1.0
 10
255.8027933423
 20
245.8138773911
 30
0.0
 10
255.8997315157
 20
245.7496400741
 30
0.0
 10
256.1027069131
 20
245.6121482477
 30
0.0
 10
256.4448524924
 20
245.2381626084
 30
0.0
 10
256.6261782224
 20
244.8819830897
 30
0.0
 10
256.693679811
 20
244.6309170336
 30
0.0
  0
SPLINE
  5
5E3
100
AcDbEntity
  8
0
100
AcDbSpline
 62
7
  6
BYLAYER
 70
0
 71
3
 72
8
 73
4
 74
0
 42
0.0000001
 43
0.0000001
 44
0.0000000001
 40
0.0
 40
0.0
 40
0.0
 40
0.0
 40
1.0
 40
1.0
 40
1.0
 40
1.0
 10
256.693679811
 20
244.6309170336
 30
0.0
 10
256.7332021262
 20
244.4839173553
 30
0.0
 10
256.7506767445
 20
244.3309091945
 30
0.0
 10
256.7586028815
 20
244.1788957243
 30
0.0
  0
SPLINE
  5
5E4
100
AcDbEntity
  8
0
100
AcDbSpline
 62
7
  6
BYLAYER
 70
0
 71
3
 72
9
 73
5
 74
0
 42
0.0000001
 43
0.0000001
 44
0.0000000001
 40
0.0
 40
0.0
 40
0.0
 40
0.0
 40
0.4999990372
 40
1.0
 40
1.0
 40
1.0
 40
1.0
 10
276.8462347378
 20
238.2779321778
 30
0.0
 10
277.685716009
 20
237.7932007353
 30
0.0
 10
279.0119860135
 20
236.2623465349
 30
0.0
 10
279.6746150356
 20
234.348341052
 30
0.0
 10
279.6746736384
 20
233.3789594912
 30
0.0
  0
SPLINE
  5
5E5
100
AcDbEntity
  8
0
100
AcDbSpline
 62
7
  6
BYLAYER
 70
0
 71
3
 72
9
 73
5
 74
0
 42
0.0000001
 43
0.0000001
 44
0.0000000001
 40
0.0
 40
0.0
 40
0.0
 40
0.0
 40
0.5543875082
 40
1.0
 40
1.0
 40
1.0
 40
1.0
 10
255.7320829586
 20
245.7730529757
 30
0.0
 10
255.5961708829
 20
245.8423435269
 30
0.0
 10
255.332579169
 20
245.9749587337
 30
0.0
 10
255.0509384659
 20
245.8790476706
 30
0.0
 10
254.9447451291
 20
245.8177335224
 30
0.0
  0
SPLINE
  5
5E6
100
AcDbEntity
  8
0
100
AcDbSpline
 62
7
  6
BYLAYER
 70
0
 71
3
 72
11
 73
7
 74
0
 42
0.0000001
 43
0.0000001
 44
0.0000000001
 40
0.0
 40
0.0
 40
0.0
 40
0.0
 40
0.2350863528
 40
0.4947228304
 40
0.7604703036
 40
1.0
 40
1.0
 40
1.0
 40
1.0
 10
256.6918352074
 20
244.0531341045
 30
0.0
 10
256.6849427616
 20
244.2139916662
 30
0.0
 10
256.6595790946
 20
244.5552414495
 30
0.0
 10
256.4605109563
 20
245.0441020435
 30
0.0
 10
256.151640743
 20
245.4764474146
 30
0.0
 10
255.8688315749
 20
245.682434761
 30
0.0
 10
255.7320829586
 20
245.7730529757
 30
0.0
  0
SPLINE
  5
5E7
100
AcDbEntity
  8
0
100
AcDbSpline
 62
7
  6
BYLAYER
 70
0
 71
3
 72
8
 73
4
 74
0
 42
0.0000001
 43
0.0000001
 44
0.0000000001
 40
0.0
 40
0.0
 40
0.0
 40
0.0
 40
1.0
 40
1.0
 40
1.0
 40
1.0
 10
254.8741244403
 20
245.1288565398
 30
0.0
 10
254.9381988866
 20
245.1983363281
 30
0.0
 10
255.0038151915
 20
245.2704022478
 30
0.0
 10
255.0856672955
 20
245.3176590856
 30
0.0
  0
SPLINE
  5
5E8
100
AcDbEntity
  8
0
100
AcDbSpline
 62
7
  6
BYLAYER
 70
0
 71
3
 72
9
 73
5
 74
0
 42
0.0000001
 43
0.0000001
 44
0.0000000001
 40
0.0
 40
0.0
 40
0.0
 40
0.0
 40
0.4578516426
 40
1.0
 40
1.0
 40
1.0
 40
1.0
 10
93.7383954329
 20
584.7825969678
 30
0.0
 10
93.8136346015
 20
584.8260363973
 30
0.0
 10
93.8980138997
 20
585.0199615968
 30
0.0
 10
93.9384668521
 20
585.1981036391
 30
0.0
 10
93.9636314849
 20
585.2978526435
 30
0.0
  0
SPLINE
  5
5E9
100
AcDbEntity
  8
0
100
AcDbSpline
 62
7
  6
BYLAYER
 70
0
 71
3
 72
9
 73
5
 74
0
 42
0.0000001
 43
0.0000001
 44
0.0000000001
 40
0.0
 40
0.0
 40
0.0
 40
0.0
 40
0.2354342726
 40
1.0
 40
1.0
 40
1.0
 40
1.0
 10
245.4530175762
 20
252.7773985275
 30
0.0
 10
245.4893508588
 20
252.7983752377
 30
0.0
 10
245.6554756998
 20
252.8683785289
 30
0.0
 10
245.8441694073
 20
252.8545724952
 30
0.0
 10
245.9775568751
 20
252.8268196606
 30
0.0
  0
SPLINE
  5
5EA
100
AcDbEntity
  8
0
100
AcDbSpline
 62
7
  6
BYLAYER
 70
0
 71
3
 72
9
 73
5
 74
0
 42
0.0000001
 43
0.0000001
 44
0.0000000001
 40
0.0
 40
0.0
 40
0.0
 40
0.0
 40
0.4681894972
 40
1.0
 40
1.0
 40
1.0
 40
1.0
 10
245.9775568751
 20
252.8268196606
 30
0.0
 10
246.2004236348
 20
252.7804496047
 30
0.0
 10
246.6521329363
 20
252.5767140327
 30
0.0
 10
247.0479761158
 20
252.292285452
 30
0.0
 10
247.2450997035
 20
252.1249467691
 30
0.0
  0
SPLINE
  5
5EB
100
AcDbEntity
  8
0
100
AcDbSpline
 62
7
  6
BYLAYER
 70
0
 71
3
 72
8
 73
4
 74
0
 42
0.0000001
 43
0.0000001
 44
0.0000000001
 40
0.0
 40
0.0
 40
0.0
 40
0.0
 40
1.0
 40
1.0
 40
1.0
 40
1.0
 10
247.2450997035
 20
252.1249467691
 30
0.0
 10
247.4975444786
 20
251.9106457984
 30
0.0
 10
247.7309889737
 20
251.6746976146
 30
0.0
 10
247.9653988928
 20
251.4408060577
 30
0.0
  0
SPLINE
  5
5EC
100
AcDbEntity
  8
0
100
AcDbSpline
 62
7
  6
BYLAYER
 70
0
 71
3
 72
12
 73
8
 74
0
 42
0.0000001
 43
0.0000001
 44
0.0000000001
 40
0.0
 40
0.0
 40
0.0
 40
0.0
 40
0.0903872314
 40
0.1992663551
 40
0.446702363
 40
0.7189264823
 40
1.0
 40
1.0
 40
1.0
 40
1.0
 10
246.9872259057
 20
248.6531596293
 30
0.0
 10
246.9240179039
 20
248.6166665731
 30
0.0
 10
246.7434564932
 20
248.6431612895
 30
0.0
 10
246.4267757398
 20
248.7983832531
 30
0.0
 10
246.0094492031
 20
249.1040074469
 30
0.0
 10
245.5740257223
 20
249.5826472267
 30
0.0
 10
245.3033801043
 20
249.9385995055
 30
0.0
 10
245.166134669
 20
250.1193635388
 30
0.0
  0
SPLINE
  5
5ED
100
AcDbEntity
  8
0
100
AcDbSpline
 62
7
  6
BYLAYER
 70
0
 71
3
 72
9
 73
5
 74
0
 42
0.0000001
 43
0.0000001
 44
0.0000000001
 40
0.0
 40
0.0
 40
0.0
 40
0.0
 40
0.7271885917
 40
1.0
 40
1.0
 40
1.0
 40
1.0
 10
247.7591668267
 20
247.6876944059
 30
0.0
 10
247.8573868811
 20
247.7444014574
 30
0.0
 10
247.9661656438
 20
247.8737814672
 30
0.0
 10
248.0177098599
 20
248.0207968649
 30
0.0
 10
248.0291827493
 20
248.061769402
 30
0.0
  0
SPLINE
  5
5EE
100
AcDbEntity
  8
0
100
AcDbSpline
 62
7
  6
BYLAYER
 70
0
 71
3
 72
9
 73
5
 74
0
 42
0.0000001
 43
0.0000001
 44
0.0000000001
 40
0.0
 40
0.0
 40
0.0
 40
0.0
 40
0.2170167697
 40
1.0
 40
1.0
 40
1.0
 40
1.0
 10
248.0291827493
 20
248.061769402
 30
0.0
 10
248.0508815493
 20
248.1392612053
 30
0.0
 10
248.1048726596
 20
248.5084117893
 30
0.0
 10
248.0253441826
 20
248.8893741412
 30
0.0
 10
247.9132326398
 20
249.1571952754
 30
0.0
  0
SPLINE
  5
5EF
100
AcDbEntity
  8
0
100
AcDbSpline
 62
7
  6
BYLAYER
 70
0
 71
3
 72
8
 73
4
 74
0
 42
0.0000001
 43
0.0000001
 44
0.0000000001
 40
0.0
 40
0.0
 40
0.0
 40
0.0
 40
1.0
 40
1.0
 40
1.0
 40
1.0
 10
247.9132326398
 20
249.1571952754
 30
0.0
 10
247.7820665006
 20
249.470535573
 30
0.0
 10
247.5881126127
 20
249.759433381
 30
0.0
 10
247.3678643863
 20
250.0180400648
 30
0.0
  0
SPLINE
  5
5F0
100
AcDbEntity
  8
0
100
AcDbSpline
 62
7
  6
BYLAYER
 70
0
 71
3
 72
12
 73
8
 74
0
 42
0.0000001
 43
0.0000001
 44
0.0000000001
 40
0.0
 40
0.0
 40
0.0
 40
0.0
 40
0.2597945972
 40
0.5170647537
 40
0.6526362833
 40
0.7944051143
 40
1.0
 40
1.0
 40
1.0
 40
1.0
 10
247.3678643863
 20
250.0180400648
 30
0.0
 10
247.2442621103
 20
250.1631689281
 30
0.0
 10
246.9784423386
 20
250.4362401885
 30
0.0
 10
246.6323657368
 20
250.761356662
 30
0.0
 10
246.3673301101
 20
251.0632518066
 30
0.0
 10
246.1543487087
 20
251.3016412062
 30
0.0
 10
246.0273423475
 20
251.6809902075
 30
0.0
 10
246.1579911375
 20
251.756419872
 30
0.0
  0
SPLINE
  5
5F1
100
AcDbEntity
  8
0
100
AcDbSpline
 62
7
  6
BYLAYER
 70
0
 71
3
 72
9
 73
5
 74
0
 42
0.0000001
 43
0.0000001
 44
0.0000000001
 40
0.0
 40
0.0
 40
0.0
 40
0.0
 40
0.2355988566
 40
1.0
 40
1.0
 40
1.0
 40
1.0
 10
253.6558522554
 20
245.8082847692
 30
0.0
 10
253.6530098324
 20
245.8662699956
 30
0.0
 10
253.6426471105
 20
246.112229096
 30
0.0
 10
253.5907318745
 20
246.3580947451
 30
0.0
 10
253.522232601
 20
246.5335570227
 30
0.0
  0
SPLINE
  5
5F2
100
AcDbEntity
  8
0
100
AcDbSpline
 62
7
  6
BYLAYER
 70
0
 71
3
 72
11
 73
7
 74
0
 42
0.0000001
 43
0.0000001
 44
0.0000000001
 40
0.0
 40
0.0
 40
0.0
 40
0.0
 40
0.3008912644
 40
0.5824286264
 40
0.8160412052
 40
1.0
 40
1.0
 40
1.0
 40
1.0
 10
253.522232601
 20
246.5335570227
 30
0.0
 10
253.4477619714
 20
246.7243150501
 30
0.0
 10
253.2481744738
 20
247.0763876537
 30
0.0
 10
252.8401496472
 20
247.4576738535
 30
0.0
 10
252.4094116307
 20
247.6955220279
 30
0.0
 10
252.1010325497
 20
247.6543450105
 30
0.0
 10
251.9926048057
 20
247.5917517656
 30
0.0
  0
SPLINE
  5
5F3
100
AcDbEntity
  8
0
100
AcDbSpline
 62
7
  6
BYLAYER
 70
0
 71
3
 72
9
 73
5
 74
0
 42
0.0000001
 43
0.0000001
 44
0.0000000001
 40
0.0
 40
0.0
 40
0.0
 40
0.0
 40
0.7070250014
 40
1.0
 40
1.0
 40
1.0
 40
1.0
 10
107.2313617589
 20
576.961573799
 30
0.0
 10
107.3085711209
 20
577.0061482353
 30
0.0
 10
107.3485911693
 20
577.1548203982
 30
0.0
 10
107.3510912692
 20
577.2767788067
 30
0.0
 10
107.3520359752
 20
577.3137094784
 30
0.0
  0
SPLINE
  5
5F4
100
AcDbEntity
  8
0
100
AcDbSpline
 62
7
  6
BYLAYER
 70
0
 71
3
 72
8
 73
4
 74
0
 42
0.0000001
 43
0.0000001
 44
0.0000000001
 40
0.0
 40
0.0
 40
0.0
 40
0.0
 40
1.0
 40
1.0
 40
1.0
 40
1.0
 10
245.2368450529
 20
250.160187954
 30
0.0
 10
245.3439065262
 20
250.0191787927
 30
0.0
 10
245.4508816391
 20
249.878043091
 30
0.0
 10
245.5618879704
 20
249.7401179771
 30
0.0
  0
SPLINE
  5
5F5
100
AcDbEntity
  8
0
100
AcDbSpline
 62
7
  6
BYLAYER
 70
0
 71
3
 72
9
 73
5
 74
0
 42
0.0000001
 43
0.0000001
 44
0.0000000001
 40
0.0
 40
0.0
 40
0.0
 40
0.0
 40
0.2711742539
 40
1.0
 40
1.0
 40
1.0
 40
1.0
 10
245.662930053
 20
249.6170483402
 30
0.0
 10
245.7443060594
 20
249.5200683118
 30
0.0
 10
246.0530972165
 20
249.1724144033
 30
0.0
 10
246.4240746372
 20
248.8607642961
 30
0.0
 10
246.7369718338
 20
248.7270914306
 30
0.0
  0
SPLINE
  5
5F6
100
AcDbEntity
  8
0
100
AcDbSpline
 62
7
  6
BYLAYER
 70
0
 71
3
 72
9
 73
5
 74
0
 42
0.0000001
 43
0.0000001
 44
0.0000000001
 40
0.0
 40
0.0
 40
0.0
 40
0.0
 40
0.279831269
 40
1.0
 40
1.0
 40
1.0
 40
1.0
 10
246.7369718338
 20
248.7270914306
 30
0.0
 10
246.7649958374
 20
248.7151192912
 30
0.0
 10
246.8643229313
 20
248.6774080011
 30
0.0
 10
246.9900072709
 20
248.6547699639
 30
0.0
 10
247.0579298456
 20
248.6939803245
 30
0.0
  0
SPLINE
  5
5F7
100
AcDbEntity
  8
0
100
AcDbSpline
 62
7
  6
BYLAYER
 70
0
 71
3
 72
9
 73
5
 74
0
 42
0.0000001
 43
0.0000001
 44
0.0000000001
 40
0.0
 40
0.0
 40
0.0
 40
0.0
 40
0.2140454719
 40
1.0
 40
1.0
 40
1.0
 40
1.0
 10
108.769375401
 20
576.07487281
 30
0.0
 10
108.7926765232
 20
576.0883234702
 30
0.0
 10
108.8852102839
 20
576.1810527065
 30
0.0
 10
108.8873181972
 20
576.3212897287
 30
0.0
 10
108.889999628
 20
576.4200447984
 30
0.0
  0
SPLINE
  5
5F8
100
AcDbEntity
  8
0
100
AcDbSpline
 62
7
  6
BYLAYER
 70
0
 71
3
 72
10
 73
6
 74
0
 42
0.0000001
 43
0.0000001
 44
0.0000000001
 40
0.0
 40
0.0
 40
0.0
 40
0.0
 40
0.1758695406
 40
0.5565381558
 40
1.0
 40
1.0
 40
1.0
 40
1.0
 10
246.228721755
 20
251.7972559671
 30
0.0
 10
246.1926893927
 20
251.7764603387
 30
0.0
 10
246.1207267897
 20
251.6459637054
 30
0.0
 10
246.2083708026
 20
251.4038370545
 30
0.0
 10
246.320470341
 20
251.2485634996
 30
0.0
 10
246.3861856465
 20
251.1667947465
 30
0.0
  0
SPLINE
  5
5F9
100
AcDbEntity
  8
0
100
AcDbSpline
 62
7
  6
BYLAYER
 70
0
 71
3
 72
9
 73
5
 74
0
 42
0.0000001
 43
0.0000001
 44
0.0000000001
 40
0.0
 40
0.0
 40
0.0
 40
0.0
 40
0.2630869071
 40
1.0
 40
1.0
 40
1.0
 40
1.0
 10
246.3861856465
 20
251.1667947465
 30
0.0
 10
246.4429173186
 20
251.0962042189
 30
0.0
 10
246.6684727193
 20
250.835723133
 30
0.0
 10
246.9199331289
 20
250.5999211247
 30
0.0
 10
247.099798579
 20
250.421048764
 30
0.0
  0
SPLINE
  5
5FA
100
AcDbEntity
  8
0
100
AcDbSpline
 62
7
  6
BYLAYER
 70
0
 71
3
 72
8
 73
4
 74
0
 42
0.0000001
 43
0.0000001
 44
0.0000000001
 40
0.0
 40
0.0
 40
0.0
 40
0.0
 40
1.0
 40
1.0
 40
1.0
 40
1.0
 10
247.099798579
 20
250.421048764
 30
0.0
 10
247.2598289851
 20
250.2619019321
 30
0.0
 10
247.4144221561
 20
250.0961922684
 30
0.0
 10
247.5533309752
 20
249.9183108896
 30
0.0
  0
SPLINE
  5
5FB
100
AcDbEntity
  8
0
100
AcDbSpline
 62
7
  6
BYLAYER
 70
0
 71
3
 72
8
 73
4
 74
0
 42
0.0000001
 43
0.0000001
 44
0.0000000001
 40
0.0
 40
0.0
 40
0.0
 40
0.0
 40
1.0
 40
1.0
 40
1.0
 40
1.0
 10
247.5533309752
 20
249.9183108896
 30
0.0
 10
247.7344860749
 20
249.6863305219
 30
0.0
 10
247.8918327478
 20
249.4304858586
 30
0.0
 10
248.0006850688
 20
249.1570206261
 30
0.0
  0
SPLINE
  5
5FC
100
AcDbEntity
  8
0
100
AcDbSpline
 62
7
  6
BYLAYER
 70
0
 71
3
 72
9
 73
5
 74
0
 42
0.0000001
 43
0.0000001
 44
0.0000000001
 40
0.0
 40
0.0
 40
0.0
 40
0.0
 40
0.2779105806
 40
1.0
 40
1.0
 40
1.0
 40
1.0
 10
248.0006850688
 20
249.1570206261
 30
0.0
 10
248.0333720144
 20
249.0749025499
 30
0.0
 10
248.1351464229
 20
248.7737537213
 30
0.0
 10
248.1614246934
 20
248.4443177983
 30
0.0
 10
248.1248754678
 20
248.2175973437
 30
0.0
  0
SPLINE
  5
5FD
100
AcDbEntity
  8
0
100
AcDbSpline
 62
7
  6
BYLAYER
 70
0
 71
3
 72
9
 73
5
 74
0
 42
0.0000001
 43
0.0000001
 44
0.0000000001
 40
0.0
 40
0.0
 40
0.0
 40
0.0
 40
0.2812791306
 40
1.0
 40
1.0
 40
1.0
 40
1.0
 10
248.1248754678
 20
248.2175973437
 30
0.0
 10
248.1161969127
 20
248.1637629351
 30
0.0
 10
248.0747347289
 20
247.9752399154
 30
0.0
 10
247.9505502676
 20
247.7981921279
 30
0.0
 10
247.8298855486
 20
247.7285236353
 30
0.0
  0
SPLINE
  5
5FE
100
AcDbEntity
  8
0
100
AcDbSpline
 62
7
  6
BYLAYER
 70
0
 71
3
 72
9
 73
5
 74
0
 42
0.0000001
 43
0.0000001
 44
0.0000000001
 40
0.0
 40
0.0
 40
0.0
 40
0.0
 40
0.4284740558
 40
1.0
 40
1.0
 40
1.0
 40
1.0
 10
249.3745770812
 20
248.502543862
 30
0.0
 10
249.2679068256
 20
248.410596933
 30
0.0
 10
249.1780996011
 20
248.0516616094
 30
0.0
 10
249.2397113774
 20
247.7299723721
 30
0.0
 10
249.3006758751
 20
247.5522938494
 30
0.0
  0
SPLINE
  5
5FF
100
AcDbEntity
  8
0
100
AcDbSpline
 62
7
  6
BYLAYER
 70
0
 71
3
 72
8
 73
4
 74
0
 42
0.0000001
 43
0.0000001
 44
0.0000000001
 40
0.0
 40
0.0
 40
0.0
 40
0.0
 40
1.0
 40
1.0
 40
1.0
 40
1.0
 10
249.3006758751
 20
247.5522938494
 30
0.0
 10
249.3693089817
 20
247.3522654813
 30
0.0
 10
249.4807524366
 20
247.1632519433
 30
0.0
 10
249.6199899465
 20
247.0040829539
 30
0.0
  0
SPLINE
  5
600
100
AcDbEntity
  8
0
100
AcDbSpline
 62
7
  6
BYLAYER
 70
0
 71
3
 72
9
 73
5
 74
0
 42
0.0000001
 43
0.0000001
 44
0.0000000001
 40
0.0
 40
0.0
 40
0.0
 40
0.0
 40
0.5501787971
 40
1.0
 40
1.0
 40
1.0
 40
1.0
 10
249.6199899465
 20
247.0040829539
 30
0.0
 10
249.7736765388
 20
246.8283965344
 30
0.0
 10
250.1350391829
 20
246.5657822444
 30
0.0
 10
250.5592441125
 20
246.4959399432
 30
0.0
 10
250.7481624116
 20
246.4689059641
 30
0.0
  0
SPLINE
  5
601
100
AcDbEntity
  8
0
100
AcDbSpline
 62
7
  6
BYLAYER
 70
0
 71
3
 72
9
 73
5
 74
0
 42
0.0000001
 43
0.0000001
 44
0.0000000001
 40
0.0
 40
0.0
 40
0.0
 40
0.0
 40
0.4999988718
 40
1.0
 40
1.0
 40
1.0
 40
1.0
 10
113.4331772563
 20
582.227159464
 30
0.0
 10
114.0627919831
 20
581.8636087024
 30
0.0
 10
115.0575913296
 20
580.7155286566
 30
0.0
 10
115.5544624786
 20
579.2799709586
 30
0.0
 10
115.5545064318
 20
578.5529299491
 30
0.0
  0
SPLINE
  5
602
100
AcDbEntity
  8
0
100
AcDbSpline
 62
7
  6
BYLAYER
 70
0
 71
3
 72
8
 73
4
 74
0
 42
0.0000001
 43
0.0000001
 44
0.0000000001
 40
0.0
 40
0.0
 40
0.0
 40
0.0
 40
1.0
 40
1.0
 40
1.0
 40
1.0
 10
250.6372163997
 20
248.5175398481
 30
0.0
 10
250.5242877595
 20
248.6200113044
 30
0.0
 10
250.4112764377
 20
248.7224516005
 30
0.0
 10
250.2954819989
 20
248.8216731963
 30
0.0
  0
SPLINE
  5
603
100
AcDbEntity
  8
0
100
AcDbSpline
 62
7
  6
BYLAYER
 70
0
 71
3
 72
9
 73
5
 74
0
 42
0.0000001
 43
0.0000001
 44
0.0000000001
 40
0.0
 40
0.0
 40
0.0
 40
0.0
 40
0.5734092968
 40
1.0
 40
1.0
 40
1.0
 40
1.0
 10
250.2954819989
 20
248.8216731963
 30
0.0
 10
250.0312927453
 20
249.0480509015
 30
0.0
 10
249.5604881339
 20
249.4320809783
 30
0.0
 10
248.8653307965
 20
249.5051299541
 30
0.0
 10
248.6411766577
 20
249.3757144355
 30
0.0
  0
SPLINE
  5
604
100
AcDbEntity
  8
0
100
AcDbSpline
 62
7
  6
BYLAYER
 70
0
 71
3
 72
11
 73
7
 74
0
 42
0.0000001
 43
0.0000001
 44
0.0000000001
 40
0.0
 40
0.0
 40
0.0
 40
0.0
 40
0.2197791272
 40
0.4964414951
 40
0.7910925717
 40
1.0
 40
1.0
 40
1.0
 40
1.0
 10
250.6774520279
 20
246.4280815487
 30
0.0
 10
250.4655059806
 20
246.4584107706
 30
0.0
 10
249.9781866298
 20
246.5434620394
 30
0.0
 10
249.3681415002
 20
247.0928836212
 30
0.0
 10
249.0875129329
 20
247.7883264315
 30
0.0
 10
249.1734155292
 20
248.3924951509
 30
0.0
 10
249.3496694988
 20
248.4942424476
 30
0.0
  0
SPLINE
  5
605
100
AcDbEntity
  8
0
100
AcDbSpline
 62
7
  6
BYLAYER
 70
0
 71
3
 72
9
 73
5
 74
0
 42
0.0000001
 43
0.0000001
 44
0.0000000001
 40
0.0
 40
0.0
 40
0.0
 40
0.0
 40
0.5000011283
 40
1.0
 40
1.0
 40
1.0
 40
1.0
 10
455.1671508001
 20
396.1442879787
 30
0.0
 10
455.1671171032
 20
396.7016883186
 30
0.0
 10
454.7862314693
 20
397.8023085621
 30
0.0
 10
454.0235049897
 20
398.6824739072
 30
0.0
 10
453.5407984322
 20
398.9611972735
 30
0.0
  0
SPLINE
  5
606
100
AcDbEntity
  8
0
100
AcDbSpline
 62
7
  6
BYLAYER
 70
0
 71
3
 72
9
 73
5
 74
0
 42
0.0000001
 43
0.0000001
 44
0.0000000001
 40
0.0
 40
0.0
 40
0.0
 40
0.0
 40
0.2141249308
 40
1.0
 40
1.0
 40
1.0
 40
1.0
 10
248.7118883699
 20
249.4165396179
 30
0.0
 10
248.7901821439
 20
249.4617423155
 30
0.0
 10
249.2071477669
 20
249.5886610211
 30
0.0
 10
249.6427360345
 20
249.3875328242
 30
0.0
 10
249.9201035987
 20
249.2054298856
 30
0.0
  0
SPLINE
  5
607
100
AcDbEntity
  8
0
100
AcDbSpline
 62
7
  6
BYLAYER
 70
0
 71
3
 72
8
 73
4
 74
0
 42
0.0000001
 43
0.0000001
 44
0.0000000001
 40
0.0
 40
0.0
 40
0.0
 40
0.0
 40
1.0
 40
1.0
 40
1.0
 40
1.0
 10
249.9201035987
 20
249.2054298856
 30
0.0
 10
250.0351257629
 20
249.1299132181
 30
0.0
 10
250.1447834017
 20
249.0461410721
 30
0.0
 10
250.2512233339
 20
248.9589435599
 30
0.0
  0
SPLINE
  5
608
100
AcDbEntity
  8
0
100
AcDbSpline
 62
7
  6
BYLAYER
 70
0
 71
3
 72
8
 73
4
 74
0
 42
0.0000001
 43
0.0000001
 44
0.0000000001
 40
0.0
 40
0.0
 40
0.0
 40
0.0
 40
1.0
 40
1.0
 40
1.0
 40
1.0
 10
250.2512233339
 20
248.9589435599
 30
0.0
 10
250.4078670401
 20
248.8306182107
 30
0.0
 10
250.5579657073
 20
248.6944389547
 30
0.0
 10
250.7079267834
 20
248.5583642635
 30
0.0
  0
SPLINE
  5
609
100
AcDbEntity
  8
0
100
AcDbSpline
 62
7
  6
BYLAYER
 70
0
 71
3
 72
10
 73
6
 74
0
 42
0.0000001
 43
0.0000001
 44
0.0000000001
 40
0.0
 40
0.0
 40
0.0
 40
0.0
 40
0.5660589154
 40
0.8059128634
 40
1.0
 40
1.0
 40
1.0
 40
1.0
 10
247.894688509
 20
251.3999816424
 30
0.0
 10
247.4975465899
 20
251.7962453421
 30
0.0
 10
246.9115725375
 20
252.3667414431
 30
0.0
 10
246.0277054517
 20
252.8032093054
 30
0.0
 10
245.5488944681
 20
252.8327528173
 30
0.0
 10
245.3823052622
 20
252.7365729977
 30
0.0
  0
SPLINE
  5
60A
100
AcDbEntity
  8
0
100
AcDbSpline
 62
7
  6
BYLAYER
 70
0
 71
3
 72
11
 73
7
 74
0
 42
0.0000001
 43
0.0000001
 44
0.0000000001
 40
0.0
 40
0.0
 40
0.0
 40
0.0
 40
0.1893162623
 40
0.4176074903
 40
0.6936910059
 40
1.0
 40
1.0
 40
1.0
 40
1.0
 10
252.0633241903
 20
247.6325813769
 30
0.0
 10
252.1530197229
 20
247.6843590296
 30
0.0
 10
252.3921721336
 20
247.7364642769
 30
0.0
 10
252.7573720019
 20
247.5937585852
 30
0.0
 10
253.1142010123
 20
247.3268805927
 30
0.0
 10
253.3193444753
 20
247.0774216501
 30
0.0
 10
253.4091349704
 20
246.935939444
 30
0.0
  0
SPLINE
  5
60B
100
AcDbEntity
  8
0
100
AcDbSpline
 62
7
  6
BYLAYER
 70
0
 71
3
 72
8
 73
4
 74
0
 42
0.0000001
 43
0.0000001
 44
0.0000000001
 40
0.0
 40
0.0
 40
0.0
 40
0.0
 40
1.0
 40
1.0
 40
1.0
 40
1.0
 10
253.4091349704
 20
246.935939444
 30
0.0
 10
253.4879382544
 20
246.8117697034
 30
0.0
 10
253.5547073081
 20
246.6788871551
 30
0.0
 10
253.6056498054
 20
246.5409272189
 30
0.0
  0
SPLINE
  5
60C
100
AcDbEntity
  8
0
100
AcDbSpline
 62
7
  6
BYLAYER
 70
0
 71
3
 72
8
 73
4
 74
0
 42
0.0000001
 43
0.0000001
 44
0.0000000001
 40
0.0
 40
0.0
 40
0.0
 40
0.0
 40
1.0
 40
1.0
 40
1.0
 40
1.0
 10
253.6801603453
 20
246.2831623642
 30
0.0
 10
253.7103291293
 20
246.1408153952
 30
0.0
 10
253.7194383836
 20
245.9944434888
 30
0.0
 10
253.7265626392
 20
245.8491091842
 30
0.0
  0
SPLINE
  5
60D
100
AcDbEntity
  8
0
100
AcDbSpline
 62
7
  6
BYLAYER
 70
0
 71
3
 72
9
 73
5
 74
0
 42
0.0000001
 43
0.0000001
 44
0.0000000001
 40
0.0
 40
0.0
 40
0.0
 40
0.0
 40
0.4958791737
 40
1.0
 40
1.0
 40
1.0
 40
1.0
 10
108.3357474684
 20
579.7304767236
 30
0.0
 10
108.3431119327
 20
579.7347281082
 30
0.0
 10
108.3587003389
 20
579.7420850336
 30
0.0
 10
108.375287441
 20
579.746761885
 30
0.0
 10
108.3837666205
 20
579.7484461378
 30
0.0
  0
SPLINE
  5
60E
100
AcDbEntity
  8
0
100
AcDbSpline
 62
7
  6
BYLAYER
 70
0
 71
3
 72
9
 73
5
 74
0
 42
0.0000001
 43
0.0000001
 44
0.0000000001
 40
0.0
 40
0.0
 40
0.0
 40
0.0
 40
0.4889568714
 40
1.0
 40
1.0
 40
1.0
 40
1.0
 10
108.3837666205
 20
579.7484461378
 30
0.0
 10
108.39148472
 20
579.7499792144
 30
0.0
 10
108.4075112396
 20
579.7519868675
 30
0.0
 10
108.4236521335
 20
579.7518286038
 30
0.0
 10
108.4318570745
 20
579.7512642624
 30
0.0
  0
SPLINE
  5
60F
100
AcDbEntity
  8
0
100
AcDbSpline
 62
7
  6
BYLAYER
 70
0
 71
3
 72
8
 73
4
 74
0
 42
0.0000001
 43
0.0000001
 44
0.0000000001
 40
0.0
 40
0.0
 40
0.0
 40
0.0
 40
1.0
 40
1.0
 40
1.0
 40
1.0
 10
108.4318570745
 20
579.7512642624
 30
0.0
 10
108.4858461719
 20
579.7475508559
 30
0.0
 10
108.5371983275
 20
579.7230572131
 30
0.0
 10
108.5853341844
 20
579.6983276498
 30
0.0
  0
SPLINE
  5
610
100
AcDbEntity
  8
0
100
AcDbSpline
 62
7
  6
BYLAYER
 70
0
 71
3
 72
8
 73
4
 74
0
 42
0.0000001
 43
0.0000001
 44
0.0000000001
 40
0.0
 40
0.0
 40
0.0
 40
0.0
 40
1.0
 40
1.0
 40
1.0
 40
1.0
 10
252.0994598907
 20
247.047296164
 30
0.0
 10
252.0764884295
 20
247.0340339034
 30
0.0
 10
252.054676469
 20
247.018679368
 30
0.0
 10
252.0339298567
 20
247.0021520068
 30
0.0
  0
SPLINE
  5
611
100
AcDbEntity
  8
0
100
AcDbSpline
 62
7
  6
BYLAYER
 70
0
 71
3
 72
8
 73
4
 74
0
 42
0.0000001
 43
0.0000001
 44
0.0000000001
 40
0.0
 40
0.0
 40
0.0
 40
0.0
 40
1.0
 40
1.0
 40
1.0
 40
1.0
 10
252.0339298567
 20
247.0021520068
 30
0.0
 10
251.9924208984
 20
246.9690847506
 30
0.0
 10
251.9548525137
 20
246.9312580121
 30
0.0
 10
251.9175254193
 20
246.893533682
 30
0.0
  0
SPLINE
  5
612
100
AcDbEntity
  8
0
100
AcDbSpline
 62
7
  6
BYLAYER
 70
0
 71
3
 72
9
 73
5
 74
0
 42
0.0000001
 43
0.0000001
 44
0.0000000001
 40
0.0
 40
0.0
 40
0.0
 40
0.0
 40
0.5000011283
 40
1.0
 40
1.0
 40
1.0
 40
1.0
 10
115.3423752806
 20
578.4304567029
 30
0.0
 10
115.3423313274
 20
579.1574982693
 30
0.0
 10
114.8454723805
 20
580.5930624553
 30
0.0
 10
113.8506613142
 20
581.7411351777
 30
0.0
 10
113.2210461052
 20
582.1046862178
 30
0.0
  0
SPLINE
  5
613
100
AcDbEntity
  8
0
100
AcDbSpline
 62
7
  6
BYLAYER
 70
0
 71
3
 72
9
 73
5
 74
0
 42
0.0000001
 43
0.0000001
 44
0.0000000001
 40
0.0
 40
0.0
 40
0.0
 40
0.0
 40
0.4595549206
 40
1.0
 40
1.0
 40
1.0
 40
1.0
 10
254.9718223276
 20
241.8411004637
 30
0.0
 10
255.0075627791
 20
242.0797815404
 30
0.0
 10
255.0449201347
 20
242.6157901506
 30
0.0
 10
254.8384184784
 20
243.1160788494
 30
0.0
 10
254.7080018904
 20
243.3681639849
 30
0.0
  0
SPLINE
  5
614
100
AcDbEntity
  8
0
100
AcDbSpline
 62
7
  6
BYLAYER
 70
0
 71
3
 72
8
 73
4
 74
0
 42
0.0000001
 43
0.0000001
 44
0.0000000001
 40
0.0
 40
0.0
 40
0.0
 40
0.0
 40
1.0
 40
1.0
 40
1.0
 40
1.0
 10
254.7838079517
 20
241.3400222162
 30
0.0
 10
254.8168846136
 20
241.3996052009
 30
0.0
 10
254.8463116842
 20
241.4612917005
 30
0.0
 10
254.8728154965
 20
241.5240750229
 30
0.0
  0
SPLINE
  5
615
100
AcDbEntity
  8
0
100
AcDbSpline
 62
7
  6
BYLAYER
 70
0
 71
3
 72
9
 73
5
 74
0
 42
0.0000001
 43
0.0000001
 44
0.0000000001
 40
0.0
 40
0.0
 40
0.0
 40
0.0
 40
0.2859295689
 40
1.0
 40
1.0
 40
1.0
 40
1.0
 10
105.9925064547
 20
579.7504370287
 30
0.0
 10
105.9919671747
 20
579.7193289545
 30
0.0
 10
105.9890973482
 20
579.6145408983
 30
0.0
 10
105.9617094408
 20
579.4826929798
 30
0.0
 10
105.8944189516
 20
579.4438437636
 30
0.0
  0
SPLINE
  5
616
100
AcDbEntity
  8
0
100
AcDbSpline
 62
7
  6
BYLAYER
 70
0
 71
3
 72
8
 73
4
 74
0
 42
0.0000001
 43
0.0000001
 44
0.0000000001
 40
0.0
 40
0.0
 40
0.0
 40
0.0
 40
1.0
 40
1.0
 40
1.0
 40
1.0
 10
104.5854685868
 20
582.0075988858
 30
0.0
 10
104.6827470833
 20
581.950538848
 30
0.0
 10
104.7775512624
 20
581.8888173615
 30
0.0
 10
104.8679424521
 20
581.821375634
 30
0.0
  0
SPLINE
  5
617
100
AcDbEntity
  8
0
100
AcDbSpline
 62
7
  6
BYLAYER
 70
0
 71
3
 72
9
 73
5
 74
0
 42
0.0000001
 43
0.0000001
 44
0.0000000001
 40
0.0
 40
0.0
 40
0.0
 40
0.0
 40
0.2383899994
 40
1.0
 40
1.0
 40
1.0
 40
1.0
 10
104.8679424521
 20
581.821375634
 30
0.0
 10
104.9383393282
 20
581.7688518543
 30
0.0
 10
105.222042942
 20
581.533126775
 30
0.0
 10
105.456131852
 20
581.239856786
 30
0.0
 10
105.6019852561
 20
581.0001345701
 30
0.0
  0
SPLINE
  5
618
100
AcDbEntity
  8
0
100
AcDbSpline
 62
7
  6
BYLAYER
 70
0
 71
3
 72
9
 73
5
 74
0
 42
0.0000001
 43
0.0000001
 44
0.0000000001
 40
0.0
 40
0.0
 40
0.0
 40
0.0
 40
0.2702648495
 40
1.0
 40
1.0
 40
1.0
 40
1.0
 10
105.6019852561
 20
581.0001345701
 30
0.0
 10
105.6636744139
 20
580.8987433019
 30
0.0
 10
105.8697320524
 20
580.5108667781
 30
0.0
 10
105.9820467302
 20
580.0707201757
 30
0.0
 10
105.9925064547
 20
579.7504370287
 30
0.0
  0
SPLINE
  5
619
100
AcDbEntity
  8
0
100
AcDbSpline
 62
7
  6
BYLAYER
 70
0
 71
3
 72
9
 73
5
 74
0
 42
0.0000001
 43
0.0000001
 44
0.0000000001
 40
0.0
 40
0.0
 40
0.0
 40
0.0
 40
0.4739317498
 40
1.0
 40
1.0
 40
1.0
 40
1.0
 10
255.0154372344
 20
245.858547384
 30
0.0
 10
255.0809045702
 20
245.8963479219
 30
0.0
 10
255.2268523764
 20
245.9696097574
 30
0.0
 10
255.3934479429
 20
245.9632478496
 30
0.0
 10
255.4756139552
 20
245.9462148307
 30
0.0
  0
SPLINE
  5
61A
100
AcDbEntity
  8
0
100
AcDbSpline
 62
7
  6
BYLAYER
 70
0
 71
3
 72
8
 73
4
 74
0
 42
0.0000001
 43
0.0000001
 44
0.0000000001
 40
0.0
 40
0.0
 40
0.0
 40
0.0
 40
1.0
 40
1.0
 40
1.0
 40
1.0
 10
255.4756139552
 20
245.9462148307
 30
0.0
 10
255.590808168
 20
245.9223350641
 30
0.0
 10
255.6979848257
 20
245.8673107586
 30
0.0
 10
255.8027933423
 20
245.8138773911
 30
0.0
  0
SPLINE
  5
61B
100
AcDbEntity
  8
0
100
AcDbSpline
 62
7
  6
BYLAYER
 70
0
 71
3
 72
8
 73
4
 74
0
 42
0.0000001
 43
0.0000001
 44
0.0000000001
 40
0.0
 40
0.0
 40
0.0
 40
0.0
 40
1.0
 40
1.0
 40
1.0
 40
1.0
 10
105.9477596667
 20
578.6117982312
 30
0.0
 10
105.9443237307
 20
578.5468373545
 30
0.0
 10
105.9284380593
 20
578.4804250775
 30
0.0
 10
105.8974099515
 20
578.4232501033
 30
0.0
  0
SPLINE
  5
61C
100
AcDbEntity
  8
0
100
AcDbSpline
 62
7
  6
BYLAYER
 70
0
 71
3
 72
8
 73
4
 74
0
 42
0.0000001
 43
0.0000001
 44
0.0000000001
 40
0.0
 40
0.0
 40
0.0
 40
0.0
 40
1.0
 40
1.0
 40
1.0
 40
1.0
 10
105.8974099515
 20
578.4232501033
 30
0.0
 10
105.859153144
 20
578.3527549254
 30
0.0
 10
105.7982287109
 20
578.2917199314
 30
0.0
 10
105.7287674016
 20
578.2516165658
 30
0.0
  0
SPLINE
  5
61D
100
AcDbEntity
  8
0
100
AcDbSpline
 62
7
  6
BYLAYER
 70
0
 71
3
 72
8
 73
4
 74
0
 42
0.0000001
 43
0.0000001
 44
0.0000000001
 40
0.0
 40
0.0
 40
0.0
 40
0.0
 40
1.0
 40
1.0
 40
1.0
 40
1.0
 10
105.6850794524
 20
579.0524186013
 30
0.0
 10
105.7359778181
 20
579.0209720604
 30
0.0
 10
105.7844109404
 20
578.983447848
 30
0.0
 10
105.8234875171
 20
578.9381427741
 30
0.0
  0
SPLINE
  5
61E
100
AcDbEntity
  8
0
100
AcDbSpline
 62
7
  6
BYLAYER
 70
0
 71
3
 72
8
 73
4
 74
0
 42
0.0000001
 43
0.0000001
 44
0.0000000001
 40
0.0
 40
0.0
 40
0.0
 40
0.0
 40
1.0
 40
1.0
 40
1.0
 40
1.0
 10
105.8234875171
 20
578.9381427741
 30
0.0
 10
105.8636896016
 20
578.8915327954
 30
0.0
 10
105.8964913523
 20
578.8372112293
 30
0.0
 10
105.918149677
 20
578.779595132
 30
0.0
  0
SPLINE
  5
61F
100
AcDbEntity
  8
0
100
AcDbSpline
 62
7
  6
BYLAYER
 70
0
 71
3
 72
8
 73
4
 74
0
 42
0.0000001
 43
0.0000001
 44
0.0000000001
 40
0.0
 40
0.0
 40
0.0
 40
0.0
 40
1.0
 40
1.0
 40
1.0
 40
1.0
 10
105.918149677
 20
578.779595132
 30
0.0
 10
105.9381345426
 20
578.7264308188
 30
0.0
 10
105.9463421731
 20
578.6685770103
 30
0.0
 10
105.9477596667
 20
578.6117982312
 30
0.0
  0
SPLINE
  5
620
100
AcDbEntity
  8
0
100
AcDbSpline
 62
7
  6
BYLAYER
 70
0
 71
3
 72
8
 73
4
 74
0
 42
0.0000001
 43
0.0000001
 44
0.0000000001
 40
0.0
 40
0.0
 40
0.0
 40
0.0
 40
1.0
 40
1.0
 40
1.0
 40
1.0
 10
105.5168646779
 20
579.0921249233
 30
0.0
 10
105.5512408648
 20
579.1012288275
 30
0.0
 10
105.5901839861
 20
579.0960288876
 30
0.0
 10
105.6231252804
 20
579.082632081
 30
0.0
  0
SPLINE
  5
621
100
AcDbEntity
  8
0
100
AcDbSpline
 62
7
  6
BYLAYER
 70
0
 71
3
 72
8
 73
4
 74
0
 42
0.0000001
 43
0.0000001
 44
0.0000000001
 40
0.0
 40
0.0
 40
0.0
 40
0.0
 40
1.0
 40
1.0
 40
1.0
 40
1.0
 10
105.6231252804
 20
579.082632081
 30
0.0
 10
105.6444087637
 20
579.0739763583
 30
0.0
 10
105.6648104776
 20
579.0632388075
 30
0.0
 10
105.6850794524
 20
579.0524186013
 30
0.0
  0
SPLINE
  5
622
100
AcDbEntity
  8
0
100
AcDbSpline
 62
7
  6
BYLAYER
 70
0
 71
3
 72
8
 73
4
 74
0
 42
0.0000001
 43
0.0000001
 44
0.0000000001
 40
0.0
 40
0.0
 40
0.0
 40
0.0
 40
1.0
 40
1.0
 40
1.0
 40
1.0
 10
104.6194429987
 20
579.048575492
 30
0.0
 10
104.7197435819
 20
578.9949955104
 30
0.0
 10
104.8257949357
 20
578.941738783
 30
0.0
 10
104.9387271752
 20
578.9284222259
 30
0.0
  0
SPLINE
  5
623
100
AcDbEntity
  8
0
100
AcDbSpline
 62
7
  6
BYLAYER
 70
0
 71
3
 72
8
 73
4
 74
0
 42
0.0000001
 43
0.0000001
 44
0.0000000001
 40
0.0
 40
0.0
 40
0.0
 40
0.0
 40
1.0
 40
1.0
 40
1.0
 40
1.0
 10
104.9387271752
 20
578.9284222259
 30
0.0
 10
105.0421367453
 20
578.9162285472
 30
0.0
 10
105.1505586398
 20
578.9338957671
 30
0.0
 10
105.2483834874
 20
578.969568224
 30
0.0
  0
SPLINE
  5
624
100
AcDbEntity
  8
0
100
AcDbSpline
 62
7
  6
BYLAYER
 70
0
 71
3
 72
8
 73
4
 74
0
 42
0.0000001
 43
0.0000001
 44
0.0000000001
 40
0.0
 40
0.0
 40
0.0
 40
0.0
 40
1.0
 40
1.0
 40
1.0
 40
1.0
 10
105.2483834874
 20
578.969568224
 30
0.0
 10
105.3408072223
 20
579.0032711307
 30
0.0
 10
105.4289013579
 20
579.0480739639
 30
0.0
 10
105.5168646779
 20
579.0921249233
 30
0.0
  0
SPLINE
  5
625
100
AcDbEntity
  8
0
100
AcDbSpline
 62
7
  6
BYLAYER
 70
0
 71
3
 72
9
 73
5
 74
0
 42
0.0000001
 43
0.0000001
 44
0.0000000001
 40
0.0
 40
0.0
 40
0.0
 40
0.0
 40
0.2215691378
 40
1.0
 40
1.0
 40
1.0
 40
1.0
 10
103.8731756564
 20
580.3765893379
 30
0.0
 10
103.8769643787
 20
580.3123162419
 30
0.0
 10
103.9082048414
 20
580.0233295038
 30
0.0
 10
104.0125843462
 20
579.7414658034
 30
0.0
 10
104.1303746066
 20
579.548354326
 30
0.0
  0
SPLINE
  5
626
100
AcDbEntity
  8
0
100
AcDbSpline
 62
7
  6
BYLAYER
 70
0
 71
3
 72
9
 73
5
 74
0
 42
0.0000001
 43
0.0000001
 44
0.0000000001
 40
0.0
 40
0.0
 40
0.0
 40
0.0
 40
0.2702465111
 40
1.0
 40
1.0
 40
1.0
 40
1.0
 10
104.2331599896
 20
579.3975637812
 30
0.0
 10
104.2616423955
 20
579.3600859759
 30
0.0
 10
104.3719176668
 20
579.2248955644
 30
0.0
 10
104.5117258881
 20
579.1160613543
 30
0.0
 10
104.6194429987
 20
579.048575492
 30
0.0
  0
SPLINE
  5
627
100
AcDbEntity
  8
0
100
AcDbSpline
 62
7
  6
BYLAYER
 70
0
 71
3
 72
9
 73
5
 74
0
 42
0.0000001
 43
0.0000001
 44
0.0000000001
 40
0.0
 40
0.0
 40
0.0
 40
0.0
 40
0.4827652698
 40
1.0
 40
1.0
 40
1.0
 40
1.0
 10
102.0721907004
 20
583.4653055944
 30
0.0
 10
102.1538713468
 20
583.4154142225
 30
0.0
 10
102.3159266621
 20
583.2870929177
 30
0.0
 10
102.3809494209
 20
583.0904331854
 30
0.0
 10
102.4025811915
 20
582.990194374
 30
0.0
  0
SPLINE
  5
628
100
AcDbEntity
  8
0
100
AcDbSpline
 62
7
  6
BYLAYER
 70
0
 71
3
 72
9
 73
5
 74
0
 42
0.0000001
 43
0.0000001
 44
0.0000000001
 40
0.0
 40
0.0
 40
0.0
 40
0.0
 40
0.2654580717
 40
1.0
 40
1.0
 40
1.0
 40
1.0
 10
102.4025811915
 20
582.990194374
 30
0.0
 10
102.4101373262
 20
582.9551802284
 30
0.0
 10
102.4326174268
 20
582.8219331993
 30
0.0
 10
102.436658853
 20
582.6865238108
 30
0.0
 10
102.4376227967
 20
582.5874114263
 30
0.0
  0
SPLINE
  5
629
100
AcDbEntity
  8
0
100
AcDbSpline
 62
7
  6
BYLAYER
 70
0
 71
3
 72
8
 73
4
 74
0
 42
0.0000001
 43
0.0000001
 44
0.0000000001
 40
0.0
 40
0.0
 40
0.0
 40
0.0
 40
1.0
 40
1.0
 40
1.0
 40
1.0
 10
255.1563559136
 20
245.3584709339
 30
0.0
 10
255.1335891792
 20
245.3453248876
 30
0.0
 10
255.1119745445
 20
245.3301005562
 30
0.0
 10
255.0914164748
 20
245.3137143272
 30
0.0
  0
SPLINE
  5
62A
100
AcDbEntity
  8
0
100
AcDbSpline
 62
7
  6
BYLAYER
 70
0
 71
3
 72
8
 73
4
 74
0
 42
0.0000001
 43
0.0000001
 44
0.0000000001
 40
0.0
 40
0.0
 40
0.0
 40
0.0
 40
1.0
 40
1.0
 40
1.0
 40
1.0
 10
255.0914164748
 20
245.3137143272
 30
0.0
 10
255.0378495191
 20
245.2710176921
 30
0.0
 10
254.991274084
 20
245.220037847
 30
0.0
 10
254.9448348241
 20
245.1696809554
 30
0.0
  0
SPLINE
  5
62B
100
AcDbEntity
  8
0
100
AcDbSpline
 62
7
  6
BYLAYER
 70
0
 71
3
 72
9
 73
5
 74
0
 42
0.0000001
 43
0.0000001
 44
0.0000000001
 40
0.0
 40
0.0
 40
0.0
 40
0.0
 40
0.4732253033
 40
1.0
 40
1.0
 40
1.0
 40
1.0
 10
100.7223292837
 20
584.2379329454
 30
0.0
 10
100.8616167677
 20
584.1528533809
 30
0.0
 10
101.1464189293
 20
583.9520686498
 30
0.0
 10
101.3607471898
 20
583.6758860403
 30
0.0
 10
101.4603666834
 20
583.5239466515
 30
0.0
  0
SPLINE
  5
62C
100
AcDbEntity
  8
0
100
AcDbSpline
 62
7
  6
BYLAYER
 70
0
 71
3
 72
8
 73
4
 74
0
 42
0.0000001
 43
0.0000001
 44
0.0000000001
 40
0.0
 40
0.0
 40
0.0
 40
0.0
 40
1.0
 40
1.0
 40
1.0
 40
1.0
 10
101.571630513
 20
583.3412624712
 30
0.0
 10
101.6086266395
 20
583.2757786559
 30
0.0
 10
101.6434091341
 20
583.2090324219
 30
0.0
 10
101.6769126253
 20
583.1416947688
 30
0.0
  0
SPLINE
  5
62D
100
AcDbEntity
  8
0
100
AcDbSpline
 62
7
  6
BYLAYER
 70
0
 71
3
 72
8
 73
4
 74
0
 42
0.0000001
 43
0.0000001
 44
0.0000000001
 40
0.0
 40
0.0
 40
0.0
 40
0.0
 40
1.0
 40
1.0
 40
1.0
 40
1.0
 10
101.6810706337
 20
580.7909354505
 30
0.0
 10
101.6618196778
 20
580.7719520953
 30
0.0
 10
101.642351294
 20
580.7531668624
 30
0.0
 10
101.6222076138
 20
580.7351335814
 30
0.0
  0
SPLINE
  5
62E
100
AcDbEntity
  8
0
100
AcDbSpline
 62
7
  6
BYLAYER
 70
0
 71
3
 72
8
 73
4
 74
0
 42
0.0000001
 43
0.0000001
 44
0.0000000001
 40
0.0
 40
0.0
 40
0.0
 40
0.0
 40
1.0
 40
1.0
 40
1.0
 40
1.0
 10
101.6222076138
 20
580.7351335814
 30
0.0
 10
101.5874246754
 20
580.7039947579
 30
0.0
 10
101.5501565594
 20
580.6750293225
 30
0.0
 10
101.50972476
 20
580.6516894695
 30
0.0
  0
SPLINE
  5
62F
100
AcDbEntity
  8
0
100
AcDbSpline
 62
7
  6
BYLAYER
 70
0
 71
3
 72
9
 73
5
 74
0
 42
0.0000001
 43
0.0000001
 44
0.0000000001
 40
0.0
 40
0.0
 40
0.0
 40
0.0
 40
0.2925774084
 40
1.0
 40
1.0
 40
1.0
 40
1.0
 10
100.8905440589
 20
579.8541786069
 30
0.0
 10
100.9435332482
 20
579.82443045
 30
0.0
 10
101.1183954682
 20
579.7279376962
 30
0.0
 10
101.3619687378
 20
579.6437243369
 30
0.0
 10
101.4894306092
 20
579.7168166703
 30
0.0
  0
SPLINE
  5
630
100
AcDbEntity
  8
0
100
AcDbSpline
 62
7
  6
BYLAYER
 70
0
 71
3
 72
9
 73
5
 74
0
 42
0.0000001
 43
0.0000001
 44
0.0000000001
 40
0.0
 40
0.0
 40
0.0
 40
0.0
 40
0.7599920842
 40
1.0
 40
1.0
 40
1.0
 40
1.0
 10
100.1613371548
 20
580.7392436884
 30
0.0
 10
100.2522548057
 20
580.5567709973
 30
0.0
 10
100.364301968
 20
580.3075540423
 30
0.0
 10
100.5486972214
 20
580.1103003702
 30
0.0
 10
100.5961434641
 20
580.0667810535
 30
0.0
  0
SPLINE
  5
631
100
AcDbEntity
  8
0
100
AcDbSpline
 62
7
  6
BYLAYER
 70
0
 71
3
 72
8
 73
4
 74
0
 42
0.0000001
 43
0.0000001
 44
0.0000000001
 40
0.0
 40
0.0
 40
0.0
 40
0.0
 40
1.0
 40
1.0
 40
1.0
 40
1.0
 10
100.5961434641
 20
580.0667810535
 30
0.0
 10
100.6853485811
 20
579.984959069
 30
0.0
 10
100.7869316964
 20
579.9167634964
 30
0.0
 10
100.8905440589
 20
579.8541786069
 30
0.0
  0
SPLINE
  5
632
100
AcDbEntity
  8
0
100
AcDbSpline
 62
7
  6
BYLAYER
 70
0
 71
3
 72
8
 73
4
 74
0
 42
0.0000001
 43
0.0000001
 44
0.0000000001
 40
0.0
 40
0.0
 40
0.0
 40
0.0
 40
1.0
 40
1.0
 40
1.0
 40
1.0
 10
99.8762835462
 20
581.1133634345
 30
0.0
 10
99.9597788973
 20
581.0567119555
 30
0.0
 10
100.031894119
 20
580.9792487199
 30
0.0
 10
100.0830275423
 20
580.8922646021
 30
0.0
  0
SPLINE
  5
633
100
AcDbEntity
  8
0
100
AcDbSpline
 62
7
  6
BYLAYER
 70
0
 71
3
 72
8
 73
4
 74
0
 42
0.0000001
 43
0.0000001
 44
0.0000000001
 40
0.0
 40
0.0
 40
0.0
 40
0.0
 40
1.0
 40
1.0
 40
1.0
 40
1.0
 10
100.0830275423
 20
580.8922646021
 30
0.0
 10
100.1120646827
 20
580.8428689256
 30
0.0
 10
100.1371628234
 20
580.7911926065
 30
0.0
 10
100.1613371548
 20
580.7392436884
 30
0.0
  0
SPLINE
  5
634
100
AcDbEntity
  8
0
100
AcDbSpline
 62
7
  6
BYLAYER
 70
0
 71
3
 72
8
 73
4
 74
0
 42
0.0000001
 43
0.0000001
 44
0.0000000001
 40
0.0
 40
0.0
 40
0.0
 40
0.0
 40
1.0
 40
1.0
 40
1.0
 40
1.0
 10
254.123742017
 20
240.6756870452
 30
0.0
 10
254.2703109885
 20
240.7645803648
 30
0.0
 10
254.4081410724
 20
240.870886005
 30
0.0
 10
254.5283871544
 20
240.9930554179
 30
0.0
  0
SPLINE
  5
635
100
AcDbEntity
  8
0
100
AcDbSpline
 62
7
  6
BYLAYER
 70
0
 71
3
 72
9
 73
5
 74
0
 42
0.0000001
 43
0.0000001
 44
0.0000000001
 40
0.0
 40
0.0
 40
0.0
 40
0.0
 40
0.4341838481
 40
1.0
 40
1.0
 40
1.0
 40
1.0
 10
260.7926912023
 20
243.4754480874
 30
0.0
 10
260.8632665462
 20
243.516196316
 30
0.0
 10
260.9954329418
 20
243.6772240981
 30
0.0
 10
260.9733348101
 20
243.8777486755
 30
0.0
 10
260.9533183022
 20
243.9820461708
 30
0.0
  0
SPLINE
  5
636
100
AcDbEntity
  8
0
100
AcDbSpline
 62
7
  6
BYLAYER
 70
0
 71
3
 72
9
 73
5
 74
0
 42
0.0000001
 43
0.0000001
 44
0.0000000001
 40
0.0
 40
0.0
 40
0.0
 40
0.0
 40
0.5546705254
 40
1.0
 40
1.0
 40
1.0
 40
1.0
 10
102.4376227967
 20
580.0316950722
 30
0.0
 10
102.4347974625
 20
579.8160503266
 30
0.0
 10
102.4301046
 20
579.4350238894
 30
0.0
 10
102.2456224979
 20
579.0359635662
 30
0.0
 10
102.095659336
 20
578.949407378
 30
0.0
  0
SPLINE
  5
637
100
AcDbEntity
  8
0
100
AcDbSpline
 62
7
  6
BYLAYER
 70
0
 71
3
 72
9
 73
5
 74
0
 42
0.0000001
 43
0.0000001
 44
0.0000000001
 40
0.0
 40
0.0
 40
0.0
 40
0.0
 40
0.5000014033
 40
1.0
 40
1.0
 40
1.0
 40
1.0
 10
279.4625424872
 20
233.256670073
 30
0.0
 10
279.4624838873
 20
234.2259995839
 30
0.0
 10
278.7999014967
 20
236.1399060525
 30
0.0
 10
277.4736911841
 20
237.6706661065
 30
0.0
 10
276.6342564673
 20
238.155370668
 30
0.0
  0
SPLINE
  5
638
100
AcDbEntity
  8
0
100
AcDbSpline
 62
7
  6
BYLAYER
 70
0
 71
3
 72
9
 73
5
 74
0
 42
0.0000001
 43
0.0000001
 44
0.0000000001
 40
0.0
 40
0.0
 40
0.0
 40
0.0
 40
0.2982687027
 40
1.0
 40
1.0
 40
1.0
 40
1.0
 10
99.0269232318
 20
582.0189987724
 30
0.0
 10
99.0257726626
 20
581.9995934986
 30
0.0
 10
99.0240756715
 20
581.9342567776
 30
0.0
 10
98.9796266067
 20
581.873067886
 30
0.0
 10
98.9400211604
 20
581.8501973122
 30
0.0
  0
SPLINE
  5
639
100
AcDbEntity
  8
0
100
AcDbSpline
 62
7
  6
BYLAYER
 70
0
 71
3
 72
8
 73
4
 74
0
 42
0.0000001
 43
0.0000001
 44
0.0000000001
 40
0.0
 40
0.0
 40
0.0
 40
0.0
 40
1.0
 40
1.0
 40
1.0
 40
1.0
 10
98.8843964285
 20
582.9557418239
 30
0.0
 10
98.8860497621
 20
582.8474789616
 30
0.0
 10
98.8940114227
 20
582.7389562448
 30
0.0
 10
98.9108000808
 20
582.6319902604
 30
0.0
  0
SPLINE
  5
63A
100
AcDbEntity
  8
0
100
AcDbSpline
 62
7
  6
BYLAYER
 70
0
 71
3
 72
8
 73
4
 74
0
 42
0.0000001
 43
0.0000001
 44
0.0000000001
 40
0.0
 40
0.0
 40
0.0
 40
0.0
 40
1.0
 40
1.0
 40
1.0
 40
1.0
 10
98.9108000808
 20
582.6319902604
 30
0.0
 10
98.9277634179
 20
582.5239113389
 30
0.0
 10
98.9524029882
 20
582.4171472389
 30
0.0
 10
98.9762690607
 20
582.3103801154
 30
0.0
  0
SPLINE
  5
63B
100
AcDbEntity
  8
0
100
AcDbSpline
 62
7
  6
BYLAYER
 70
0
 71
3
 72
8
 73
4
 74
0
 42
0.0000001
 43
0.0000001
 44
0.0000000001
 40
0.0
 40
0.0
 40
0.0
 40
0.0
 40
1.0
 40
1.0
 40
1.0
 40
1.0
 10
98.9762690607
 20
582.3103801154
 30
0.0
 10
98.997775136
 20
582.2141706618
 30
0.0
 10
99.0206908621
 20
582.1173853965
 30
0.0
 10
99.0269232318
 20
582.0189987724
 30
0.0
  0
SPLINE
  5
63C
100
AcDbEntity
  8
0
100
AcDbSpline
 62
7
  6
BYLAYER
 70
0
 71
3
 72
8
 73
4
 74
0
 42
0.0000001
 43
0.0000001
 44
0.0000000001
 40
0.0
 40
0.0
 40
0.0
 40
0.0
 40
1.0
 40
1.0
 40
1.0
 40
1.0
 10
97.5859109514
 20
586.048703948
 30
0.0
 10
97.6754746078
 20
585.9964332207
 30
0.0
 10
97.7641253576
 20
585.9424547373
 30
0.0
 10
97.8505174119
 20
585.8850936838
 30
0.0
  0
SPLINE
  5
63D
100
AcDbEntity
  8
0
100
AcDbSpline
 62
7
  6
BYLAYER
 70
0
 71
3
 72
9
 73
5
 74
0
 42
0.0000001
 43
0.0000001
 44
0.0000000001
 40
0.0
 40
0.0
 40
0.0
 40
0.0
 40
0.7340825917
 40
1.0
 40
1.0
 40
1.0
 40
1.0
 10
97.8505174119
 20
585.8850936838
 30
0.0
 10
97.9771513436
 20
585.8010135472
 30
0.0
 10
98.1444187352
 20
585.677352339
 30
0.0
 10
98.2951672967
 20
585.5351919966
 30
0.0
 10
98.3340478832
 20
585.4962016742
 30
0.0
  0
SPLINE
  5
63E
100
AcDbEntity
  8
0
100
AcDbSpline
 62
7
  6
BYLAYER
 70
0
 71
3
 72
9
 73
5
 74
0
 42
0.0000001
 43
0.0000001
 44
0.0000000001
 40
0.0
 40
0.0
 40
0.0
 40
0.0
 40
0.5251606895
 40
1.0
 40
1.0
 40
1.0
 40
1.0
 10
98.3340478832
 20
585.4962016742
 30
0.0
 10
98.5418177518
 20
585.2878453991
 30
0.0
 10
98.8477802338
 20
584.7836661947
 30
0.0
 10
98.8887874162
 20
584.2145939832
 30
0.0
 10
98.8902016428
 20
583.9485467448
 30
0.0
  0
SPLINE
  5
63F
100
AcDbEntity
  8
0
100
AcDbSpline
 62
7
  6
BYLAYER
 70
0
 71
3
 72
9
 73
5
 74
0
 42
0.0000001
 43
0.0000001
 44
0.0000000001
 40
0.0
 40
0.0
 40
0.0
 40
0.0
 40
0.2314481546
 40
1.0
 40
1.0
 40
1.0
 40
1.0
 10
268.8306274478
 20
238.0440268877
 30
0.0
 10
268.8569150396
 20
238.0592041561
 30
0.0
 10
268.9769169263
 20
238.1141161047
 30
0.0
 10
269.1222619396
 20
238.1024838302
 30
0.0
 10
269.2157730679
 20
238.0648624194
 30
0.0
  0
SPLINE
  5
640
100
AcDbEntity
  8
0
100
AcDbSpline
 62
7
  6
BYLAYER
 70
0
 71
3
 72
8
 73
4
 74
0
 42
0.0000001
 43
0.0000001
 44
0.0000000001
 40
0.0
 40
0.0
 40
0.0
 40
0.0
 40
1.0
 40
1.0
 40
1.0
 40
1.0
 10
269.2157730679
 20
238.0648624194
 30
0.0
 10
269.2855140222
 20
238.0368042285
 30
0.0
 10
269.3497037446
 20
237.9945589816
 30
0.0
 10
269.4084248911
 20
237.9476240294
 30
0.0
  0
SPLINE
  5
641
100
AcDbEntity
  8
0
100
AcDbSpline
 62
7
  6
BYLAYER
 70
0
 71
3
 72
9
 73
5
 74
0
 42
0.0000001
 43
0.0000001
 44
0.0000000001
 40
0.0
 40
0.0
 40
0.0
 40
0.0
 40
0.2393094851
 40
1.0
 40
1.0
 40
1.0
 40
1.0
 10
269.4084248911
 20
237.9476240294
 30
0.0
 10
269.45083368
 20
237.9137273056
 30
0.0
 10
269.61799439
 20
237.7591123547
 30
0.0
 10
269.747386911
 20
237.5704316843
 30
0.0
 10
269.8474369628
 20
237.4298199715
 30
0.0
  0
SPLINE
  5
642
100
AcDbEntity
  8
0
100
AcDbSpline
 62
7
  6
BYLAYER
 70
0
 71
3
 72
8
 73
4
 74
0
 42
0.0000001
 43
0.0000001
 44
0.0000000001
 40
0.0
 40
0.0
 40
0.0
 40
0.0
 40
1.0
 40
1.0
 40
1.0
 40
1.0
 10
268.787939745
 20
237.2437014826
 30
0.0
 10
268.7646763838
 20
237.2302703398
 30
0.0
 10
268.7429626007
 20
237.2139637332
 30
0.0
 10
268.7229743956
 20
237.1960179473
 30
0.0
  0
SPLINE
  5
643
100
AcDbEntity
  8
0
100
AcDbSpline
 62
7
  6
BYLAYER
 70
0
 71
3
 72
9
 73
5
 74
0
 42
0.0000001
 43
0.0000001
 44
0.0000000001
 40
0.0
 40
0.0
 40
0.0
 40
0.0
 40
0.2356673327
 40
1.0
 40
1.0
 40
1.0
 40
1.0
 10
268.7229743956
 20
237.1960179473
 30
0.0
 10
268.6911513058
 20
237.1674465794
 30
0.0
 10
268.5723485926
 20
237.0280666664
 30
0.0
 10
268.5022928216
 20
236.857341771
 30
0.0
 10
268.4483453823
 20
236.7295572214
 30
0.0
  0
SPLINE
  5
644
100
AcDbEntity
  8
0
100
AcDbSpline
 62
7
  6
BYLAYER
 70
0
 71
3
 72
8
 73
4
 74
0
 42
0.0000001
 43
0.0000001
 44
0.0000000001
 40
0.0
 40
0.0
 40
0.0
 40
0.0
 40
1.0
 40
1.0
 40
1.0
 40
1.0
 10
96.8475889617
 20
584.826331505
 30
0.0
 10
97.0048014775
 20
584.7770454468
 30
0.0
 10
97.160569396
 20
584.7232590811
 30
0.0
 10
97.3173423476
 20
584.6725922054
 30
0.0
  0
SPLINE
  5
645
100
AcDbEntity
  8
0
100
AcDbSpline
 62
7
  6
BYLAYER
 70
0
 71
3
 72
9
 73
5
 74
0
 42
0.0000001
 43
0.0000001
 44
0.0000000001
 40
0.0
 40
0.0
 40
0.0
 40
0.0
 40
0.7236280601
 40
1.0
 40
1.0
 40
1.0
 40
1.0
 10
97.3173423476
 20
584.6725922054
 30
0.0
 10
97.4213048729
 20
584.6389929378
 30
0.0
 10
97.5649729802
 20
584.5923902314
 30
0.0
 10
97.7105043191
 20
584.5521206503
 30
0.0
 10
97.7507718186
 20
584.5411771512
 30
0.0
  0
SPLINE
  5
646
100
AcDbEntity
  8
0
100
AcDbSpline
 62
7
  6
BYLAYER
 70
0
 71
3
 72
9
 73
5
 74
0
 42
0.0000001
 43
0.0000001
 44
0.0000000001
 40
0.0
 40
0.0
 40
0.0
 40
0.0
 40
0.5508286982
 40
1.0
 40
1.0
 40
1.0
 40
1.0
 10
238.4500192297
 20
260.2005515873
 30
0.0
 10
238.1191951731
 20
260.3915219572
 30
0.0
 10
237.4581626759
 20
260.6662421967
 30
0.0
 10
236.7200635921
 20
260.5540977341
 30
0.0
 10
236.4503049518
 20
260.3983531614
 30
0.0
  0
SPLINE
  5
647
100
AcDbEntity
  8
0
100
AcDbSpline
 62
7
  6
BYLAYER
 70
0
 71
3
 72
8
 73
4
 74
0
 42
0.0000001
 43
0.0000001
 44
0.0000000001
 40
0.0
 40
0.0
 40
0.0
 40
0.0
 40
1.0
 40
1.0
 40
1.0
 40
1.0
 10
268.3523834168
 20
233.6258672572
 30
0.0
 10
268.3337107506
 20
233.6150866511
 30
0.0
 10
268.3166928491
 20
233.6010551828
 30
0.0
 10
268.3020865248
 20
233.5851950055
 30
0.0
  0
SPLINE
  5
648
100
AcDbEntity
  8
0
100
AcDbSpline
 62
7
  6
BYLAYER
 70
0
 71
3
 72
9
 73
5
 74
0
 42
0.0000001
 43
0.0000001
 44
0.0000000001
 40
0.0
 40
0.0
 40
0.0
 40
0.0
 40
0.222866269
 40
1.0
 40
1.0
 40
1.0
 40
1.0
 10
268.3020865248
 20
233.5851950055
 30
0.0
 10
268.2874691801
 20
233.5693228617
 30
0.0
 10
268.2315295142
 20
233.4890080759
 30
0.0
 10
268.2140591115
 20
233.3887014782
 30
0.0
 10
268.2094948906
 20
233.3135991321
 30
0.0
  0
SPLINE
  5
649
100
AcDbEntity
  8
0
100
AcDbSpline
 62
7
  6
BYLAYER
 70
0
 71
3
 72
9
 73
5
 74
0
 42
0.0000001
 43
0.0000001
 44
0.0000000001
 40
0.0
 40
0.0
 40
0.0
 40
0.0
 40
0.2263808122
 40
1.0
 40
1.0
 40
1.0
 40
1.0
 10
268.2094948906
 20
233.3135991321
 30
0.0
 10
268.2061466067
 20
233.2585045223
 30
0.0
 10
268.2142453399
 20
233.0141125856
 30
0.0
 10
268.3204218808
 20
232.7744701581
 30
0.0
 10
268.4409118493
 20
232.6293452724
 30
0.0
  0
SPLINE
  5
64A
100
AcDbEntity
  8
0
100
AcDbSpline
 62
7
  6
BYLAYER
 70
0
 71
3
 72
8
 73
4
 74
0
 42
0.0000001
 43
0.0000001
 44
0.0000000001
 40
0.0
 40
0.0
 40
0.0
 40
0.0
 40
1.0
 40
1.0
 40
1.0
 40
1.0
 10
268.547840494
 20
232.5186667142
 30
0.0
 10
268.605725528
 20
232.467179713
 30
0.0
 10
268.6699996851
 20
232.4218881938
 30
0.0
 10
268.7386280063
 20
232.3859473815
 30
0.0
  0
SPLINE
  5
64B
100
AcDbEntity
  8
0
100
AcDbSpline
 62
7
  6
BYLAYER
 70
0
 71
3
 72
9
 73
5
 74
0
 42
0.0000001
 43
0.0000001
 44
0.0000000001
 40
0.0
 40
0.0
 40
0.0
 40
0.0
 40
0.2694681779
 40
1.0
 40
1.0
 40
1.0
 40
1.0
 10
268.7386280063
 20
232.3859473815
 30
0.0
 10
268.7693095582
 20
232.3698793811
 30
0.0
 10
268.8868357339
 20
232.3163692812
 30
0.0
 10
269.0160778519
 20
232.2977844856
 30
0.0
 10
269.1092216014
 20
232.2859371124
 30
0.0
  0
SPLINE
  5
64C
100
AcDbEntity
  8
0
100
AcDbSpline
 62
7
  6
BYLAYER
 70
0
 71
3
 72
8
 73
4
 74
0
 42
0.0000001
 43
0.0000001
 44
0.0000000001
 40
0.0
 40
0.0
 40
0.0
 40
0.0
 40
1.0
 40
1.0
 40
1.0
 40
1.0
 10
112.1957370037
 20
575.2409476155
 30
0.0
 10
112.1941675649
 20
575.1904008561
 30
0.0
 10
112.1921214591
 20
575.1398223093
 30
0.0
 10
112.1876305687
 20
575.0894509889
 30
0.0
  0
SPLINE
  5
64D
100
AcDbEntity
  8
0
100
AcDbSpline
 62
7
  6
BYLAYER
 70
0
 71
3
 72
8
 73
4
 74
0
 42
0.0000001
 43
0.0000001
 44
0.0000000001
 40
0.0
 40
0.0
 40
0.0
 40
0.0
 40
1.0
 40
1.0
 40
1.0
 40
1.0
 10
112.1876305687
 20
575.0894509889
 30
0.0
 10
112.1815773459
 20
575.0215560293
 30
0.0
 10
112.1704059082
 20
574.9533533908
 30
0.0
 10
112.1489802561
 20
574.8886439752
 30
0.0
  0
SPLINE
  5
64E
100
AcDbEntity
  8
0
100
AcDbSpline
 62
7
  6
BYLAYER
 70
0
 71
3
 72
9
 73
5
 74
0
 42
0.0000001
 43
0.0000001
 44
0.0000000001
 40
0.0
 40
0.0
 40
0.0
 40
0.0
 40
0.2671625263
 40
1.0
 40
1.0
 40
1.0
 40
1.0
 10
112.1489802561
 20
574.8886439752
 30
0.0
 10
112.1387441603
 20
574.8577290807
 30
0.0
 10
112.0921311913
 20
574.7453092926
 30
0.0
 10
112.007131871
 20
574.6459311735
 30
0.0
 10
111.9297705775
 20
574.6012682211
 30
0.0
  0
SPLINE
  5
64F
100
AcDbEntity
  8
0
100
AcDbSpline
 62
7
  6
BYLAYER
 70
0
 71
3
 72
9
 73
5
 74
0
 42
0.0000001
 43
0.0000001
 44
0.0000000001
 40
0.0
 40
0.0
 40
0.0
 40
0.0
 40
0.2405140864
 40
1.0
 40
1.0
 40
1.0
 40
1.0
 10
111.1649036075
 20
576.8082342808
 30
0.0
 10
111.2253259203
 20
576.7560417251
 30
0.0
 10
111.4746419721
 20
576.5372618372
 30
0.0
 10
111.7088141956
 20
576.2977827815
 30
0.0
 10
111.8589111332
 20
576.0952041375
 30
0.0
  0
SPLINE
  5
650
100
AcDbEntity
  8
0
100
AcDbSpline
 62
7
  6
BYLAYER
 70
0
 71
3
 72
8
 73
4
 74
0
 42
0.0000001
 43
0.0000001
 44
0.0000000001
 40
0.0
 40
0.0
 40
0.0
 40
0.0
 40
1.0
 40
1.0
 40
1.0
 40
1.0
 10
111.8589111332
 20
576.0952041375
 30
0.0
 10
111.9486835229
 20
575.9740426451
 30
0.0
 10
112.0291446144
 20
575.8442903552
 30
0.0
 10
112.0901666179
 20
575.7063936391
 30
0.0
  0
SPLINE
  5
651
100
AcDbEntity
  8
0
100
AcDbSpline
 62
7
  6
BYLAYER
 70
0
 71
3
 72
8
 73
4
 74
0
 42
0.0000001
 43
0.0000001
 44
0.0000000001
 40
0.0
 40
0.0
 40
0.0
 40
0.0
 40
1.0
 40
1.0
 40
1.0
 40
1.0
 10
112.1907421906
 20
575.3259351374
 30
0.0
 10
112.1931793459
 20
575.2976619276
 30
0.0
 10
112.1947166888
 20
575.2693073241
 30
0.0
 10
112.1957370037
 20
575.2409476155
 30
0.0
  0
SPLINE
  5
652
100
AcDbEntity
  8
0
100
AcDbSpline
 62
7
  6
BYLAYER
 70
0
 71
3
 72
9
 73
5
 74
0
 42
0.0000001
 43
0.0000001
 44
0.0000000001
 40
0.0
 40
0.0
 40
0.0
 40
0.0
 40
0.7523363589
 40
1.0
 40
1.0
 40
1.0
 40
1.0
 10
110.3395739752
 20
577.7880249795
 30
0.0
 10
110.346974329
 20
577.6061458571
 30
0.0
 10
110.5175272551
 20
577.3901127072
 30
0.0
 10
110.6892411409
 20
577.2258137031
 30
0.0
 10
110.7334865835
 20
577.185402253
 30
0.0
  0
SPLINE
  5
653
100
AcDbEntity
  8
0
100
AcDbSpline
 62
7
  6
BYLAYER
 70
0
 71
3
 72
8
 73
4
 74
0
 42
0.0000001
 43
0.0000001
 44
0.0000000001
 40
0.0
 40
0.0
 40
0.0
 40
0.0
 40
1.0
 40
1.0
 40
1.0
 40
1.0
 10
110.7334865835
 20
577.185402253
 30
0.0
 10
110.8197245336
 20
577.106637065
 30
0.0
 10
110.9083255894
 20
577.0304950261
 30
0.0
 10
110.9963629104
 20
576.9537462867
 30
0.0
  0
SPLINE
  5
654
100
AcDbEntity
  8
0
100
AcDbSpline
 62
7
  6
BYLAYER
 70
0
 71
3
 72
8
 73
4
 74
0
 42
0.0000001
 43
0.0000001
 44
0.0000000001
 40
0.0
 40
0.0
 40
0.0
 40
0.0
 40
1.0
 40
1.0
 40
1.0
 40
1.0
 10
268.126718159
 20
233.9839636973
 30
0.0
 10
268.1899225786
 20
234.0204557843
 30
0.0
 10
268.2694569904
 20
234.0319253303
 30
0.0
 10
268.3419956217
 20
234.0238867949
 30
0.0
  0
SPLINE
  5
655
100
AcDbEntity
  8
0
100
AcDbSpline
 62
7
  6
BYLAYER
 70
0
 71
3
 72
8
 73
4
 74
0
 42
0.0000001
 43
0.0000001
 44
0.0000000001
 40
0.0
 40
0.0
 40
0.0
 40
0.0
 40
1.0
 40
1.0
 40
1.0
 40
1.0
 10
268.3419956217
 20
234.0238867949
 30
0.0
 10
268.3934254114
 20
234.0181874844
 30
0.0
 10
268.4441592533
 20
234.0044006007
 30
0.0
 10
268.4925615313
 20
233.9861051122
 30
0.0
  0
SPLINE
  5
656
100
AcDbEntity
  8
0
100
AcDbSpline
 62
7
  6
BYLAYER
 70
0
 71
3
 72
9
 73
5
 74
0
 42
0.0000001
 43
0.0000001
 44
0.0000000001
 40
0.0
 40
0.0
 40
0.0
 40
0.0
 40
0.2242874103
 40
1.0
 40
1.0
 40
1.0
 40
1.0
 10
268.4925615313
 20
233.9861051122
 30
0.0
 10
268.5439945336
 20
233.9666640458
 30
0.0
 10
268.7646883931
 20
233.8558396785
 30
0.0
 10
268.9399339194
 20
233.6775768983
 30
0.0
 10
269.0756116007
 20
233.5443275275
 30
0.0
  0
ENDSEC
  0
SECTION
  2
OBJECTS
  0
DICTIONARY
  5
C
100
AcDbDictionary
280
0
281
1
  3
ACAD_GROUP
350
D
  3
ACAD_MLINESTYLE
350
17
  3
ACAD_LAYOUT
350
1A
  3
ACAD_PLOTSETTINGS
350
19
  3
ACAD_PLOTSTYLENAME
350
E
  0
DICTIONARY
  5
D
102
{ACAD_REACTORS
330
C
102
}
100
AcDbDictionary
280
0
281
1
  0
ACDBDICTIONARYWDFLT
  5
E
102
{ACAD_REACTORS
330
C
102
}
100
AcDbDictionary
281
1
  3
Normal
350
F
100
AcDbDictionaryWithDefault
340
F
  0
DICTIONARY
  5
17
102
{ACAD_REACTORS
330
C
102
}
100
AcDbDictionary
280
0
281
1
  3
Standard
350
18
  0
DICTIONARY
  5
19
102
{ACAD_REACTORS
330
C
102
}
100
AcDbDictionary
281
1
  0
DICTIONARY
  5
1A
102
{ACAD_REACTORS
330
C
102
}
100
AcDbDictionary
281
1
  3
Model
350
657
  3
Layout1
350
658
  0
ACDBPLACEHOLDER
  5
F
102
{ACAD_REACTORS
330
E
102
}
  0
MLINESTYLE
  5
18
102
{ACAD_REACTORS
330
17
102
}
100
AcDbMlineStyle
  2
STANDARD
 70
0
  3

 62
256
 51
90.0
 52
90.0
 71
2
 49
0.5
 62
256
  6
BYLAYER
 49
-0.5
 62
256
  6
BYLAYER
  0
LAYOUT
  5
657
102
{ACAD_REACTORS
330
1A
102
}
100
AcDbPlotSettings
  1

  2
none_device
  4

  6

 40
0.0
 41
0.0
 42
0.0
 43
0.0
 44
210.0
 45
297.0
 46
0.0
 47
0.0
 48
0.0
 49
0.0
140
0.0
141
0.0
142
1.0
143
1.0
 70
1024
 72
1
 73
0
 74
0
  7

 75
0
147
1.0
148
0.0
149
0.0
100
AcDbLayout
  1
Model
 70
0
 71
0
 10
0.0
 20
0.0
 11
210.0
 21
297.0
 12
0.0
 22
0.0
 32
0.0
 14
0.0
 24
0.0
 34
0.0
 15
0.0
 25
0.0
 35
0.0
146
0.0
 13
0.0
 23
0.0
 33
0.0
 16
1.0
 26
0.0
 36
0.0
 17
0.0
 27
1.0
 37
0.0
 76
0
330
210
345
0
346
0
  0
LAYOUT
  5
658
102
{ACAD_REACTORS
330
1A
102
}
100
AcDbPlotSettings
  1

  2
none_device
  4

  6

 40
0.0
 41
0.0
 42
0.0
 43
0.0
 44
210.0
 45
297.0
 46
0.0
 47
0.0
 48
0.0
 49
0.0
140
0.0
141
0.0
142
1.0
143
1.0
 70
0
 72
1
 73
0
 74
0
  7

 75
0
147
1.0
148
0.0
149
0.0
100
AcDbLayout
  1
Layout1
 70
0
 71
1
 10
0.0
 20
0.0
 11
210.0
 21
297.0
 12
0.0
 22
0.0
 32
0.0
 14
0.0
 24
0.0
 34
0.0
 15
0.0
 25
0.0
 35
0.0
146
0.0
 13
0.0
 23
0.0
 33
0.0
 16
1.0
 26
0.0
 36
0.0
 17
0.0
 27
1.0
 37
0.0
 76
0
330
211
345
0
346
0
  0
ENDSEC
  0
EOF
