999
DXF file: C:\Users\sesa63760\Dev\_Creo\CAD\MCADPD0005316_3D-CAD\drw0001_5.dxf
999
Pro/ENGINEER 2019471 by Parametric Technology Corporation
  0
SECTION
  2
HEADER
  9
$ACADVER
  1
AC1024
  9
$DWGCODEPAGE
  3
ANSI_1252
  9
$EXTMAX
 10
303.3123422915
 20
428.9703126693
 30
0.0
  9
$EXTMIN
 10
0.0
 20
0.0
 30
0.0
  9
$LIMMIN
 10
0.0
 20
0.0
  9
$LIMMAX
 10
303.3123422915
 20
428.9703126693
  9
$VIEWCTR
 10
151.6561711457
 20
214.4851563347
  9
$VIEWSIZE
 40
428.9703126693
  9
$CLAYER
  8
0
  9
$LTSCALE
 40
27.9625092703
  9
$CELTYPE
  6
BYLAYER
  9
$DIMSCALE
 40
1.0
  9
$DIMASZ
 40
3.6108612178
  9
$DIMEXO
 40
1.0
  9
$DIMDLI
 40
19.3195518595
  9
$DIMEXE
 40
1.0
  9
$DIMCEN
 40
4.5756833351
  9
$DIMLFAC
 40
1.0
  9
$DIMBLK
  1
_FILLED
  9
$DIMALT
 70
0
  9
$DIMALTF
 40
0.0393700787
  9
$DIMTXT
 40
5.0552057049
  9
$DIMTOL
 70
1
  9
$DIMLIM
 70
0
  9
$DIMTFAC
 40
1.0
  9
$DIMTP
 40
0.01
  9
$DIMTM
 40
0.01
  9
$DIMGAP
 40
0.625
  9
$DIMDSEP
 70
46
  9
$AUNITS
 70
0
  9
$PDMODE
 70
3
  9
$PDSIZE
 40
0.3125
  9
$HANDSEED
  5
28E
  9
$TILEMODE
 70
1
  9
$MEASUREMENT
 70
1
  9
$INSUNITS
 70
4
  0
ENDSEC
  0
SECTION
  2
CLASSES
  0
CLASS
  1
ACDBDICTIONARYWDFLT
  2
AcDbDictionaryWithDefault
  3
AutoCAD 2000
 90
0
 91
1
280
0
281
0
  0
CLASS
  1
ACDBPLACEHOLDER
  2
AcDbPlaceHolder
  3
AutoCAD 2000
 90
0
 91
1
280
0
281
0
  0
CLASS
  1
LAYOUT
  2
AcDbLayout
  3
AutoCAD 2000
 90
0
 91
0
280
0
281
0
  0
ENDSEC
  0
SECTION
  2
TABLES
  0
TABLE
  2
VPORT
  5
8
100
AcDbSymbolTable
 70
2
  0
VPORT
  5
1F4
100
AcDbSymbolTableRecord
100
AcDbViewportTableRecord
  2
*ACTIVE
 70
0
 10
0.0
 20
0.0
 11
1.0
 21
1.0
 12
151.6561711457
 22
214.4851563347
 13
0.0
 23
0.0
 14
1.0
 24
1.0
 15
0.0
 25
0.0
 16
0.0
 26
0.0
 36
1.0
 17
0.0
 27
0.0
 37
0.0
 40
428.9703126693
 41
0.7070707071
 42
50.0
 43
0.0
 44
0.0
 50
0.0
 51
0.0
 71
0
 72
100
 73
1
 74
1
 75
0
 76
0
 77
0
 78
0
  0
ENDTAB
  0
TABLE
  2
LTYPE
  5
5
100
AcDbSymbolTable
 70
6
  0
LTYPE
  5
14
100
AcDbSymbolTableRecord
100
AcDbLinetypeTableRecord
  2
BYBLOCK
 70
0
  3

 72
65
 73
0
 40
0.0
  0
LTYPE
  5
15
100
AcDbSymbolTableRecord
100
AcDbLinetypeTableRecord
  2
BYLAYER
 70
0
  3

 72
65
 73
0
 40
0.0
  0
LTYPE
  5
16
100
AcDbSymbolTableRecord
100
AcDbLinetypeTableRecord
  2
CONTINUOUS
 70
64
  3
Solid line
 72
65
 73
0
 40
0.0
  0
LTYPE
  5
1F5
100
AcDbSymbolTableRecord
100
AcDbLinetypeTableRecord
  2
CENTER
 70
64
  3
____ _ ____ _ ____ _ ____ _ ____ _ ____ _ ____
 72
65
 73
4
 40
0.6
 49
0.375
 74
0
 49
-0.075
 74
0
 49
0.075
 74
0
 49
-0.075
 74
0
  0
LTYPE
  5
1F6
100
AcDbSymbolTableRecord
100
AcDbLinetypeTableRecord
  2
HIDDEN
 70
64
  3
- - - - - - - - - - - - - - - - - - - -
 72
65
 73
2
 40
0.2
 49
0.1
 74
0
 49
-0.1
 74
0
  0
LTYPE
  5
1F7
100
AcDbSymbolTableRecord
100
AcDbLinetypeTableRecord
  2
PHANTOM
 70
64
  3
_____ _ _ _____ _ _ _____ _ _ _____
 72
65
 73
6
 40
0.8
 49
0.45
 74
0
 49
-0.05
 74
0
 49
0.1
 74
0
 49
-0.05
 74
0
 49
0.1
 74
0
 49
-0.05
 74
0
  0
LTYPE
  5
1F8
100
AcDbSymbolTableRecord
100
AcDbLinetypeTableRecord
  2
DOT
 70
64
  3
. . . . . . . . . . . . . . . . . . . .
 72
65
 73
2
 40
0.2
 49
0.1
 74
0
 49
-0.1
 74
0
  0
LTYPE
  5
1F9
100
AcDbSymbolTableRecord
100
AcDbLinetypeTableRecord
  2
DASHED
 70
64
  3
- - - - - - - - - - - - - - - - - - - -
 72
65
 73
2
 40
0.2
 49
0.1
 74
0
 49
-0.1
 74
0
  0
ENDTAB
  0
TABLE
  2
LAYER
  5
2
100
AcDbSymbolTable
 70
36
  0
LAYER
  5
10
100
AcDbSymbolTableRecord
100
AcDbLayerTableRecord
  2
0
 70
0
 62
7
  6
CONTINUOUS
370
-3
390
F
  0
LAYER
  5
1FA
100
AcDbSymbolTableRecord
100
AcDbLayerTableRecord
  2
DEFAULT_1
 70
0
 62
7
  6
CENTER
370
-3
390
F
  0
LAYER
  5
1FB
100
AcDbSymbolTableRecord
100
AcDbLayerTableRecord
  2
DEFAULT_2
 70
0
 62
7
  6
HIDDEN
370
-3
390
F
  0
LAYER
  5
1FC
100
AcDbSymbolTableRecord
100
AcDbLayerTableRecord
  2
DEFAULT_3
 70
0
 62
7
  6
PHANTOM
370
-3
390
F
  0
LAYER
  5
1FD
100
AcDbSymbolTableRecord
100
AcDbLayerTableRecord
  2
00_COMPONENTS
 70
0
 62
7
  6
CONTINUOUS
370
-3
390
F
  0
LAYER
  5
1FE
100
AcDbSymbolTableRecord
100
AcDbLayerTableRecord
  2
01_1_DEFAULT_DATUMS
 70
0
 62
7
  6
CONTINUOUS
370
-3
390
F
  0
LAYER
  5
1FF
100
AcDbSymbolTableRecord
100
AcDbLayerTableRecord
  2
01_PLANES
 70
0
 62
7
  6
CONTINUOUS
370
-3
390
F
  0
LAYER
  5
200
100
AcDbSymbolTableRecord
100
AcDbLayerTableRecord
  2
02_COORD_SYS
 70
0
 62
7
  6
CONTINUOUS
370
-3
390
F
  0
LAYER
  5
201
100
AcDbSymbolTableRecord
100
AcDbLayerTableRecord
  2
03_AXES
 70
0
 62
7
  6
CONTINUOUS
370
-3
390
F
  0
LAYER
  5
202
100
AcDbSymbolTableRecord
100
AcDbLayerTableRecord
  2
04_POINTS
 70
0
 62
7
  6
CONTINUOUS
370
-3
390
F
  0
LAYER
  5
203
100
AcDbSymbolTableRecord
100
AcDbLayerTableRecord
  2
05_CURVES
 70
0
 62
7
  6
CONTINUOUS
370
-3
390
F
  0
LAYER
  5
204
100
AcDbSymbolTableRecord
100
AcDbLayerTableRecord
  2
06_SURFS
 70
0
 62
7
  6
CONTINUOUS
370
-3
390
F
  0
LAYER
  5
205
100
AcDbSymbolTableRecord
100
AcDbLayerTableRecord
  2
07_COSMETICS
 70
0
 62
7
  6
CONTINUOUS
370
-3
390
F
  0
LAYER
  5
206
100
AcDbSymbolTableRecord
100
AcDbLayerTableRecord
  2
10_NOTES
 70
0
 62
7
  6
CONTINUOUS
370
-3
390
F
  0
LAYER
  5
207
100
AcDbSymbolTableRecord
100
AcDbLayerTableRecord
  2
11_NOTES_PUB
 70
0
 62
7
  6
CONTINUOUS
370
-3
390
F
  0
LAYER
  5
208
100
AcDbSymbolTableRecord
100
AcDbLayerTableRecord
  2
13_REF_GTOL
 70
0
 62
7
  6
CONTINUOUS
370
-3
390
F
  0
LAYER
  5
209
100
AcDbSymbolTableRecord
100
AcDbLayerTableRecord
  2
16_MISC
 70
0
 62
7
  6
CONTINUOUS
370
-3
390
F
  0
LAYER
  5
20A
100
AcDbSymbolTableRecord
100
AcDbLayerTableRecord
  2
17_NO_PRINT
 70
0
 62
7
  6
CONTINUOUS
370
-3
390
F
  0
LAYER
  5
20B
100
AcDbSymbolTableRecord
100
AcDbLayerTableRecord
  2
18_DATUM_CAMS_JOINTS
 70
0
 62
7
  6
CONTINUOUS
370
-3
390
F
  0
LAYER
  5
20C
100
AcDbSymbolTableRecord
100
AcDbLayerTableRecord
  2
19_DATUM_FUNCTIONAL
 70
0
 62
7
  6
CONTINUOUS
370
-3
390
F
  0
LAYER
  5
20D
100
AcDbSymbolTableRecord
100
AcDbLayerTableRecord
  2
20_DATUM_KINEMATIC_SCHEME
 70
0
 62
7
  6
CONTINUOUS
370
-3
390
F
  0
ENDTAB
  0
TABLE
  2
STYLE
  5
3
100
AcDbSymbolTable
 70
1
  0
STYLE
  5
11
100
AcDbSymbolTableRecord
100
AcDbTextStyleTableRecord
  2
STANDARD
 70
0
 40
0.0
 41
1.0
 50
0.0
 71
0
 42
0.2
  3
ARIAL.TTF
  4

  0
STYLE
  5
20E
100
AcDbSymbolTableRecord
100
AcDbTextStyleTableRecord
  2
TEXTSTYLE_1
 70
0
 40
0.0
 41
0.8
 50
0.0
 71
0
 42
0.2
  3
gdt
  4

  0
ENDTAB
  0
TABLE
  2
VIEW
  5
6
100
AcDbSymbolTable
 70
0
  0
ENDTAB
  0
TABLE
  2
UCS
  5
7
100
AcDbSymbolTable
 70
0
  0
ENDTAB
  0
TABLE
  2
APPID
  5
9
100
AcDbSymbolTable
 70
1
  0
APPID
  5
20F
100
AcDbSymbolTableRecord
100
AcDbRegAppTableRecord
  2
ACAD
 70
0
  0
ENDTAB
  0
TABLE
  2
BLOCK_RECORD
  5
1
100
AcDbSymbolTable
 70
0
  0
BLOCK_RECORD
  5
210
100
AcDbSymbolTableRecord
100
AcDbBlockTableRecord
  2
*Model_Space
  0
BLOCK_RECORD
  5
211
100
AcDbSymbolTableRecord
100
AcDbBlockTableRecord
  2
*Paper_Space
  0
BLOCK_RECORD
  5
212
100
AcDbSymbolTableRecord
100
AcDbBlockTableRecord
  2
_FILLED
  0
ENDTAB
  0
TABLE
  2
DIMSTYLE
  5
A
100
AcDbSymbolTable
 70
1
100
AcDbDimStyleTable
 71
0
  0
DIMSTYLE
105
213
100
AcDbSymbolTableRecord
100
AcDbDimStyleTableRecord
  2
STANDARD
 70
0
  3

  4

 40
1.0
 41
3.6108612178
 42
1.0
 43
0.38
 44
1.0
 45
0.0
 46
0.0
 47
0.01
 48
0.01
140
5.0552057049
141
0.09
142
0.0
143
25.4
144
1.0
145
0.0
146
1.0
147
0.625
 71
1
 72
0
 73
0
 74
0
 75
0
 76
0
 77
1
 78
8
 79
2
170
0
171
1
172
0
173
0
174
0
175
0
176
0
177
0
178
0
270
2
179
2
271
2
272
2
273
2
274
2
275
0
280
0
281
0
282
0
283
1
284
8
285
0
286
0
287
3
288
0
340
11
278
46
341
212
342
212
343
212
344
212
  0
ENDTAB
  0
ENDSEC
  0
SECTION
  2
BLOCKS
  0
BLOCK
  5
20
100
AcDbEntity
  8
0
100
AcDbBlockBegin
  2
*Model_Space
 70
0
 10
0.0
 20
0.0
 30
0.0
  3
*Model_Space
  1

  0
ENDBLK
  5
21
100
AcDbEntity
  8
0
100
AcDbBlockEnd
  0
BLOCK
  5
1C
100
AcDbEntity
  8
0
100
AcDbBlockBegin
  2
*Paper_Space
 70
0
 10
0.0
 20
0.0
 30
0.0
  3
*Paper_Space
  1

  0
ENDBLK
  5
1D
100
AcDbEntity
  8
0
100
AcDbBlockEnd
  0
BLOCK
  5
214
100
AcDbEntity
  8
0
100
AcDbBlockBegin
  2
_FILLED
 70
64
 10
0.0
 20
0.0
  3
_FILLED
  1

  0
SOLID
  5
215
100
AcDbEntity
  8
0
  6
BYBLOCK
 62
0
100
AcDbTrace
 10
0.0
 20
0.0
 11
-1.0
 21
0.25
 12
-1.0
 22
-0.25
 13
-1.0
 23
-0.25
  0
ENDBLK
  5
216
100
AcDbEntity
  8
0
  6
BYBLOCK
 62
0
100
AcDbBlockEnd
  0
ENDSEC
  0
SECTION
  2
ENTITIES
  0
LINE
  5
217
100
AcDbEntity
  8
0
100
AcDbLine
 62
7
  6
BYLAYER
 10
35.3566150524
 20
225.1601914011
 11
35.3566150524
 21
242.0753335427
  0
LINE
  5
218
100
AcDbEntity
  8
0
100
AcDbLine
 62
7
  6
BYLAYER
 10
38.2566150524
 20
120.3601914011
 11
38.2566150524
 21
225.1601914011
  0
LINE
  5
219
100
AcDbEntity
  8
0
100
AcDbLine
 62
7
  6
BYLAYER
 10
40.8566150524
 20
245.5601914011
 11
40.8566150524
 21
245.6304473149
  0
LINE
  5
21A
100
AcDbEntity
  8
0
100
AcDbLine
 62
7
  6
BYLAYER
 10
42.8572667665
 20
246.4287785961
 11
42.8572667665
 21
245.5601914011
  0
LINE
  5
21B
100
AcDbEntity
  8
0
100
AcDbLine
 62
7
  6
BYLAYER
 10
43.5643735477
 20
245.5601914011
 11
43.5643735477
 21
246.4287785961
  0
LINE
  5
21C
100
AcDbEntity
  8
0
100
AcDbLine
 62
7
  6
BYLAYER
 10
48.3566150524
 20
225.1601914011
 11
48.3566150524
 21
120.3601914011
  0
LINE
  5
21D
100
AcDbEntity
  8
0
100
AcDbLine
 62
7
  6
BYLAYER
 10
47.8766150525
 20
225.1601914011
 11
47.8805451644
 21
242.0755209512
  0
LINE
  5
21E
100
AcDbEntity
  8
0
100
AcDbLine
 62
7
  6
BYLAYER
 10
56.8566150524
 20
247.4514603992
 11
56.8566150524
 21
247.5601914011
  0
LINE
  5
21F
100
AcDbEntity
  8
0
100
AcDbLine
 62
7
  6
BYLAYER
 10
38.2566150524
 20
120.3601914011
 11
273.4566150524
 21
120.3601914011
  0
LINE
  5
220
100
AcDbEntity
  8
0
100
AcDbLine
 62
7
  6
BYLAYER
 10
110.8566150524
 20
247.5601914011
 11
110.8566150524
 21
254.1601914011
  0
LINE
  5
221
100
AcDbEntity
  8
0
100
AcDbLine
 62
7
  6
BYLAYER
 10
114.3566150524
 20
247.5601914011
 11
114.3566150524
 21
255.1601914011
  0
LINE
  5
222
100
AcDbEntity
  8
0
100
AcDbLine
 62
7
  6
BYLAYER
 10
133.8566150524
 20
255.1601914011
 11
133.8566150524
 21
308.1601914011
  0
LINE
  5
223
100
AcDbEntity
  8
0
100
AcDbLine
 62
7
  6
BYLAYER
 10
137.1102439474
 20
309.6601914011
 11
137.1102439474
 21
308.225620495
  0
LINE
  5
224
100
AcDbEntity
  8
0
100
AcDbLine
 62
7
  6
BYLAYER
 10
145.0566150524
 20
308.1601914011
 11
145.0566150524
 21
309.6601914011
  0
LINE
  5
225
100
AcDbEntity
  8
0
100
AcDbLine
 62
7
  6
BYLAYER
 10
145.1566150524
 20
308.1601914011
 11
145.1566150524
 21
309.6601914011
  0
LINE
  5
226
100
AcDbEntity
  8
0
100
AcDbLine
 62
7
  6
BYLAYER
 10
35.3566150524
 20
225.1601914011
 11
276.3566150524
 21
225.1601914011
  0
LINE
  5
227
100
AcDbEntity
  8
0
100
AcDbLine
 62
7
  6
BYLAYER
 10
174.3284064529
 20
292.2346689506
 11
174.083950673
 21
279.3112362963
  0
LINE
  5
228
100
AcDbEntity
  8
0
100
AcDbLine
 62
7
  6
BYLAYER
 10
177.8566150524
 20
255.1601914011
 11
177.8566150524
 21
288.0601914011
  0
LINE
  5
229
100
AcDbEntity
  8
0
100
AcDbLine
 62
7
  6
BYLAYER
 10
263.8326738667
 20
242.0755524923
 11
47.8805451644
 21
242.0755209512
  0
LINE
  5
22A
100
AcDbEntity
  8
0
100
AcDbLine
 62
7
  6
BYLAYER
 10
40.7063132664
 20
245.5601914011
 11
50.1202687812
 21
245.5601914011
  0
LINE
  5
22B
100
AcDbEntity
  8
0
100
AcDbLine
 62
7
  6
BYLAYER
 10
261.5929613237
 20
245.5601914011
 11
271.0836979787
 21
245.5601914011
  0
LINE
  5
22C
100
AcDbEntity
  8
0
100
AcDbLine
 62
7
  6
BYLAYER
 10
197.3566150524
 20
247.5601914011
 11
197.3566150524
 21
255.1601914011
  0
LINE
  5
22D
100
AcDbEntity
  8
0
100
AcDbLine
 62
7
  6
BYLAYER
 10
48.1228575009
 20
247.5601914011
 11
56.855299269
 21
247.5601914011
  0
LINE
  5
22E
100
AcDbEntity
  8
0
100
AcDbLine
 62
7
  6
BYLAYER
 10
57.073847606
 20
247.5601914011
 11
254.6393824989
 21
247.5601914011
  0
LINE
  5
22F
100
AcDbEntity
  8
0
100
AcDbLine
 62
7
  6
BYLAYER
 10
254.8566150524
 20
247.5601914011
 11
263.5911823811
 21
247.5601914011
  0
LINE
  5
230
100
AcDbEntity
  8
0
100
AcDbLine
 62
7
  6
BYLAYER
 10
200.8566150524
 20
254.1601914011
 11
110.8566150524
 21
254.1601914011
  0
LINE
  5
231
100
AcDbEntity
  8
0
100
AcDbLine
 62
7
  6
BYLAYER
 10
111.8566150524
 20
255.1601914011
 11
199.8566150524
 21
255.1601914011
  0
LINE
  5
232
100
AcDbEntity
  8
0
100
AcDbLine
 62
7
  6
BYLAYER
 10
200.8566150524
 20
247.5601914011
 11
200.8566150524
 21
254.1601914011
  0
LINE
  5
233
100
AcDbEntity
  8
0
100
AcDbLine
 62
7
  6
BYLAYER
 10
164.9237554317
 20
269.6601914011
 11
146.7894746732
 21
269.6601914011
  0
LINE
  5
234
100
AcDbEntity
  8
0
100
AcDbLine
 62
7
  6
BYLAYER
 10
164.0994699476
 20
271.6601914011
 11
147.6137601515
 21
271.6601914011
  0
LINE
  5
235
100
AcDbEntity
  8
0
100
AcDbLine
 62
7
  6
BYLAYER
 10
137.6292386733
 20
279.3112363023
 11
174.083950673
 21
279.3112362963
  0
LINE
  5
236
100
AcDbEntity
  8
0
100
AcDbLine
 62
7
  6
BYLAYER
 10
177.1135224871
 20
288.0601914011
 11
247.8562973126
 21
288.0601914011
  0
LINE
  5
237
100
AcDbEntity
  8
0
100
AcDbLine
 62
7
  6
BYLAYER
 10
174.3284064529
 20
292.2346689506
 11
242.2016150391
 21
292.2346689506
  0
LINE
  5
238
100
AcDbEntity
  8
0
100
AcDbLine
 62
7
  6
BYLAYER
 10
242.2016150237
 20
288.0601914011
 11
242.201615037
 21
309.6601914011
  0
LINE
  5
239
100
AcDbEntity
  8
0
100
AcDbLine
 62
7
  6
BYLAYER
 10
145.1566150524
 20
308.1601914011
 11
145.0566150524
 21
308.1601914011
  0
LINE
  5
23A
100
AcDbEntity
  8
0
100
AcDbLine
 62
7
  6
BYLAYER
 10
135.23521614
 20
308.1601914011
 11
133.8566150524
 21
308.1601914011
  0
LINE
  5
23B
100
AcDbEntity
  8
0
100
AcDbLine
 62
7
  6
BYLAYER
 10
242.2016150316
 20
308.2256204824
 11
145.1566150524
 21
308.2256204821
  0
LINE
  5
23C
100
AcDbEntity
  8
0
100
AcDbLine
 62
7
  6
BYLAYER
 10
145.0566150524
 20
308.2256204822
 11
137.1102337702
 21
308.2256205078
  0
LINE
  5
23D
100
AcDbEntity
  8
0
100
AcDbLine
 62
7
  6
BYLAYER
 10
251.8566150524
 20
292.2702286431
 11
251.8566052615
 21
292.0601057382
  0
LINE
  5
23E
100
AcDbEntity
  8
0
100
AcDbLine
 62
7
  6
BYLAYER
 10
254.8566150524
 20
247.4509354341
 11
254.8566150524
 21
247.5601914011
  0
LINE
  5
23F
100
AcDbEntity
  8
0
100
AcDbLine
 62
7
  6
BYLAYER
 10
256.8572667665
 20
246.6593468434
 11
256.8572667665
 21
246.5597312912
  0
LINE
  5
240
100
AcDbEntity
  8
0
100
AcDbLine
 62
7
  6
BYLAYER
 10
257.5643735477
 20
246.3145317277
 11
257.5643735477
 21
246.4287785961
  0
LINE
  5
241
100
AcDbEntity
  8
0
100
AcDbLine
 62
7
  6
BYLAYER
 10
135.3566338395
 20
309.6601914011
 11
145.0566150524
 21
309.6601914011
  0
LINE
  5
242
100
AcDbEntity
  8
0
100
AcDbLine
 62
7
  6
BYLAYER
 10
145.1566150524
 20
309.6601914011
 11
250.3267235286
 21
309.6601914011
  0
LINE
  5
243
100
AcDbEntity
  8
0
100
AcDbLine
 62
7
  6
BYLAYER
 10
263.8366150525
 20
225.1601914011
 11
263.8326738667
 21
242.0755524923
  0
LINE
  5
244
100
AcDbEntity
  8
0
100
AcDbLine
 62
7
  6
BYLAYER
 10
263.3566150524
 20
120.3601914011
 11
263.3566150524
 21
225.1601914011
  0
LINE
  5
245
100
AcDbEntity
  8
0
100
AcDbLine
 62
7
  6
BYLAYER
 10
270.8566150524
 20
245.5601914011
 11
270.8566150524
 21
245.6304473149
  0
LINE
  5
246
100
AcDbEntity
  8
0
100
AcDbLine
 62
7
  6
BYLAYER
 10
273.4566150524
 20
225.1601914011
 11
273.4566150524
 21
120.3601914011
  0
LINE
  5
247
100
AcDbEntity
  8
0
100
AcDbLine
 62
7
  6
BYLAYER
 10
276.3566150524
 20
225.1601914011
 11
276.3566150524
 21
242.0754807495
  0
ARC
  5
248
100
AcDbEntity
  8
0
100
AcDbCircle
 62
7
  6
BYLAYER
 10
-4809.5567355016
 20
292.2803606222
 40
5061.4133505641
100
AcDbArc
 50
359.9998853048
 51
0.1798149833
  0
ARC
  5
249
100
AcDbEntity
  8
0
100
AcDbCircle
 62
7
  6
BYLAYER
 10
261.534474534
 20
225.1747959667
 40
22.4796791775
100
AcDbArc
 50
48.7483506858
 51
65.2001818983
  0
ARC
  5
24A
100
AcDbEntity
  8
0
100
AcDbCircle
 62
7
  6
BYLAYER
 10
50.1787555708
 20
225.1747959667
 40
22.4796791775
100
AcDbArc
 50
114.7966540451
 51
131.2516507286
  0
ARC
  5
24B
100
AcDbEntity
  8
0
100
AcDbCircle
 62
7
  6
BYLAYER
 10
50.1787555708
 20
225.1747959667
 40
22.4796791775
100
AcDbArc
 50
95.2473836981
 51
114.5015843515
  0
ARC
  5
24C
100
AcDbEntity
  8
0
100
AcDbCircle
 62
7
  6
BYLAYER
 10
261.534474534
 20
225.1747959667
 40
22.4796791775
100
AcDbArc
 50
65.5013676589
 51
84.7505610069
  0
ARC
  5
24D
100
AcDbEntity
  8
0
100
AcDbCircle
 62
7
  6
BYLAYER
 10
263.0548749505
 20
264.4591096821
 40
18.9594553937
100
AcDbArc
 50
253.3365678823
 51
253.5401845409
  0
ARC
  5
24E
100
AcDbEntity
  8
0
100
AcDbCircle
 62
7
  6
BYLAYER
 10
263.0458159179
 20
264.4288343021
 40
18.9278537372
100
AcDbArc
 50
253.1451938315
 51
253.3365593018
  0
ARC
  5
24F
100
AcDbEntity
  8
0
100
AcDbCircle
 62
7
  6
BYLAYER
 10
263.038847143
 20
264.4058183051
 40
18.9038058698
100
AcDbArc
 50
253.0199616766
 51
253.1451816659
  0
ARC
  5
250
100
AcDbEntity
  8
0
100
AcDbCircle
 62
7
  6
BYLAYER
 10
262.9533319253
 20
264.0931233042
 40
18.4680791194
100
AcDbArc
 50
253.0343377635
 51
263.9414234942
  0
ARC
  5
251
100
AcDbEntity
  8
0
100
AcDbCircle
 62
7
  6
BYLAYER
 10
262.865950075
 20
263.4235090638
 40
17.7929896631
100
AcDbArc
 50
263.9936515899
 51
265.8917528198
  0
ARC
  5
252
100
AcDbEntity
  8
0
100
AcDbCircle
 62
7
  6
BYLAYER
 10
262.8622481055
 20
263.285816115
 40
17.6553863848
100
AcDbArc
 50
265.8717232454
 51
269.9817194899
  0
ARC
  5
253
100
AcDbEntity
  8
0
100
AcDbCircle
 62
7
  6
BYLAYER
 10
48.8508403177
 20
263.2790140273
 40
17.6486942027
100
AcDbArc
 50
270.0187478245
 51
274.1840606497
  0
ARC
  5
254
100
AcDbEntity
  8
0
100
AcDbCircle
 62
7
  6
BYLAYER
 10
262.8564718104
 20
262.7173352967
 40
17.0869046686
100
AcDbArc
 50
270.0004803601
 51
270.469720235
  0
ARC
  5
255
100
AcDbEntity
  8
0
100
AcDbCircle
 62
7
  6
BYLAYER
 10
48.8567524512
 20
262.6964690855
 40
17.0661483167
100
AcDbArc
 50
269.5346033033
 51
269.9995391064
  0
ARC
  5
256
100
AcDbEntity
  8
0
100
AcDbCircle
 62
7
  6
BYLAYER
 10
42.504147052
 20
236.3134458853
 40
9.0054230613
100
AcDbArc
 50
100.0176622055
 51
101.0915331007
  0
ARC
  5
257
100
AcDbEntity
  8
0
100
AcDbCircle
 62
7
  6
BYLAYER
 10
269.2133236404
 20
236.3383721418
 40
8.9801650174
100
AcDbArc
 50
78.4165369008
 51
79.9881841974
  0
ARC
  5
258
100
AcDbEntity
  8
0
100
AcDbCircle
 62
7
  6
BYLAYER
 10
199.8566150524
 20
254.1601914011
 40
1.0
100
AcDbArc
 50
0.0
 51
90.0
  0
ARC
  5
259
100
AcDbEntity
  8
0
100
AcDbCircle
 62
7
  6
BYLAYER
 10
111.8566150524
 20
254.1601914011
 40
1.0
100
AcDbArc
 50
90.0
 51
180.0
  0
ARC
  5
25A
100
AcDbEntity
  8
0
100
AcDbCircle
 62
7
  6
BYLAYER
 10
255.2851535599
 20
248.283921171
 40
0.9716031194
100
AcDbArc
 50
232.8657782469
 51
233.7545705411
  0
ARC
  5
25B
100
AcDbEntity
  8
0
100
AcDbCircle
 62
7
  6
BYLAYER
 10
56.431307999
 20
248.2797645839
 40
0.9663324641
100
AcDbArc
 50
306.2923963432
 51
307.1427632852
  0
ARC
  5
25C
100
AcDbEntity
  8
0
100
AcDbCircle
 62
7
  6
BYLAYER
 10
247.8561390374
 20
292.0604042758
 40
4.0002254819
100
AcDbArc
 50
270.0022873582
 51
359.9957945612
  0
ARC
  5
25D
100
AcDbEntity
  8
0
100
AcDbCircle
 62
7
  6
BYLAYER
 10
135.3566150524
 20
308.1601914011
 40
1.5
100
AcDbArc
 50
90.0
 51
180.0
  0
ARC
  5
25E
100
AcDbEntity
  8
0
100
AcDbCircle
 62
7
  6
BYLAYER
 10
8406.0881735509
 20
442.1895526672
 40
8270.0630290041
100
AcDbArc
 50
180.9281553969
 51
181.1285093582
  0
ARC
  5
25F
100
AcDbEntity
  8
0
100
AcDbCircle
 62
7
  6
BYLAYER
 10
7666.7884526769
 20
442.3919696997
 40
7532.7493204735
100
AcDbArc
 50
181.0210510317
 51
181.241189243
  0
SPLINE
  5
260
100
AcDbEntity
  8
0
100
AcDbSpline
 62
7
  6
BYLAYER
 70
0
 71
3
 72
13
 73
9
 74
0
 42
0.0000001
 43
0.0000001
 44
0.0000000001
 40
0.0
 40
0.0
 40
0.0
 40
0.0
 40
0.3479663846
 40
0.6473952828
 40
0.7708579288
 40
0.8727292351
 40
0.9500132338
 40
1.0
 40
1.0
 40
1.0
 40
1.0
 10
50.1202687812
 20
245.5601914011
 30
0.0
 10
50.9536332864
 20
245.6202278189
 30
0.0
 10
52.4978907438
 20
245.8433597831
 30
0.0
 10
54.2874629351
 20
246.3315311197
 30
0.0
 10
55.4723496974
 20
246.761038641
 30
0.0
 10
56.14367461
 20
247.0406438347
 30
0.0
 10
56.6387404542
 20
247.2799397126
 30
0.0
 10
56.906556151
 20
247.4298332079
 30
0.0
 10
57.0032861949
 20
247.5008940076
 30
0.0
  0
SPLINE
  5
261
100
AcDbEntity
  8
0
100
AcDbSpline
 62
7
  6
BYLAYER
 70
0
 71
3
 72
9
 73
5
 74
0
 42
0.0000001
 43
0.0000001
 44
0.0000000001
 40
0.0
 40
0.0
 40
0.0
 40
0.0
 40
0.2856954764
 40
1.0
 40
1.0
 40
1.0
 40
1.0
 10
57.0147825409
 20
247.5094686082
 30
0.0
 10
57.0206946511
 20
247.5139484797
 30
0.0
 10
57.0411768878
 20
247.5298904094
 30
0.0
 10
57.0609145261
 20
247.54689899
 30
0.0
 10
57.073847606
 20
247.5601914011
 30
0.0
  0
SPLINE
  5
262
100
AcDbEntity
  8
0
100
AcDbSpline
 62
7
  6
BYLAYER
 70
0
 71
3
 72
9
 73
5
 74
0
 42
0.0000001
 43
0.0000001
 44
0.0000000001
 40
0.0
 40
0.0
 40
0.0
 40
0.0
 40
0.2145751085
 40
1.0
 40
1.0
 40
1.0
 40
1.0
 10
254.6393824988
 20
247.5601914011
 30
0.0
 10
254.6432784624
 20
247.5561871926
 30
0.0
 10
254.6619809581
 20
247.5380570646
 30
0.0
 10
254.6823114165
 20
247.5216846507
 30
0.0
 10
254.6986120469
 20
247.5093363304
 30
0.0
  0
SPLINE
  5
263
100
AcDbEntity
  8
0
100
AcDbSpline
 62
7
  6
BYLAYER
 70
0
 71
3
 72
11
 73
7
 74
0
 42
0.0000001
 43
0.0000001
 44
0.0000000001
 40
0.0
 40
0.0
 40
0.0
 40
0.0
 40
0.1381145007
 40
0.357280835
 40
0.6479962688
 40
1.0
 40
1.0
 40
1.0
 40
1.0
 10
254.7106977669
 20
247.5003312504
 30
0.0
 10
254.8239537169
 20
247.4172701466
 30
0.0
 10
255.1448388218
 20
247.2430448639
 30
0.0
 10
255.7409395792
 20
246.9634904377
 30
0.0
 10
256.5562378027
 20
246.6395055847
 30
0.0
 10
257.1758575282
 20
246.4306310151
 30
0.0
 10
257.5182077811
 20
246.3260943747
 30
0.0
  0
SPLINE
  5
264
100
AcDbEntity
  8
0
100
AcDbSpline
 62
7
  6
BYLAYER
 70
0
 71
3
 72
9
 73
5
 74
0
 42
0.0000001
 43
0.0000001
 44
0.0000000001
 40
0.0
 40
0.0
 40
0.0
 40
0.0
 40
0.2278138549
 40
1.0
 40
1.0
 40
1.0
 40
1.0
 10
257.6828496923
 20
246.276637533
 30
0.0
 10
257.9726365287
 20
246.1910196177
 30
0.0
 10
259.2532748179
 20
245.8455165562
 30
0.0
 10
260.571388162
 20
245.6338031799
 30
0.0
 10
261.5929613236
 20
245.5602083658
 30
0.0
  0
SPLINE
  5
265
100
AcDbEntity
  8
0
100
AcDbSpline
 62
7
  6
BYLAYER
 70
0
 71
3
 72
11
 73
7
 74
0
 42
0.0000001
 43
0.0000001
 44
0.0000000001
 40
0.0
 40
0.0
 40
0.0
 40
0.0
 40
0.2500115003
 40
0.5000027197
 40
0.7499943556
 40
1.0
 40
1.0
 40
1.0
 40
1.0
 10
250.3267348846
 20
309.6601654285
 30
0.0
 10
250.5217604028
 20
309.6601796967
 30
0.0
 10
250.9160312755
 20
309.5828074475
 30
0.0
 10
251.4155390044
 20
309.2509649883
 30
0.0
 10
251.7512991412
 20
308.753972145
 30
0.0
 10
251.8307700313
 20
308.3599085067
 30
0.0
 10
251.8313853434
 20
308.1648885266
 30
0.0
  0
SPLINE
  5
266
100
AcDbEntity
  8
0
100
AcDbSpline
 62
7
  6
BYLAYER
 70
0
 71
3
 72
21
 73
17
 74
0
 42
0.0000001
 43
0.0000001
 44
0.0000000001
 40
0.0
 40
0.0
 40
0.0
 40
0.0
 40
0.1944272306
 40
0.3815675672
 40
0.5539901509
 40
0.7052826401
 40
0.771129827
 40
0.8296005525
 40
0.8801279535
 40
0.9222198041
 40
0.9555087521
 40
0.9796535681
 40
0.9882295132
 40
0.9944614855
 40
0.9983541647
 40
1.0
 40
1.0
 40
1.0
 40
1.0
 10
242.2016150354
 20
292.2346871709
 30
0.0
 10
242.8277580884
 20
292.234741373
 30
0.0
 10
244.0565782038
 20
292.2325488044
 30
0.0
 10
245.840654427
 20
292.2229657981
 30
0.0
 10
247.4857685966
 20
292.2075118039
 30
0.0
 10
248.7402192167
 20
292.1895880595
 30
0.0
 10
249.6276311078
 20
292.1721421308
 30
0.0
 10
250.1905723924
 20
292.1586754491
 30
0.0
 10
250.67688371
 20
292.144381475
 30
0.0
 10
251.0822654628
 20
292.1295103521
 30
0.0
 10
251.401977569
 20
292.1140115688
 30
0.0
 10
251.6150483004
 20
292.1000989146
 30
0.0
 10
251.738643282
 20
292.0875363534
 30
0.0
 10
251.8004714712
 20
292.0798109986
 30
0.0
 10
251.8336855989
 20
292.0718110752
 30
0.0
 10
251.8553217577
 20
292.0661909412
 30
0.0
 10
251.8565340633
 20
292.0610311152
 30
0.0
  0
SPLINE
  5
267
100
AcDbEntity
  8
0
100
AcDbSpline
 62
7
  6
BYLAYER
 70
0
 71
3
 72
25
 73
21
 74
0
 42
0.0000001
 43
0.0000001
 44
0.0000000001
 40
0.0
 40
0.0
 40
0.0
 40
0.0
 40
0.1950719994
 40
0.3827323008
 40
0.555570466
 40
0.6343735064
 40
0.7070830164
 40
0.7729973892
 40
0.8314535682
 40
0.8819103947
 40
0.923867774
 40
0.9415343216
 40
0.9569374537
 40
0.9700357349
 40
0.9807907217
 40
0.989180768
 40
0.9951898462
 40
0.9972964557
 40
0.9988017171
 40
1.0
 40
1.0
 40
1.0
 40
1.0
 10
263.8326739063
 20
242.0755524923
 30
0.0
 10
264.6471048087
 20
242.0751470105
 30
0.0
 10
266.2450201046
 20
242.0851902526
 30
0.0
 10
268.5643954131
 20
242.1106485492
 30
0.0
 10
270.3984063256
 20
242.1288610827
 30
0.0
 10
271.7525589742
 20
242.1367548512
 30
0.0
 10
272.6603222338
 20
242.1387615702
 30
0.0
 10
273.4831391681
 20
242.1370623851
 30
0.0
 10
274.2130296507
 20
242.1315838733
 30
0.0
 10
274.8428710857
 20
242.1230974352
 30
0.0
 10
275.302352873
 20
242.1136156457
 30
0.0
 10
275.6155053648
 20
242.1051443298
 30
0.0
 10
275.8081038889
 20
242.0991682031
 30
0.0
 10
275.97207603
 20
242.0932201192
 30
0.0
 10
276.1060829654
 20
242.0880104511
 30
0.0
 10
276.2122745937
 20
242.082453373
 30
0.0
 10
276.2784314916
 20
242.0805030674
 30
0.0
 10
276.3221331158
 20
242.0762874651
 30
0.0
 10
276.3358901492
 20
242.078807281
 30
0.0
 10
276.3592840878
 20
242.0712312417
 30
0.0
 10
276.3566146159
 20
242.0754623848
 30
0.0
  0
SPLINE
  5
268
100
AcDbEntity
  8
0
100
AcDbSpline
 62
7
  6
BYLAYER
 70
0
 71
3
 72
9
 73
5
 74
0
 42
0.0000001
 43
0.0000001
 44
0.0000000001
 40
0.0
 40
0.0
 40
0.0
 40
0.0
 40
0.5776342116
 40
1.0
 40
1.0
 40
1.0
 40
1.0
 10
174.083950685
 20
279.3112368933
 30
0.0
 10
174.4353015621
 20
279.3043220332
 30
0.0
 10
175.0431174069
 20
279.2837670176
 30
0.0
 10
175.6514499072
 20
279.2537058867
 30
0.0
 10
175.9066841369
 20
279.2239982796
 30
0.0
  0
SPLINE
  5
269
100
AcDbEntity
  8
0
100
AcDbSpline
 62
7
  6
BYLAYER
 70
0
 71
3
 72
11
 73
7
 74
0
 42
0.0000001
 43
0.0000001
 44
0.0000000001
 40
0.0
 40
0.0
 40
0.0
 40
0.0
 40
0.3255510298
 40
0.4870121155
 40
0.6356966157
 40
1.0
 40
1.0
 40
1.0
 40
1.0
 10
164.9237554111
 20
269.6601914011
 30
0.0
 10
164.9237554112
 20
269.9063441568
 30
0.0
 10
164.8979096898
 20
270.2738503716
 30
0.0
 10
164.7960521187
 20
270.7497683989
 30
0.0
 10
164.6488970215
 20
271.2158685011
 30
0.0
 10
164.3749237667
 20
271.6601914011
 30
0.0
 10
164.0994699246
 20
271.6601914011
 30
0.0
  0
SPLINE
  5
26A
100
AcDbEntity
  8
0
100
AcDbSpline
 62
7
  6
BYLAYER
 70
0
 71
3
 72
9
 73
5
 74
0
 42
0.0000001
 43
0.0000001
 44
0.0000000001
 40
0.0
 40
0.0
 40
0.0
 40
0.0
 40
0.5040777707
 40
1.0
 40
1.0
 40
1.0
 40
1.0
 10
135.2352318046
 20
308.1600184475
 30
0.0
 10
135.2352199998
 20
308.3509490087
 30
0.0
 10
135.3037048481
 20
308.7329717636
 30
0.0
 10
135.5055125759
 20
309.065417126
 30
0.0
 10
135.6318658771
 20
309.2044108716
 30
0.0
  0
SPLINE
  5
26B
100
AcDbEntity
  8
0
100
AcDbSpline
 62
7
  6
BYLAYER
 70
0
 71
3
 72
9
 73
5
 74
0
 42
0.0000001
 43
0.0000001
 44
0.0000000001
 40
0.0
 40
0.0
 40
0.0
 40
0.0
 40
0.5046616828
 40
1.0
 40
1.0
 40
1.0
 40
1.0
 10
135.6318658771
 20
309.2044108716
 30
0.0
 10
135.7599710641
 20
309.3453317624
 30
0.0
 10
136.0726820709
 20
309.5773585429
 30
0.0
 10
136.4543034563
 20
309.6601910575
 30
0.0
 10
136.6412309546
 20
309.6601920874
 30
0.0
  0
SPLINE
  5
26C
100
AcDbEntity
  8
0
100
AcDbSpline
 62
7
  6
BYLAYER
 70
0
 71
3
 72
9
 73
5
 74
0
 42
0.0000001
 43
0.0000001
 44
0.0000000001
 40
0.0
 40
0.0
 40
0.0
 40
0.0
 40
0.6087215182
 40
1.0
 40
1.0
 40
1.0
 40
1.0
 10
137.1102439465
 20
308.2256207505
 30
0.0
 10
136.7295388531
 20
308.2209972177
 30
0.0
 10
136.1045141666
 20
308.2055018935
 30
0.0
 10
135.4787435349
 20
308.1844117717
 30
0.0
 10
135.2352318046
 20
308.1600184475
 30
0.0
  0
SPLINE
  5
26D
100
AcDbEntity
  8
0
100
AcDbSpline
 62
7
  6
BYLAYER
 70
0
 71
3
 72
9
 73
5
 74
0
 42
0.0000001
 43
0.0000001
 44
0.0000000001
 40
0.0
 40
0.0
 40
0.0
 40
0.0
 40
0.5776328401
 40
1.0
 40
1.0
 40
1.0
 40
1.0
 10
137.6292969881
 20
279.3112366481
 30
0.0
 10
137.2779435399
 20
279.3043218711
 30
0.0
 10
136.6701218091
 20
279.2837667581
 30
0.0
 10
136.0617833931
 20
279.2537055788
 30
0.0
 10
135.8065458697
 20
279.2239975279
 30
0.0
  0
SPLINE
  5
26E
100
AcDbEntity
  8
0
100
AcDbSpline
 62
7
  6
BYLAYER
 70
0
 71
3
 72
11
 73
7
 74
0
 42
0.0000001
 43
0.0000001
 44
0.0000000001
 40
0.0
 40
0.0
 40
0.0
 40
0.0
 40
0.3643023719
 40
0.5129868058
 40
0.674448047
 40
1.0
 40
1.0
 40
1.0
 40
1.0
 10
147.6137583117
 20
271.6601914011
 30
0.0
 10
147.3383051976
 20
271.6601914024
 30
0.0
 10
147.0643319118
 20
271.2158701859
 30
0.0
 10
146.9171765442
 20
270.7497707485
 30
0.0
 10
146.815318441
 20
270.2738519799
 30
0.0
 10
146.789472574
 20
269.9063448883
 30
0.0
 10
146.789472566
 20
269.6601914011
 30
0.0
  0
SPLINE
  5
26F
100
AcDbEntity
  8
0
100
AcDbSpline
 62
7
  6
BYLAYER
 70
0
 71
3
 72
9
 73
5
 74
0
 42
0.0000001
 43
0.0000001
 44
0.0000000001
 40
0.0
 40
0.0
 40
0.0
 40
0.0
 40
0.2662630108
 40
1.0
 40
1.0
 40
1.0
 40
1.0
 10
263.8326752342
 20
242.0755592764
 30
0.0
 10
263.8025743706
 20
242.2454635468
 30
0.0
 10
263.6827889065
 20
242.8823449602
 30
0.0
 10
263.5500995031
 20
243.5168918073
 30
0.0
 10
263.4410584472
 20
243.9797138302
 30
0.0
  0
SPLINE
  5
270
100
AcDbEntity
  8
0
100
AcDbSpline
 62
7
  6
BYLAYER
 70
0
 71
3
 72
15
 73
11
 74
0
 42
0.0000001
 43
0.0000001
 44
0.0000000001
 40
0.0
 40
0.0
 40
0.0
 40
0.0
 40
0.1365733992
 40
0.2641013987
 40
0.3803382065
 40
0.4907768171
 40
0.604356355
 40
0.7268181172
 40
0.8590597078
 40
1.0
 40
1.0
 40
1.0
 40
1.0
 10
174.0839775521
 20
279.3112356363
 30
0.0
 10
174.0675640025
 20
278.6471099249
 30
0.0
 10
173.9479746575
 20
277.362526847
 30
0.0
 10
173.4646142608
 20
275.564092796
 30
0.0
 10
172.6079803128
 20
274.03969514
 30
0.0
 10
171.350245437
 20
272.9170812111
 30
0.0
 10
169.7927879002
 20
272.2241081462
 30
0.0
 10
168.0343756681
 20
271.8463373633
 30
0.0
 10
166.1142790155
 20
271.6796349225
 30
0.0
 10
164.7850492826
 20
271.6601934273
 30
0.0
 10
164.0994790731
 20
271.660191401
 30
0.0
  0
SPLINE
  5
271
100
AcDbEntity
  8
0
100
AcDbSpline
 62
7
  6
BYLAYER
 70
0
 71
3
 72
14
 73
10
 74
0
 42
0.0000001
 43
0.0000001
 44
0.0000000001
 40
0.0
 40
0.0
 40
0.0
 40
0.0
 40
0.0401224519
 40
0.1108012283
 40
0.2094072271
 40
0.3326167497
 40
0.4768969254
 40
0.6387134146
 40
1.0
 40
1.0
 40
1.0
 40
1.0
 10
56.8228193456
 20
247.5601914011
 30
0.0
 10
56.7565019658
 20
247.4941136849
 30
0.0
 10
56.5287450664
 20
247.363103183
 30
0.0
 10
56.0949880944
 20
247.1433781331
 30
0.0
 10
55.464239565
 20
246.8784173399
 30
0.0
 10
54.6623768815
 20
246.5845595887
 30
0.0
 10
53.7043225373
 20
246.2895572826
 30
0.0
 10
52.1923781323
 20
245.9151055011
 30
0.0
 10
50.9792632688
 20
245.7386071171
 30
0.0
 10
50.1385022348
 20
245.6773568937
 30
0.0
  0
SPLINE
  5
272
100
AcDbEntity
  8
0
100
AcDbSpline
 62
7
  6
BYLAYER
 70
0
 71
3
 72
9
 73
5
 74
0
 42
0.0000001
 43
0.0000001
 44
0.0000000001
 40
0.0
 40
0.0
 40
0.0
 40
0.0
 40
0.2713192127
 40
1.0
 40
1.0
 40
1.0
 40
1.0
 10
48.7181306926
 20
245.6308837637
 30
0.0
 10
48.2455162009
 20
245.6347189683
 30
0.0
 10
46.504479606
 20
245.7192876501
 30
0.0
 10
44.7788782717
 20
246.0597212377
 30
0.0
 10
43.5643735477
 20
246.4287785962
 30
0.0
  0
SPLINE
  5
273
100
AcDbEntity
  8
0
100
AcDbSpline
 62
7
  6
BYLAYER
 70
0
 71
3
 72
15
 73
11
 74
0
 42
0.0000001
 43
0.0000001
 44
0.0000000001
 40
0.0
 40
0.0
 40
0.0
 40
0.0
 40
0.1411312642
 40
0.2735130105
 40
0.3960190274
 40
0.5095755684
 40
0.6199571079
 40
0.736131552
 40
0.863571531
 40
1.0
 40
1.0
 40
1.0
 40
1.0
 10
147.6137607898
 20
271.6601914011
 30
0.0
 10
146.9272578471
 20
271.6601970261
 30
0.0
 10
145.5964102493
 20
271.6797110297
 30
0.0
 10
143.6744891073
 20
271.8468450019
 30
0.0
 10
141.9154564219
 20
272.2257094531
 30
0.0
 10
140.358688197
 20
272.9198726988
 30
0.0
 10
139.1024178148
 20
274.0430720464
 30
0.0
 10
138.2474554178
 20
275.5672010907
 30
0.0
 10
137.7651323945
 20
277.3643632543
 30
0.0
 10
137.6456344745
 20
278.6478106658
 30
0.0
 10
137.6292813099
 20
279.3112363455
 30
0.0
  0
SPLINE
  5
274
100
AcDbEntity
  8
0
100
AcDbSpline
 62
7
  6
BYLAYER
 70
0
 71
3
 72
9
 73
5
 74
0
 42
0.0000001
 43
0.0000001
 44
0.0000000001
 40
0.0
 40
0.0
 40
0.0
 40
0.0
 40
0.2334296099
 40
1.0
 40
1.0
 40
1.0
 40
1.0
 10
48.2721508352
 20
243.9796599523
 30
0.0
 10
48.2375961301
 20
243.8323925479
 30
0.0
 10
48.0963434685
 20
243.1999505672
 30
0.0
 10
47.9671852758
 20
242.5646984698
 30
0.0
 10
47.880546536
 20
242.0755592764
 30
0.0
  0
SPLINE
  5
275
100
AcDbEntity
  8
0
100
AcDbSpline
 62
7
  6
BYLAYER
 70
0
 71
3
 72
25
 73
21
 74
0
 42
0.0000001
 43
0.0000001
 44
0.0000000001
 40
0.0
 40
0.0
 40
0.0
 40
0.0
 40
0.195039234
 40
0.3826172475
 40
0.5555241957
 40
0.6343619847
 40
0.7070878958
 40
0.7730009538
 40
0.8314671664
 40
0.8819243644
 40
0.9238871745
 40
0.9415540592
 40
0.9569526046
 40
0.9700463656
 40
0.9808016177
 40
0.9891937217
 40
0.9952002178
 40
0.9973035734
 40
0.9988054133
 40
1.0
 40
1.0
 40
1.0
 40
1.0
 10
47.8805451224
 20
242.0755127679
 30
0.0
 10
47.0662509588
 20
242.0751140625
 30
0.0
 10
45.4688159917
 20
242.0851640927
 30
0.0
 10
43.1496337366
 20
242.1106239269
 30
0.0
 10
41.3155340701
 20
242.1288438102
 30
0.0
 10
39.9608810106
 20
242.1367838057
 30
0.0
 10
39.0529096651
 20
242.1388725394
 30
0.0
 10
38.2299879936
 20
242.1371286789
 30
0.0
 10
37.5000588552
 20
242.1317320963
 30
0.0
 10
36.8701518396
 20
242.1231928354
 30
0.0
 10
36.410644264
 20
242.113729988
 30
0.0
 10
36.0974864762
 20
242.1052593243
 30
0.0
 10
35.9049261363
 20
242.0992509041
 30
0.0
 10
35.7409905245
 20
242.0932650079
 30
0.0
 10
35.6069984922
 20
242.0880408435
 30
0.0
 10
35.500794494
 20
242.0824870908
 30
0.0
 10
35.4346810322
 20
242.0804995602
 30
0.0
 10
35.3909892775
 20
242.0762467122
 30
0.0
 10
35.3773235832
 20
242.0787043777
 30
0.0
 10
35.3538824046
 20
242.0711616338
 30
0.0
 10
35.3566154731
 20
242.0753335427
 30
0.0
  0
SPLINE
  5
276
100
AcDbEntity
  8
0
100
AcDbSpline
 62
7
  6
BYLAYER
 70
0
 71
3
 72
9
 73
5
 74
0
 42
0.0000001
 43
0.0000001
 44
0.0000000001
 40
0.0
 40
0.0
 40
0.0
 40
0.0
 40
0.5280502686
 40
1.0
 40
1.0
 40
1.0
 40
1.0
 10
263.4410683467
 20
243.9797144526
 30
0.0
 10
264.6436886154
 20
244.5309386891
 30
0.0
 10
267.0490367738
 20
245.3323419578
 30
0.0
 10
269.6101708982
 20
245.387398695
 30
0.0
 10
270.7745366941
 20
245.1817865016
 30
0.0
  0
SPLINE
  5
277
100
AcDbEntity
  8
0
100
AcDbSpline
 62
7
  6
BYLAYER
 70
0
 71
3
 72
9
 73
5
 74
0
 42
0.0000001
 43
0.0000001
 44
0.0000000001
 40
0.0
 40
0.0
 40
0.0
 40
0.0
 40
0.2592693831
 40
1.0
 40
1.0
 40
1.0
 40
1.0
 10
271.0164975316
 20
245.1356403347
 30
0.0
 10
271.2765834243
 20
245.0823177179
 30
0.0
 10
272.2700313682
 20
244.8322337137
 30
0.0
 10
273.2170533264
 20
244.3953235095
 30
0.0
 10
273.8515771425
 20
243.9797144525
 30
0.0
  0
SPLINE
  5
278
100
AcDbEntity
  8
0
100
AcDbSpline
 62
7
  6
BYLAYER
 70
0
 71
3
 72
9
 73
5
 74
0
 42
0.0000001
 43
0.0000001
 44
0.0000000001
 40
0.0
 40
0.0
 40
0.0
 40
0.0
 40
0.2721771245
 40
1.0
 40
1.0
 40
1.0
 40
1.0
 10
263.4410584472
 20
243.9797138302
 30
0.0
 10
263.4068385731
 20
244.1246004866
 30
0.0
 10
263.2763524718
 20
244.6557460574
 30
0.0
 10
263.1268702979
 20
245.1825478239
 30
0.0
 10
263.0010071215
 20
245.5602253344
 30
0.0
  0
SPLINE
  5
279
100
AcDbEntity
  8
0
100
AcDbSpline
 62
7
  6
BYLAYER
 70
0
 71
3
 72
9
 73
5
 74
0
 42
0.0000001
 43
0.0000001
 44
0.0000000001
 40
0.0
 40
0.0
 40
0.0
 40
0.0
 40
0.2171570546
 40
1.0
 40
1.0
 40
1.0
 40
1.0
 10
268.5134693019
 20
246.5436894325
 30
0.0
 10
268.1279403499
 20
246.4177772255
 30
0.0
 10
266.3345642197
 20
245.896344257
 30
0.0
 10
264.4585644096
 20
245.6429787127
 30
0.0
 10
262.9965514993
 20
245.6310048296
 30
0.0
  0
SPLINE
  5
27A
100
AcDbEntity
  8
0
100
AcDbSpline
 62
7
  6
BYLAYER
 70
0
 71
3
 72
15
 73
11
 74
0
 42
0.0000001
 43
0.0000001
 44
0.0000000001
 40
0.0
 40
0.0
 40
0.0
 40
0.0
 40
0.1485031278
 40
0.2848651707
 40
0.4053765226
 40
0.5152271524
 40
0.6244213297
 40
0.7404099093
 40
0.8657466035
 40
1.0
 40
1.0
 40
1.0
 40
1.0
 10
135.8065420763
 20
279.2239970426
 30
0.0
 10
135.8247652456
 20
278.3838177609
 30
0.0
 10
135.9577998905
 20
276.7716961967
 30
0.0
 10
136.4926312712
 20
274.5286444128
 30
0.0
 10
137.424964237
 20
272.6449963509
 30
0.0
 10
138.7944337721
 20
271.2472290334
 30
0.0
 10
140.5044528803
 20
270.3709536336
 30
0.0
 10
142.4412350412
 20
269.8958534313
 30
0.0
 10
144.5601657583
 20
269.6870809833
 30
0.0
 10
146.0297367956
 20
269.6601924988
 30
0.0
 10
146.7894746732
 20
269.6601914011
 30
0.0
  0
SPLINE
  5
27B
100
AcDbEntity
  8
0
100
AcDbSpline
 62
7
  6
BYLAYER
 70
0
 71
3
 72
10
 73
6
 74
0
 42
0.0000001
 43
0.0000001
 44
0.0000000001
 40
0.0
 40
0.0
 40
0.0
 40
0.0
 40
0.2296178941
 40
0.5987914693
 40
1.0
 40
1.0
 40
1.0
 40
1.0
 10
48.7143575121
 20
245.5276804938
 30
0.0
 10
48.6707258924
 20
245.4123615737
 30
0.0
 10
48.5647923901
 20
245.1085675289
 30
0.0
 10
48.4225982079
 20
244.5904804818
 30
0.0
 10
48.321835873
 20
244.1892878283
 30
0.0
 10
48.2721508352
 20
243.9796599523
 30
0.0
  0
SPLINE
  5
27C
100
AcDbEntity
  8
0
100
AcDbSpline
 62
7
  6
BYLAYER
 70
0
 71
3
 72
9
 73
5
 74
0
 42
0.0000001
 43
0.0000001
 44
0.0000000001
 40
0.0
 40
0.0
 40
0.0
 40
0.0
 40
0.2607294676
 40
1.0
 40
1.0
 40
1.0
 40
1.0
 10
48.2721508321
 20
243.9796599387
 30
0.0
 10
47.8734455326
 20
244.1624082948
 30
0.0
 10
46.3200246344
 20
244.8061645286
 30
0.0
 10
44.6556010361
 20
245.206385104
 30
0.0
 10
43.4153277054
 20
245.2970193752
 30
0.0
  0
SPLINE
  5
27D
100
AcDbEntity
  8
0
100
AcDbSpline
 62
7
  6
BYLAYER
 70
0
 71
3
 72
9
 73
5
 74
0
 42
0.0000001
 43
0.0000001
 44
0.0000000001
 40
0.0
 40
0.0
 40
0.0
 40
0.0
 40
0.2576723687
 40
1.0
 40
1.0
 40
1.0
 40
1.0
 10
43.4153277054
 20
245.2970193752
 30
0.0
 10
43.2025501542
 20
245.3125683173
 30
0.0
 10
42.375362232
 20
245.3496886357
 30
0.0
 10
41.5428899459
 20
245.2885022575
 30
0.0
 10
40.9376379525
 20
245.1815738588
 30
0.0
  0
SPLINE
  5
27E
100
AcDbEntity
  8
0
100
AcDbSpline
 62
7
  6
BYLAYER
 70
0
 71
3
 72
9
 73
5
 74
0
 42
0.0000001
 43
0.0000001
 44
0.0000000001
 40
0.0
 40
0.0
 40
0.0
 40
0.0
 40
0.2584737147
 40
1.0
 40
1.0
 40
1.0
 40
1.0
 10
40.7717111972
 20
245.1506575791
 30
0.0
 10
40.5055531705
 20
245.0984740904
 30
0.0
 10
39.4855385766
 20
244.8503203529
 30
0.0
 10
38.5124673628
 20
244.40599946
 30
0.0
 10
37.8615586096
 20
243.9796526517
 30
0.0
  0
SPLINE
  5
27F
100
AcDbEntity
  8
0
100
AcDbSpline
 62
7
  6
BYLAYER
 70
0
 71
3
 72
9
 73
5
 74
0
 42
0.0000001
 43
0.0000001
 44
0.0000000001
 40
0.0
 40
0.0
 40
0.0
 40
0.0
 40
0.5859635319
 40
1.0
 40
1.0
 40
1.0
 40
1.0
 10
256.8572667665
 20
246.6593468435
 30
0.0
 10
256.5270063871
 20
246.7746082438
 30
0.0
 10
255.9693098048
 20
246.9882460364
 30
0.0
 10
255.4252039631
 20
247.2361736431
 30
0.0
 10
255.2076801657
 20
247.3535308228
 30
0.0
  0
SPLINE
  5
280
100
AcDbEntity
  8
0
100
AcDbSpline
 62
7
  6
BYLAYER
 70
0
 71
3
 72
9
 73
5
 74
0
 42
0.0000001
 43
0.0000001
 44
0.0000000001
 40
0.0
 40
0.0
 40
0.0
 40
0.0
 40
0.6098092437
 40
1.0
 40
1.0
 40
1.0
 40
1.0
 10
255.2076801657
 20
247.3535308228
 30
0.0
 10
255.1398217618
 20
247.3901413959
 30
0.0
 10
255.0304767567
 20
247.4530256557
 30
0.0
 10
254.9253595533
 20
247.5253689082
 30
0.0
 10
254.8904107593
 20
247.5601914011
 30
0.0
  0
SPLINE
  5
281
100
AcDbEntity
  8
0
100
AcDbSpline
 62
7
  6
BYLAYER
 70
0
 71
3
 72
10
 73
6
 74
0
 42
0.0000001
 43
0.0000001
 44
0.0000000001
 40
0.0
 40
0.0
 40
0.0
 40
0.0
 40
0.530506675
 40
0.7789087436
 40
1.0
 40
1.0
 40
1.0
 40
1.0
 10
174.3284064531
 20
292.2346689383
 30
0.0
 10
174.6731946232
 20
291.7342591242
 30
0.0
 10
175.1797695434
 20
290.9990461924
 30
0.0
 10
175.7760403531
 20
290.0211195818
 30
0.0
 10
176.0235716915
 20
289.5416365352
 30
0.0
 10
176.1178129012
 20
289.3065654813
 30
0.0
  0
SPLINE
  5
282
100
AcDbEntity
  8
0
100
AcDbSpline
 62
7
  6
BYLAYER
 70
0
 71
3
 72
15
 73
11
 74
0
 42
0.0000001
 43
0.0000001
 44
0.0000000001
 40
0.0
 40
0.0
 40
0.0
 40
0.0
 40
0.1340703962
 40
0.2593419575
 40
0.3752910255
 40
0.4845288502
 40
0.5943652439
 40
0.714878894
 40
0.8513784547
 40
1.0
 40
1.0
 40
1.0
 40
1.0
 10
164.9237554317
 20
269.6601914011
 30
0.0
 10
165.6824454129
 20
269.6601905001
 30
0.0
 10
167.1505499645
 20
269.6871784751
 30
0.0
 10
169.2680196147
 20
269.8937482738
 30
0.0
 10
171.2045113686
 20
270.3692904285
 30
0.0
 10
172.9137174981
 20
271.2462744292
 30
0.0
 10
174.2859196777
 20
272.6412574061
 30
0.0
 10
175.220280422
 20
274.5250860919
 30
0.0
 10
175.7547342912
 20
276.769693767
 30
0.0
 10
175.8884225183
 20
278.3831624414
 30
0.0
 10
175.9066842353
 20
279.2239975278
 30
0.0
  0
SPLINE
  5
283
100
AcDbEntity
  8
0
100
AcDbSpline
 62
7
  6
BYLAYER
 70
0
 71
3
 72
11
 73
7
 74
0
 42
0.0000001
 43
0.0000001
 44
0.0000000001
 40
0.0
 40
0.0
 40
0.0
 40
0.0
 40
0.3531343575
 40
0.6379103324
 40
0.8503840258
 40
1.0
 40
1.0
 40
1.0
 40
1.0
 10
176.1184114224
 20
289.3065652194
 30
0.0
 10
176.1908900695
 20
289.1260343775
 30
0.0
 10
176.3382406211
 20
288.8060490265
 30
0.0
 10
176.5926273029
 20
288.4097299904
 30
0.0
 10
176.8372777691
 20
288.1488917348
 30
0.0
 10
177.0311011602
 20
288.0601914011
 30
0.0
 10
177.1135224871
 20
288.0601914011
 30
0.0
  0
SPLINE
  5
284
100
AcDbEntity
  8
0
100
AcDbSpline
 62
7
  6
BYLAYER
 70
0
 71
3
 72
14
 73
10
 74
0
 42
0.0000001
 43
0.0000001
 44
0.0000000001
 40
0.0
 40
0.0
 40
0.0
 40
0.0
 40
0.0309175963
 40
0.095743297
 40
0.1921811356
 40
0.3169093511
 40
0.4655767231
 40
0.6329260947
 40
1.0
 40
1.0
 40
1.0
 40
1.0
 10
251.8316893293
 20
308.1648894839
 30
0.0
 10
251.7328798669
 20
308.1742426934
 30
0.0
 10
251.4251171381
 20
308.1779103335
 30
0.0
 10
250.808652913
 20
308.1919279091
 30
0.0
 10
249.8904242486
 20
308.1997951006
 30
0.0
 10
248.7032975417
 20
308.2092572896
 30
0.0
 10
247.2884162749
 20
308.216187572
 30
0.0
 10
245.0955924447
 20
308.2236457012
 30
0.0
 10
243.3799896378
 20
308.2256363525
 30
0.0
 10
242.2016150354
 20
308.2256093071
 30
0.0
  0
SPLINE
  5
285
100
AcDbEntity
  8
0
100
AcDbSpline
 62
7
  6
BYLAYER
 70
0
 71
3
 72
8
 73
4
 74
0
 42
0.0000001
 43
0.0000001
 44
0.0000000001
 40
0.0
 40
0.0
 40
0.0
 40
0.0
 40
1.0
 40
1.0
 40
1.0
 40
1.0
 10
175.9066842353
 20
279.2239975278
 30
0.0
 10
175.9779271194
 20
282.584839349
 30
0.0
 10
176.0492780269
 20
285.9456793438
 30
0.0
 10
176.1184114224
 20
289.3065652194
 30
0.0
  0
ELLIPSE
  5
286
100
AcDbEntity
  8
0
100
AcDbEllipse
 62
7
  6
BYLAYER
 10
50.8858623519
 20
225.1747959669
 30
0.0
 11
-0.0
 21
22.4796791773
 31
0.0
 40
1.0
 41
0.1227225275
 42
0.3317452896
  0
ELLIPSE
  5
287
100
AcDbEntity
  8
0
100
AcDbEllipse
 62
7
  6
BYLAYER
 10
50.8858623519
 20
225.1747959669
 30
0.0
 11
22.4796791773
 21
0.0
 31
0.0
 40
1.0
 41
1.6624163211
 42
1.6935188543
  0
ELLIPSE
  5
288
100
AcDbEntity
  8
0
100
AcDbEllipse
 62
7
  6
BYLAYER
 10
264.8858623519
 20
225.1747959669
 30
0.0
 11
0.0
 21
22.4796791773
 31
0.0
 40
1.0
 41
0.1539650819
 42
0.3317452896
  0
ELLIPSE
  5
289
100
AcDbEntity
  8
0
100
AcDbEllipse
 62
7
  6
BYLAYER
 10
264.8858623519
 20
225.1747959669
 30
0.0
 11
22.4796791773
 21
0.0
 31
0.0
 40
1.0
 41
1.6624163211
 42
1.7247614087
  0
ELLIPSE
  5
28A
100
AcDbEntity
  8
0
100
AcDbEllipse
 62
7
  6
BYLAYER
 10
263.4716487895
 20
225.1747959669
 30
0.0
 11
22.4796791773
 21
-0.0
 31
0.0
 40
1.0
 41
1.7999528841
 42
1.8694547407
  0
ELLIPSE
  5
28B
100
AcDbEntity
  8
0
100
AcDbEllipse
 62
7
  6
BYLAYER
 10
263.4716487895
 20
225.1747959669
 30
0.0
 11
-0.0
 21
22.4796791773
 31
0.0
 40
1.0
 41
0.0916199943
 42
0.2291565573
  0
ENDSEC
  0
SECTION
  2
OBJECTS
  0
DICTIONARY
  5
C
100
AcDbDictionary
280
0
281
1
  3
ACAD_GROUP
350
D
  3
ACAD_MLINESTYLE
350
17
  3
ACAD_LAYOUT
350
1A
  3
ACAD_PLOTSETTINGS
350
19
  3
ACAD_PLOTSTYLENAME
350
E
  0
DICTIONARY
  5
D
102
{ACAD_REACTORS
330
C
102
}
100
AcDbDictionary
280
0
281
1
  0
ACDBDICTIONARYWDFLT
  5
E
102
{ACAD_REACTORS
330
C
102
}
100
AcDbDictionary
281
1
  3
Normal
350
F
100
AcDbDictionaryWithDefault
340
F
  0
DICTIONARY
  5
17
102
{ACAD_REACTORS
330
C
102
}
100
AcDbDictionary
280
0
281
1
  3
Standard
350
18
  0
DICTIONARY
  5
19
102
{ACAD_REACTORS
330
C
102
}
100
AcDbDictionary
281
1
  0
DICTIONARY
  5
1A
102
{ACAD_REACTORS
330
C
102
}
100
AcDbDictionary
281
1
  3
Model
350
28C
  3
Layout1
350
28D
  0
ACDBPLACEHOLDER
  5
F
102
{ACAD_REACTORS
330
E
102
}
  0
MLINESTYLE
  5
18
102
{ACAD_REACTORS
330
17
102
}
100
AcDbMlineStyle
  2
STANDARD
 70
0
  3

 62
256
 51
90.0
 52
90.0
 71
2
 49
0.5
 62
256
  6
BYLAYER
 49
-0.5
 62
256
  6
BYLAYER
  0
LAYOUT
  5
28C
102
{ACAD_REACTORS
330
1A
102
}
100
AcDbPlotSettings
  1

  2
none_device
  4

  6

 40
0.0
 41
0.0
 42
0.0
 43
0.0
 44
210.0
 45
297.0
 46
0.0
 47
0.0
 48
0.0
 49
0.0
140
0.0
141
0.0
142
1.0
143
1.0
 70
1024
 72
1
 73
0
 74
0
  7

 75
0
147
1.0
148
0.0
149
0.0
100
AcDbLayout
  1
Model
 70
0
 71
0
 10
0.0
 20
0.0
 11
210.0
 21
297.0
 12
0.0
 22
0.0
 32
0.0
 14
0.0
 24
0.0
 34
0.0
 15
0.0
 25
0.0
 35
0.0
146
0.0
 13
0.0
 23
0.0
 33
0.0
 16
1.0
 26
0.0
 36
0.0
 17
0.0
 27
1.0
 37
0.0
 76
0
330
210
345
0
346
0
  0
LAYOUT
  5
28D
102
{ACAD_REACTORS
330
1A
102
}
100
AcDbPlotSettings
  1

  2
none_device
  4

  6

 40
0.0
 41
0.0
 42
0.0
 43
0.0
 44
210.0
 45
297.0
 46
0.0
 47
0.0
 48
0.0
 49
0.0
140
0.0
141
0.0
142
1.0
143
1.0
 70
0
 72
1
 73
0
 74
0
  7

 75
0
147
1.0
148
0.0
149
0.0
100
AcDbLayout
  1
Layout1
 70
0
 71
1
 10
0.0
 20
0.0
 11
210.0
 21
297.0
 12
0.0
 22
0.0
 32
0.0
 14
0.0
 24
0.0
 34
0.0
 15
0.0
 25
0.0
 35
0.0
146
0.0
 13
0.0
 23
0.0
 33
0.0
 16
1.0
 26
0.0
 36
0.0
 17
0.0
 27
1.0
 37
0.0
 76
0
330
211
345
0
346
0
  0
ENDSEC
  0
EOF
