  0
SECTION
  2
HEADER
  9
$ACADVER
  1
AC1009
  9
$DWGCODEPAGE
  3
ansi_1250
  9
$INSBASE
 10
0.0
 20
0.0
 30
0.0
  9
$EXTMIN
 10
-0.376
 20
0.0
 30
0.0
  9
$EXTMAX
 10
1.483
 20
1.89
 30
0.0
  9
$LIMMIN
 10
0.0
 20
0.0
  9
$LIMMAX
 10
0.0
 20
0.0
  9
$ORTHOMODE
 70
     0
  9
$REGENMODE
 70
     1
  9
$FILLMODE
 70
     1
  9
$QTEXTMODE
 70
     0
  9
$MIRRTEXT
 70
     1
  9
$DRAGMODE
 70
     2
  9
$LTSCALE
 40
1.0
  9
$OSMODE
 70
     0
  9
$ATTMODE
 70
     1
  9
$TEXTSIZE
 40
0.2
  9
$TRACEWID
 40
0.05
  9
$TEXTSTYLE
  7
STANDARD
  9
$CLAYER
  8
0
  9
$CELTYPE
  6
CONTINUOUS
  9
$CECOLOR
 62
   256
  9
$DIMSCALE
 40
1.0
  9
$DIMASZ
 40
0.18
  9
$DIMEXO
 40
0.0625
  9
$DIMDLI
 40
0.38
  9
$DIMRND
 40
0.0
  9
$DIMDLE
 40
0.0
  9
$DIMEXE
 40
0.18
  9
$DIMTP
 40
0.0
  9
$DIMTM
 40
0.0
  9
$DIMTXT
 40
0.18
  9
$DIMCEN
 40
0.09
  9
$DIMTSZ
 40
0.0
  9
$DIMTOL
 70
     0
  9
$DIMLIM
 70
     0
  9
$DIMTIH
 70
     1
  9
$DIMTOH
 70
     1
  9
$DIMSE1
 70
     0
  9
$DIMSE2
 70
     0
  9
$DIMTAD
 70
     0
  9
$DIMZIN
 70
     0
  9
$DIMBLK
  1

  9
$DIMASO
 70
     1
  9
$DIMSHO
 70
     1
  9
$DIMPOST
  1

  9
$DIMAPOST
  1

  9
$DIMALT
 70
     0
  9
$DIMALTD
 70
     2
  9
$DIMALTF
 40
25.4
  9
$DIMLFAC
 40
1.0
  9
$DIMTOFL
 70
     0
  9
$DIMTVP
 40
0.0
  9
$DIMTIX
 70
     0
  9
$DIMSOXD
 70
     0
  9
$DIMSAH
 70
     0
  9
$DIMBLK1
  1

  9
$DIMBLK2
  1

  9
$DIMSTYLE
  2
STANDARD
  9
$DIMCLRD
 70
     0
  9
$DIMCLRE
 70
     0
  9
$DIMCLRT
 70
     0
  9
$DIMTFAC
 40
1.0
  9
$DIMGAP
 40
0.09
  9
$LUNITS
 70
     2
  9
$LUPREC
 70
     4
  9
$AXISMODE
 70
     0
  9
$AXISUNIT
 10
0.0
 20
0.0
  9
$SKETCHINC
 40
0.1
  9
$FILLETRAD
 40
0.0
  9
$AUNITS
 70
     0
  9
$AUPREC
 70
     0
  9
$MENU
  1
acad
  9
$ELEVATION
 40
0.0
  9
$PELEVATION
 40
0.0
  9
$THICKNESS
 40
0.0
  9
$LIMCHECK
 70
     0
  9
$BLIPMODE
 70
     1
  9
$CHAMFERA
 40
0.0
  9
$CHAMFERB
 40
0.0
  9
$SKPOLY
 70
     0
  9
$TDCREATE
 40
0.000000000
  9
$TDUPDATE
 40
0.000000000
  9
$TDINDWG
 40
0.0000000000
  9
$TDUSRTIMER
 40
0.0000000000
  9
$USRTIMER
 70
     1
  9
$ANGBASE
 50
0.0
  9
$ANGDIR
 70
     0
  9
$PDMODE
 70
     0
  9
$PDSIZE
 40
0.0
  9
$PLINEWID
 40
0.0
  9
$COORDS
 70
     0
  9
$SPLFRAME
 70
     0
  9
$SPLINETYPE
 70
     6
  9
$SPLINESEGS
 70
     8
  9
$ATTDIA
 70
     0
  9
$ATTREQ
 70
     1
  9
$HANDLING
 70
     1
  9
$HANDSEED
  5
1E6
  9
$SURFTAB1
 70
     6
  9
$SURFTAB2
 70
     6
  9
$SURFTYPE
 70
     6
  9
$SURFU
 70
     6
  9
$SURFV
 70
     6
  9
$UCSNAME
  2

  9
$UCSORG
 10
0.0
 20
0.0
 30
0.0
  9
$UCSXDIR
 10
1.0
 20
0.0
 30
0.0
  9
$UCSYDIR
 10
0.0
 20
1.0
 30
0.0
  9
$PUCSNAME
  2

  9
$PUCSORG
 10
0.0
 20
0.0
 30
0.0
  9
$PUCSXDIR
 10
1.0
 20
0.0
 30
0.0
  9
$PUCSYDIR
 10
0.0
 20
1.0
 30
0.0
  9
$USERI1
 70
     0
  9
$USERI2
 70
     0
  9
$USERI3
 70
     0
  9
$USERI4
 70
     0
  9
$USERI5
 70
     0
  9
$USERR1
 40
0.0
  9
$USERR2
 40
0.0
  9
$USERR3
 40
0.0
  9
$USERR4
 40
0.0
  9
$USERR5
 40
0.0
  9
$WORLDVIEW
 70
     1
  9
$SHADEDGE
 70
     3
  9
$SHADEDIF
 70
    70
  9
$TILEMODE
 70
     1
  9
$MAXACTVP
 70
    16
  9
$PINSBASE
 10
0.0
 20
0.0
 30
0.0
  9
$PLIMCHECK
 70
     0
  9
$PEXTMIN
 10
1.000000E+20
 20
1.000000E+20
 30
1.000000E+20
  9
$PEXTMAX
 10
-1.000000E+20
 20
-1.000000E+20
 30
-1.000000E+20
  9
$PLIMMIN
 10
0.0
 20
0.0
  9
$PLIMMAX
 10
12.0
 20
9.0
  9
$UNITMODE
 70
     0
  9
$VISRETAIN
 70
     0
  9
$PLINEGEN
 70
     1
  9
$PSLTSCALE
 70
     0
  9
$TREEDEPTH
 70
  3020
  0
ENDSEC
  0
SECTION
  2
TABLES
  0
TABLE
  2
VPORT
 70
     1
  0
VPORT
  2
*ACTIVE
 70
     0
 10
0.0
 20
0.0
 11
1.0
 21
1.0
 12
6.591288
 22
4.579184
 13
0.0
 23
0.0
 14
1.0
 24
1.0
 15
0.0
 25
0.0
 16
0.0
 26
0.0
 36
1.0
 17
0.0
 27
0.0
 37
0.0
 40
9.158369
 41
0.688564
 42
50.0
 43
0.0
 44
0.0
 50
0.0
 51
0.0
 71
     0
 72
   100
 73
     1
 74
     1
 75
     0
 76
     0
 77
     0
 78
     0
  0
ENDTAB
  0
TABLE
  2
LTYPE
 70
     5
  0
LTYPE
  2
CONTINUOUS
 70
    64
  3
Solid line
 72
    65
 73
     0
 40
0.0
  0
LTYPE
  2
CENTER
 70
    64
  3
Center ____ _ ____ _ ____ _ ____ _ ____ _ ____
 72
    65
 73
     4
 40
50.8
 49
31.75
 49
-6.35
 49
6.35
 49
-6.35
  0
LTYPE
  2
HIDDEN
 70
    64
  3
Hidden __ __ __ __ __ __ __ __ __ __ __ __ __ __
 72
    65
 73
     2
 40
9.525
 49
6.35
 49
-3.175
  0
LTYPE
  2
CENTER2
 70
    64
  3
Center (.5x) ___ _ ___ _ ___ _ ___ _ ___ _ ___
 72
    65
 73
     4
 40
28.575
 49
19.05
 49
-3.175
 49
3.175
 49
-3.175
  0
LTYPE
  2
HIDDEN2
 70
    64
  3
Hidden (.5x) _ _ _ _ _ _ _ _ _ _ _ _ _ _ _ _ _
 72
    65
 73
     2
 40
4.7625
 49
3.175
 49
-1.5875
  0
ENDTAB
  0
TABLE
  2
LAYER
 70
     1
  0
LAYER
  2
0
 70
     0
 62
     7
  6
CONTINUOUS
  0
ENDTAB
  0
TABLE
  2
STYLE
 70
     1
  0
STYLE
  2
STANDARD
 70
     0
 40
0.0
 41
1.0
 50
0.0
 71
     0
 42
0.0
  3
txt
  4

  0
ENDTAB
  0
TABLE
  2
VIEW
 70
     0
  0
ENDTAB
  0
TABLE
  2
UCS
 70
     0
  0
ENDTAB
  0
TABLE
  2
APPID
 70
     1
  0
APPID
  2
ACAD
 70
     0
  0
ENDTAB
  0
TABLE
  2
DIMSTYLE
 70
     1
  0
DIMSTYLE
  2
STANDARD
 70
     0
  3

  4

  5

  6

  7

 40
1.0
 41
0.18
 42
0.0625
 43
0.38
 44
0.18
 45
0.0
 46
0.0
 47
0.0
 48
0.0
 71
     0
 72
     0
 73
     1
 74
     1
 75
     0
 76
     0
 77
     0
 78
     0
140
0.18
141
0.09
142
0.0
143
25.4
144
1.0
145
0.0
146
1.0
147
0.09
170
     0
171
     2
172
     0
173
     0
174
     0
175
     0
176
     0
177
     0
178
     0
  0
ENDTAB
  0
ENDSEC
  0
SECTION
  2
BLOCKS
  0
ENDSEC
  0
SECTION
  2
ENTITIES
  0
LINE
  8
0
  6
CONTINUOUS
 62
     7
  5
115
 10
-0.271
 20
1.076
 30
0.0
 11
-0.376
 21
1.076
 31
0.0
  0
LINE
  8
0
  6
CONTINUOUS
 62
     7
  5
116
 10
0.073
 20
1.074565
 30
0.0
 11
0.073
 21
0.956
 31
0.0
  0
LINE
  8
0
  6
CONTINUOUS
 62
     7
  5
117
 10
0.073
 20
0.956
 30
0.0
 11
0.073
 21
0.741
 31
0.0
  0
LINE
  8
0
  6
CONTINUOUS
 62
     7
  5
118
 10
0.073
 20
0.741
 30
0.0
 11
0.073
 21
0.708923
 31
0.0
  0
LINE
  8
0
  6
CONTINUOUS
 62
     7
  5
119
 10
0.073
 20
0.708923
 30
0.0
 11
0.073
 21
0.651845
 31
0.0
  0
LINE
  8
0
  6
CONTINUOUS
 62
     7
  5
11A
 10
0.073
 20
0.651845
 30
0.0
 11
0.073
 21
0.634708
 31
0.0
  0
LINE
  8
0
  6
CONTINUOUS
 62
     7
  5
11B
 10
0.073
 20
0.634708
 30
0.0
 11
0.073
 21
0.566407
 31
0.0
  0
LINE
  8
0
  6
CONTINUOUS
 62
     7
  5
11C
 10
0.073
 20
0.566407
 30
0.0
 11
0.073
 21
0.531904
 31
0.0
  0
LINE
  8
0
  6
CONTINUOUS
 62
     7
  5
11D
 10
-0.222527
 20
0.469404
 30
0.0
 11
-0.222527
 21
0.540807
 31
0.0
  0
LINE
  8
0
  6
CONTINUOUS
 62
     7
  5
11E
 10
-0.011473
 20
0.469404
 30
0.0
 11
-0.015621
 21
0.466521
 31
0.0
  0
LINE
  8
0
  6
CONTINUOUS
 62
     7
  5
11F
 10
-0.015621
 20
0.466521
 30
0.0
 11
-0.020084
 21
0.463759
 31
0.0
  0
LINE
  8
0
  6
CONTINUOUS
 62
     7
  5
120
 10
-0.020084
 20
0.463759
 30
0.0
 11
-0.024847
 21
0.461125
 31
0.0
  0
LINE
  8
0
  6
CONTINUOUS
 62
     7
  5
121
 10
-0.024847
 20
0.461125
 30
0.0
 11
-0.029897
 21
0.458628
 31
0.0
  0
LINE
  8
0
  6
CONTINUOUS
 62
     7
  5
122
 10
-0.029897
 20
0.458628
 30
0.0
 11
-0.035216
 21
0.456275
 31
0.0
  0
LINE
  8
0
  6
CONTINUOUS
 62
     7
  5
123
 10
-0.035216
 20
0.456275
 30
0.0
 11
-0.040789
 21
0.454074
 31
0.0
  0
LINE
  8
0
  6
CONTINUOUS
 62
     7
  5
124
 10
-0.040789
 20
0.454074
 30
0.0
 11
-0.046599
 21
0.452031
 31
0.0
  0
LINE
  8
0
  6
CONTINUOUS
 62
     7
  5
125
 10
-0.046599
 20
0.452031
 30
0.0
 11
-0.052627
 21
0.450154
 31
0.0
  0
LINE
  8
0
  6
CONTINUOUS
 62
     7
  5
126
 10
-0.052627
 20
0.450154
 30
0.0
 11
-0.058855
 21
0.448447
 31
0.0
  0
LINE
  8
0
  6
CONTINUOUS
 62
     7
  5
127
 10
-0.058855
 20
0.448447
 30
0.0
 11
-0.065264
 21
0.446916
 31
0.0
  0
LINE
  8
0
  6
CONTINUOUS
 62
     7
  5
128
 10
-0.065264
 20
0.446916
 30
0.0
 11
-0.071833
 21
0.445566
 31
0.0
  0
LINE
  8
0
  6
CONTINUOUS
 62
     7
  5
129
 10
-0.071833
 20
0.445566
 30
0.0
 11
-0.078542
 21
0.444401
 31
0.0
  0
LINE
  8
0
  6
CONTINUOUS
 62
     7
  5
12A
 10
-0.078542
 20
0.444401
 30
0.0
 11
-0.08537
 21
0.443425
 31
0.0
  0
LINE
  8
0
  6
CONTINUOUS
 62
     7
  5
12B
 10
-0.08537
 20
0.443425
 30
0.0
 11
-0.092297
 21
0.44264
 31
0.0
  0
LINE
  8
0
  6
CONTINUOUS
 62
     7
  5
12C
 10
-0.092297
 20
0.44264
 30
0.0
 11
-0.0993
 21
0.442049
 31
0.0
  0
LINE
  8
0
  6
CONTINUOUS
 62
     7
  5
12D
 10
-0.0993
 20
0.442049
 30
0.0
 11
-0.106358
 21
0.441655
 31
0.0
  0
LINE
  8
0
  6
CONTINUOUS
 62
     7
  5
12E
 10
-0.106358
 20
0.441655
 30
0.0
 11
-0.113449
 21
0.441457
 31
0.0
  0
LINE
  8
0
  6
CONTINUOUS
 62
     7
  5
12F
 10
-0.113449
 20
0.441457
 30
0.0
 11
-0.120551
 21
0.441457
 31
0.0
  0
LINE
  8
0
  6
CONTINUOUS
 62
     7
  5
130
 10
-0.120551
 20
0.441457
 30
0.0
 11
-0.127642
 21
0.441655
 31
0.0
  0
LINE
  8
0
  6
CONTINUOUS
 62
     7
  5
131
 10
-0.127642
 20
0.441655
 30
0.0
 11
-0.1347
 21
0.442049
 31
0.0
  0
LINE
  8
0
  6
CONTINUOUS
 62
     7
  5
132
 10
-0.1347
 20
0.442049
 30
0.0
 11
-0.141703
 21
0.44264
 31
0.0
  0
LINE
  8
0
  6
CONTINUOUS
 62
     7
  5
133
 10
-0.141703
 20
0.44264
 30
0.0
 11
-0.14863
 21
0.443425
 31
0.0
  0
LINE
  8
0
  6
CONTINUOUS
 62
     7
  5
134
 10
-0.14863
 20
0.443425
 30
0.0
 11
-0.155458
 21
0.444401
 31
0.0
  0
LINE
  8
0
  6
CONTINUOUS
 62
     7
  5
135
 10
-0.155458
 20
0.444401
 30
0.0
 11
-0.162167
 21
0.445566
 31
0.0
  0
LINE
  8
0
  6
CONTINUOUS
 62
     7
  5
136
 10
-0.162167
 20
0.445566
 30
0.0
 11
-0.168736
 21
0.446916
 31
0.0
  0
LINE
  8
0
  6
CONTINUOUS
 62
     7
  5
137
 10
-0.168736
 20
0.446916
 30
0.0
 11
-0.175145
 21
0.448447
 31
0.0
  0
LINE
  8
0
  6
CONTINUOUS
 62
     7
  5
138
 10
-0.175145
 20
0.448447
 30
0.0
 11
-0.181373
 21
0.450154
 31
0.0
  0
LINE
  8
0
  6
CONTINUOUS
 62
     7
  5
139
 10
-0.181373
 20
0.450154
 30
0.0
 11
-0.187401
 21
0.452031
 31
0.0
  0
LINE
  8
0
  6
CONTINUOUS
 62
     7
  5
13A
 10
-0.187401
 20
0.452031
 30
0.0
 11
-0.193211
 21
0.454074
 31
0.0
  0
LINE
  8
0
  6
CONTINUOUS
 62
     7
  5
13B
 10
-0.193211
 20
0.454074
 30
0.0
 11
-0.198784
 21
0.456275
 31
0.0
  0
LINE
  8
0
  6
CONTINUOUS
 62
     7
  5
13C
 10
-0.198784
 20
0.456275
 30
0.0
 11
-0.204103
 21
0.458628
 31
0.0
  0
LINE
  8
0
  6
CONTINUOUS
 62
     7
  5
13D
 10
-0.204103
 20
0.458628
 30
0.0
 11
-0.209153
 21
0.461125
 31
0.0
  0
LINE
  8
0
  6
CONTINUOUS
 62
     7
  5
13E
 10
-0.209153
 20
0.461125
 30
0.0
 11
-0.213916
 21
0.463759
 31
0.0
  0
LINE
  8
0
  6
CONTINUOUS
 62
     7
  5
13F
 10
-0.213916
 20
0.463759
 30
0.0
 11
-0.218379
 21
0.466521
 31
0.0
  0
LINE
  8
0
  6
CONTINUOUS
 62
     7
  5
140
 10
-0.218379
 20
0.466521
 30
0.0
 11
-0.222527
 21
0.469404
 31
0.0
  0
LINE
  8
0
  6
CONTINUOUS
 62
     7
  5
141
 10
-0.011473
 20
0.540807
 30
0.0
 11
-0.011473
 21
0.469404
 31
0.0
  0
LINE
  8
0
  6
CONTINUOUS
 62
     7
  5
142
 10
-0.081471
 20
0.566407
 30
0.0
 11
-0.078488
 21
0.565954
 31
0.0
  0
LINE
  8
0
  6
CONTINUOUS
 62
     7
  5
143
 10
-0.078488
 20
0.565954
 30
0.0
 11
-0.075528
 21
0.565465
 31
0.0
  0
LINE
  8
0
  6
CONTINUOUS
 62
     7
  5
144
 10
-0.075528
 20
0.565465
 30
0.0
 11
-0.072592
 21
0.56494
 31
0.0
  0
LINE
  8
0
  6
CONTINUOUS
 62
     7
  5
145
 10
-0.072592
 20
0.56494
 30
0.0
 11
-0.069683
 21
0.56438
 31
0.0
  0
LINE
  8
0
  6
CONTINUOUS
 62
     7
  5
146
 10
-0.069683
 20
0.56438
 30
0.0
 11
-0.066802
 21
0.563783
 31
0.0
  0
LINE
  8
0
  6
CONTINUOUS
 62
     7
  5
147
 10
-0.066802
 20
0.563783
 30
0.0
 11
-0.063951
 21
0.563152
 31
0.0
  0
LINE
  8
0
  6
CONTINUOUS
 62
     7
  5
148
 10
-0.063951
 20
0.563152
 30
0.0
 11
-0.061132
 21
0.562486
 31
0.0
  0
LINE
  8
0
  6
CONTINUOUS
 62
     7
  5
149
 10
-0.061132
 20
0.562486
 30
0.0
 11
-0.058347
 21
0.561786
 31
0.0
  0
LINE
  8
0
  6
CONTINUOUS
 62
     7
  5
14A
 10
-0.058347
 20
0.561786
 30
0.0
 11
-0.055596
 21
0.561052
 31
0.0
  0
LINE
  8
0
  6
CONTINUOUS
 62
     7
  5
14B
 10
-0.055596
 20
0.561052
 30
0.0
 11
-0.052882
 21
0.560285
 31
0.0
  0
LINE
  8
0
  6
CONTINUOUS
 62
     7
  5
14C
 10
-0.052882
 20
0.560285
 30
0.0
 11
-0.050207
 21
0.559484
 31
0.0
  0
LINE
  8
0
  6
CONTINUOUS
 62
     7
  5
14D
 10
-0.050207
 20
0.559484
 30
0.0
 11
-0.047571
 21
0.558652
 31
0.0
  0
LINE
  8
0
  6
CONTINUOUS
 62
     7
  5
14E
 10
-0.047571
 20
0.558652
 30
0.0
 11
-0.044977
 21
0.557787
 31
0.0
  0
LINE
  8
0
  6
CONTINUOUS
 62
     7
  5
14F
 10
-0.044977
 20
0.557787
 30
0.0
 11
-0.042426
 21
0.556891
 31
0.0
  0
LINE
  8
0
  6
CONTINUOUS
 62
     7
  5
150
 10
-0.042426
 20
0.556891
 30
0.0
 11
-0.03992
 21
0.555963
 31
0.0
  0
LINE
  8
0
  6
CONTINUOUS
 62
     7
  5
151
 10
-0.03992
 20
0.555963
 30
0.0
 11
-0.03746
 21
0.555006
 31
0.0
  0
LINE
  8
0
  6
CONTINUOUS
 62
     7
  5
152
 10
-0.03746
 20
0.555006
 30
0.0
 11
-0.035047
 21
0.554019
 31
0.0
  0
LINE
  8
0
  6
CONTINUOUS
 62
     7
  5
153
 10
-0.035047
 20
0.554019
 30
0.0
 11
-0.032683
 21
0.553002
 31
0.0
  0
LINE
  8
0
  6
CONTINUOUS
 62
     7
  5
154
 10
-0.032683
 20
0.553002
 30
0.0
 11
-0.03037
 21
0.551957
 31
0.0
  0
LINE
  8
0
  6
CONTINUOUS
 62
     7
  5
155
 10
-0.03037
 20
0.551957
 30
0.0
 11
-0.028109
 21
0.550884
 31
0.0
  0
LINE
  8
0
  6
CONTINUOUS
 62
     7
  5
156
 10
-0.028109
 20
0.550884
 30
0.0
 11
-0.0259
 21
0.549783
 31
0.0
  0
LINE
  8
0
  6
CONTINUOUS
 62
     7
  5
157
 10
-0.0259
 20
0.549783
 30
0.0
 11
-0.023746
 21
0.548656
 31
0.0
  0
LINE
  8
0
  6
CONTINUOUS
 62
     7
  5
158
 10
-0.023746
 20
0.548656
 30
0.0
 11
-0.021648
 21
0.547503
 31
0.0
  0
LINE
  8
0
  6
CONTINUOUS
 62
     7
  5
159
 10
-0.021648
 20
0.547503
 30
0.0
 11
-0.019607
 21
0.546325
 31
0.0
  0
LINE
  8
0
  6
CONTINUOUS
 62
     7
  5
15A
 10
-0.019607
 20
0.546325
 30
0.0
 11
-0.017624
 21
0.545122
 31
0.0
  0
LINE
  8
0
  6
CONTINUOUS
 62
     7
  5
15B
 10
-0.017624
 20
0.545122
 30
0.0
 11
-0.015701
 21
0.543895
 31
0.0
  0
LINE
  8
0
  6
CONTINUOUS
 62
     7
  5
15C
 10
-0.015701
 20
0.543895
 30
0.0
 11
-0.013838
 21
0.542645
 31
0.0
  0
LINE
  8
0
  6
CONTINUOUS
 62
     7
  5
15D
 10
-0.013838
 20
0.542645
 30
0.0
 11
-0.012037
 21
0.541372
 31
0.0
  0
LINE
  8
0
  6
CONTINUOUS
 62
     7
  5
15E
 10
-0.012037
 20
0.541372
 30
0.0
 11
-0.010298
 21
0.540078
 31
0.0
  0
LINE
  8
0
  6
CONTINUOUS
 62
     7
  5
15F
 10
-0.010298
 20
0.540078
 30
0.0
 11
-0.008624
 21
0.538764
 31
0.0
  0
LINE
  8
0
  6
CONTINUOUS
 62
     7
  5
160
 10
-0.008624
 20
0.538764
 30
0.0
 11
-0.007014
 21
0.537429
 31
0.0
  0
LINE
  8
0
  6
CONTINUOUS
 62
     7
  5
161
 10
-0.007014
 20
0.537429
 30
0.0
 11
-0.00547
 21
0.536074
 31
0.0
  0
LINE
  8
0
  6
CONTINUOUS
 62
     7
  5
162
 10
-0.00547
 20
0.536074
 30
0.0
 11
-0.003993
 21
0.534701
 31
0.0
  0
LINE
  8
0
  6
CONTINUOUS
 62
     7
  5
163
 10
-0.003993
 20
0.534701
 30
0.0
 11
-0.002583
 21
0.533311
 31
0.0
  0
LINE
  8
0
  6
CONTINUOUS
 62
     7
  5
164
 10
-0.002583
 20
0.533311
 30
0.0
 11
-0.001241
 21
0.531904
 31
0.0
  0
LINE
  8
0
  6
CONTINUOUS
 62
     7
  5
165
 10
-0.152529
 20
0.566407
 30
0.0
 11
-0.150503
 21
0.566695
 31
0.0
  0
LINE
  8
0
  6
CONTINUOUS
 62
     7
  5
166
 10
-0.150503
 20
0.566695
 30
0.0
 11
-0.148469
 21
0.56697
 31
0.0
  0
LINE
  8
0
  6
CONTINUOUS
 62
     7
  5
167
 10
-0.148469
 20
0.56697
 30
0.0
 11
-0.146428
 21
0.567233
 31
0.0
  0
LINE
  8
0
  6
CONTINUOUS
 62
     7
  5
168
 10
-0.146428
 20
0.567233
 30
0.0
 11
-0.14438
 21
0.567482
 31
0.0
  0
LINE
  8
0
  6
CONTINUOUS
 62
     7
  5
169
 10
-0.14438
 20
0.567482
 30
0.0
 11
-0.142328
 21
0.567716
 31
0.0
  0
LINE
  8
0
  6
CONTINUOUS
 62
     7
  5
16A
 10
-0.142328
 20
0.567716
 30
0.0
 11
-0.140274
 21
0.567934
 31
0.0
  0
LINE
  8
0
  6
CONTINUOUS
 62
     7
  5
16B
 10
-0.140274
 20
0.567934
 30
0.0
 11
-0.138218
 21
0.568136
 31
0.0
  0
LINE
  8
0
  6
CONTINUOUS
 62
     7
  5
16C
 10
-0.138218
 20
0.568136
 30
0.0
 11
-0.136163
 21
0.568321
 31
0.0
  0
LINE
  8
0
  6
CONTINUOUS
 62
     7
  5
16D
 10
-0.136163
 20
0.568321
 30
0.0
 11
-0.13411
 21
0.568487
 31
0.0
  0
LINE
  8
0
  6
CONTINUOUS
 62
     7
  5
16E
 10
-0.13411
 20
0.568487
 30
0.0
 11
-0.132061
 21
0.568636
 31
0.0
  0
LINE
  8
0
  6
CONTINUOUS
 62
     7
  5
16F
 10
-0.132061
 20
0.568636
 30
0.0
 11
-0.130018
 21
0.568766
 31
0.0
  0
LINE
  8
0
  6
CONTINUOUS
 62
     7
  5
170
 10
-0.130018
 20
0.568766
 30
0.0
 11
-0.127983
 21
0.568877
 31
0.0
  0
LINE
  8
0
  6
CONTINUOUS
 62
     7
  5
171
 10
-0.127983
 20
0.568877
 30
0.0
 11
-0.125957
 21
0.568969
 31
0.0
  0
LINE
  8
0
  6
CONTINUOUS
 62
     7
  5
172
 10
-0.125957
 20
0.568969
 30
0.0
 11
-0.123942
 21
0.569043
 31
0.0
  0
LINE
  8
0
  6
CONTINUOUS
 62
     7
  5
173
 10
-0.123942
 20
0.569043
 30
0.0
 11
-0.121939
 21
0.569097
 31
0.0
  0
LINE
  8
0
  6
CONTINUOUS
 62
     7
  5
174
 10
-0.121939
 20
0.569097
 30
0.0
 11
-0.119951
 21
0.569134
 31
0.0
  0
LINE
  8
0
  6
CONTINUOUS
 62
     7
  5
175
 10
-0.119951
 20
0.569134
 30
0.0
 11
-0.117979
 21
0.569151
 31
0.0
  0
LINE
  8
0
  6
CONTINUOUS
 62
     7
  5
176
 10
-0.117979
 20
0.569151
 30
0.0
 11
-0.116021
 21
0.569151
 31
0.0
  0
LINE
  8
0
  6
CONTINUOUS
 62
     7
  5
177
 10
-0.116021
 20
0.569151
 30
0.0
 11
-0.114049
 21
0.569134
 31
0.0
  0
LINE
  8
0
  6
CONTINUOUS
 62
     7
  5
178
 10
-0.114049
 20
0.569134
 30
0.0
 11
-0.112061
 21
0.569097
 31
0.0
  0
LINE
  8
0
  6
CONTINUOUS
 62
     7
  5
179
 10
-0.112061
 20
0.569097
 30
0.0
 11
-0.110058
 21
0.569043
 31
0.0
  0
LINE
  8
0
  6
CONTINUOUS
 62
     7
  5
17A
 10
-0.110058
 20
0.569043
 30
0.0
 11
-0.108043
 21
0.568969
 31
0.0
  0
LINE
  8
0
  6
CONTINUOUS
 62
     7
  5
17B
 10
-0.108043
 20
0.568969
 30
0.0
 11
-0.106017
 21
0.568877
 31
0.0
  0
LINE
  8
0
  6
CONTINUOUS
 62
     7
  5
17C
 10
-0.106017
 20
0.568877
 30
0.0
 11
-0.103982
 21
0.568766
 31
0.0
  0
LINE
  8
0
  6
CONTINUOUS
 62
     7
  5
17D
 10
-0.103982
 20
0.568766
 30
0.0
 11
-0.101939
 21
0.568636
 31
0.0
  0
LINE
  8
0
  6
CONTINUOUS
 62
     7
  5
17E
 10
-0.101939
 20
0.568636
 30
0.0
 11
-0.09989
 21
0.568487
 31
0.0
  0
LINE
  8
0
  6
CONTINUOUS
 62
     7
  5
17F
 10
-0.09989
 20
0.568487
 30
0.0
 11
-0.097837
 21
0.568321
 31
0.0
  0
LINE
  8
0
  6
CONTINUOUS
 62
     7
  5
180
 10
-0.097837
 20
0.568321
 30
0.0
 11
-0.095782
 21
0.568136
 31
0.0
  0
LINE
  8
0
  6
CONTINUOUS
 62
     7
  5
181
 10
-0.095782
 20
0.568136
 30
0.0
 11
-0.093726
 21
0.567934
 31
0.0
  0
LINE
  8
0
  6
CONTINUOUS
 62
     7
  5
182
 10
-0.093726
 20
0.567934
 30
0.0
 11
-0.091672
 21
0.567716
 31
0.0
  0
LINE
  8
0
  6
CONTINUOUS
 62
     7
  5
183
 10
-0.091672
 20
0.567716
 30
0.0
 11
-0.08962
 21
0.567482
 31
0.0
  0
LINE
  8
0
  6
CONTINUOUS
 62
     7
  5
184
 10
-0.08962
 20
0.567482
 30
0.0
 11
-0.087572
 21
0.567233
 31
0.0
  0
LINE
  8
0
  6
CONTINUOUS
 62
     7
  5
185
 10
-0.087572
 20
0.567233
 30
0.0
 11
-0.085531
 21
0.56697
 31
0.0
  0
LINE
  8
0
  6
CONTINUOUS
 62
     7
  5
186
 10
-0.085531
 20
0.56697
 30
0.0
 11
-0.083497
 21
0.566695
 31
0.0
  0
LINE
  8
0
  6
CONTINUOUS
 62
     7
  5
187
 10
-0.083497
 20
0.566695
 30
0.0
 11
-0.081471
 21
0.566407
 31
0.0
  0
LINE
  8
0
  6
CONTINUOUS
 62
     7
  5
188
 10
-0.232759
 20
0.531904
 30
0.0
 11
-0.231417
 21
0.533311
 31
0.0
  0
LINE
  8
0
  6
CONTINUOUS
 62
     7
  5
189
 10
-0.231417
 20
0.533311
 30
0.0
 11
-0.230007
 21
0.534701
 31
0.0
  0
LINE
  8
0
  6
CONTINUOUS
 62
     7
  5
18A
 10
-0.230007
 20
0.534701
 30
0.0
 11
-0.22853
 21
0.536074
 31
0.0
  0
LINE
  8
0
  6
CONTINUOUS
 62
     7
  5
18B
 10
-0.22853
 20
0.536074
 30
0.0
 11
-0.226986
 21
0.537429
 31
0.0
  0
LINE
  8
0
  6
CONTINUOUS
 62
     7
  5
18C
 10
-0.226986
 20
0.537429
 30
0.0
 11
-0.225376
 21
0.538764
 31
0.0
  0
LINE
  8
0
  6
CONTINUOUS
 62
     7
  5
18D
 10
-0.225376
 20
0.538764
 30
0.0
 11
-0.223702
 21
0.540078
 31
0.0
  0
LINE
  8
0
  6
CONTINUOUS
 62
     7
  5
18E
 10
-0.223702
 20
0.540078
 30
0.0
 11
-0.221963
 21
0.541372
 31
0.0
  0
LINE
  8
0
  6
CONTINUOUS
 62
     7
  5
18F
 10
-0.221963
 20
0.541372
 30
0.0
 11
-0.220162
 21
0.542645
 31
0.0
  0
LINE
  8
0
  6
CONTINUOUS
 62
     7
  5
190
 10
-0.220162
 20
0.542645
 30
0.0
 11
-0.218299
 21
0.543895
 31
0.0
  0
LINE
  8
0
  6
CONTINUOUS
 62
     7
  5
191
 10
-0.218299
 20
0.543895
 30
0.0
 11
-0.216376
 21
0.545122
 31
0.0
  0
LINE
  8
0
  6
CONTINUOUS
 62
     7
  5
192
 10
-0.216376
 20
0.545122
 30
0.0
 11
-0.214393
 21
0.546325
 31
0.0
  0
LINE
  8
0
  6
CONTINUOUS
 62
     7
  5
193
 10
-0.214393
 20
0.546325
 30
0.0
 11
-0.212352
 21
0.547503
 31
0.0
  0
LINE
  8
0
  6
CONTINUOUS
 62
     7
  5
194
 10
-0.212352
 20
0.547503
 30
0.0
 11
-0.210254
 21
0.548656
 31
0.0
  0
LINE
  8
0
  6
CONTINUOUS
 62
     7
  5
195
 10
-0.210254
 20
0.548656
 30
0.0
 11
-0.2081
 21
0.549783
 31
0.0
  0
LINE
  8
0
  6
CONTINUOUS
 62
     7
  5
196
 10
-0.2081
 20
0.549783
 30
0.0
 11
-0.205891
 21
0.550884
 31
0.0
  0
LINE
  8
0
  6
CONTINUOUS
 62
     7
  5
197
 10
-0.205891
 20
0.550884
 30
0.0
 11
-0.20363
 21
0.551957
 31
0.0
  0
LINE
  8
0
  6
CONTINUOUS
 62
     7
  5
198
 10
-0.20363
 20
0.551957
 30
0.0
 11
-0.201317
 21
0.553002
 31
0.0
  0
LINE
  8
0
  6
CONTINUOUS
 62
     7
  5
199
 10
-0.201317
 20
0.553002
 30
0.0
 11
-0.198953
 21
0.554019
 31
0.0
  0
LINE
  8
0
  6
CONTINUOUS
 62
     7
  5
19A
 10
-0.198953
 20
0.554019
 30
0.0
 11
-0.19654
 21
0.555006
 31
0.0
  0
LINE
  8
0
  6
CONTINUOUS
 62
     7
  5
19B
 10
-0.19654
 20
0.555006
 30
0.0
 11
-0.19408
 21
0.555963
 31
0.0
  0
LINE
  8
0
  6
CONTINUOUS
 62
     7
  5
19C
 10
-0.19408
 20
0.555963
 30
0.0
 11
-0.191574
 21
0.556891
 31
0.0
  0
LINE
  8
0
  6
CONTINUOUS
 62
     7
  5
19D
 10
-0.191574
 20
0.556891
 30
0.0
 11
-0.189023
 21
0.557787
 31
0.0
  0
LINE
  8
0
  6
CONTINUOUS
 62
     7
  5
19E
 10
-0.189023
 20
0.557787
 30
0.0
 11
-0.186429
 21
0.558652
 31
0.0
  0
LINE
  8
0
  6
CONTINUOUS
 62
     7
  5
19F
 10
-0.186429
 20
0.558652
 30
0.0
 11
-0.183793
 21
0.559484
 31
0.0
  0
LINE
  8
0
  6
CONTINUOUS
 62
     7
  5
1A0
 10
-0.183793
 20
0.559484
 30
0.0
 11
-0.181118
 21
0.560285
 31
0.0
  0
LINE
  8
0
  6
CONTINUOUS
 62
     7
  5
1A1
 10
-0.181118
 20
0.560285
 30
0.0
 11
-0.178404
 21
0.561052
 31
0.0
  0
LINE
  8
0
  6
CONTINUOUS
 62
     7
  5
1A2
 10
-0.178404
 20
0.561052
 30
0.0
 11
-0.175653
 21
0.561786
 31
0.0
  0
LINE
  8
0
  6
CONTINUOUS
 62
     7
  5
1A3
 10
-0.175653
 20
0.561786
 30
0.0
 11
-0.172868
 21
0.562486
 31
0.0
  0
LINE
  8
0
  6
CONTINUOUS
 62
     7
  5
1A4
 10
-0.172868
 20
0.562486
 30
0.0
 11
-0.170049
 21
0.563152
 31
0.0
  0
LINE
  8
0
  6
CONTINUOUS
 62
     7
  5
1A5
 10
-0.170049
 20
0.563152
 30
0.0
 11
-0.167198
 21
0.563783
 31
0.0
  0
LINE
  8
0
  6
CONTINUOUS
 62
     7
  5
1A6
 10
-0.167198
 20
0.563783
 30
0.0
 11
-0.164317
 21
0.56438
 31
0.0
  0
LINE
  8
0
  6
CONTINUOUS
 62
     7
  5
1A7
 10
-0.164317
 20
0.56438
 30
0.0
 11
-0.161408
 21
0.56494
 31
0.0
  0
LINE
  8
0
  6
CONTINUOUS
 62
     7
  5
1A8
 10
-0.161408
 20
0.56494
 30
0.0
 11
-0.158472
 21
0.565465
 31
0.0
  0
LINE
  8
0
  6
CONTINUOUS
 62
     7
  5
1A9
 10
-0.158472
 20
0.565465
 30
0.0
 11
-0.155512
 21
0.565954
 31
0.0
  0
LINE
  8
0
  6
CONTINUOUS
 62
     7
  5
1AA
 10
-0.155512
 20
0.565954
 30
0.0
 11
-0.152529
 21
0.566407
 31
0.0
  0
LINE
  8
0
  6
CONTINUOUS
 62
     7
  5
1AB
 10
-0.376
 20
0.634708
 30
0.0
 11
-0.376
 21
0.566407
 31
0.0
  0
LINE
  8
0
  6
CONTINUOUS
 62
     7
  5
1AC
 10
-0.001241
 20
0.531904
 30
0.0
 11
0.073
 21
0.531904
 31
0.0
  0
LINE
  8
0
  6
CONTINUOUS
 62
     7
  5
1AD
 10
-0.222527
 20
0.469404
 30
0.0
 11
-0.376
 21
0.469404
 31
0.0
  0
LINE
  8
0
  6
CONTINUOUS
 62
     7
  5
1AE
 10
-0.376
 20
0.469404
 30
0.0
 11
-0.376
 21
0.431407
 31
0.0
  0
LINE
  8
0
  6
CONTINUOUS
 62
     7
  5
1AF
 10
0.073
 20
0.469404
 30
0.0
 11
-0.011473
 21
0.469404
 31
0.0
  0
LINE
  8
0
  6
CONTINUOUS
 62
     7
  5
1B0
 10
-0.376
 20
0.469404
 30
0.0
 11
-0.376
 21
0.651845
 31
0.0
  0
LINE
  8
0
  6
CONTINUOUS
 62
     7
  5
1B1
 10
-0.376
 20
0.531904
 30
0.0
 11
-0.232759
 21
0.531904
 31
0.0
  0
LINE
  8
0
  6
CONTINUOUS
 62
     7
  5
1B2
 10
-0.376
 20
0.566407
 30
0.0
 11
-0.376
 21
0.531904
 31
0.0
  0
LINE
  8
0
  6
CONTINUOUS
 62
     7
  5
1B3
 10
0.073
 20
1.076
 30
0.0
 11
-0.271
 21
1.076
 31
0.0
  0
LINE
  8
0
  6
CONTINUOUS
 62
     7
  5
1B4
 10
-0.376
 20
1.076
 30
0.0
 11
-0.376
 21
0.956
 31
0.0
  0
LINE
  8
0
  6
CONTINUOUS
 62
     7
  5
1B5
 10
-0.376
 20
0.956
 30
0.0
 11
-0.376
 21
0.741
 31
0.0
  0
LINE
  8
0
  6
CONTINUOUS
 62
     7
  5
1B6
 10
-0.376
 20
0.741
 30
0.0
 11
-0.376
 21
0.708923
 31
0.0
  0
LINE
  8
0
  6
CONTINUOUS
 62
     7
  5
1B7
 10
-0.376
 20
0.708923
 30
0.0
 11
-0.376
 21
0.651845
 31
0.0
  0
LINE
  8
0
  6
CONTINUOUS
 62
     7
  5
1B8
 10
-0.376
 20
0.651845
 30
0.0
 11
-0.376
 21
0.634708
 31
0.0
  0
LINE
  8
0
  6
CONTINUOUS
 62
     7
  5
1B9
 10
-0.376
 20
0.431407
 30
0.0
 11
-0.376
 21
0.424708
 31
0.0
  0
LINE
  8
0
  6
CONTINUOUS
 62
     7
  5
1BA
 10
0.073
 20
1.074565
 30
0.0
 11
0.073
 21
1.076
 31
0.0
  0
LINE
  8
0
  6
CONTINUOUS
 62
     7
  5
1BB
 10
0.073
 20
0.0
 30
0.0
 11
0.073
 21
0.531904
 31
0.0
  0
LINE
  8
0
  6
CONTINUOUS
 62
     7
  5
1BC
 10
-0.171
 20
1.076
 30
0.0
 11
0.599
 21
1.076
 31
0.0
  0
LINE
  8
0
  6
CONTINUOUS
 62
     7
  5
1BD
 10
-0.271
 20
1.076
 30
0.0
 11
-0.171
 21
1.076
 31
0.0
  0
LINE
  8
0
  6
CONTINUOUS
 62
     7
  5
1BE
 10
1.298
 20
1.185
 30
0.0
 11
1.483
 21
1.185
 31
0.0
  0
LINE
  8
0
  6
CONTINUOUS
 62
     7
  5
1BF
 10
0.599
 20
1.185
 30
0.0
 11
1.298
 21
1.185
 31
0.0
  0
LINE
  8
0
  6
CONTINUOUS
 62
     7
  5
1C0
 10
0.599
 20
1.076
 30
0.0
 11
0.599
 21
1.185
 31
0.0
  0
LINE
  8
0
  6
CONTINUOUS
 62
     7
  5
1C1
 10
-0.19
 20
1.216
 30
0.0
 11
0.0
 21
1.216
 31
0.0
  0
LINE
  8
0
  6
CONTINUOUS
 62
     7
  5
1C2
 10
0.0
 20
1.216
 30
0.0
 11
0.19
 21
1.216
 31
0.0
  0
LINE
  8
0
  6
CONTINUOUS
 62
     7
  5
1C3
 10
0.305
 20
1.216
 30
0.0
 11
0.353958
 21
1.216
 31
0.0
  0
LINE
  8
0
  6
CONTINUOUS
 62
     7
  5
1C4
 10
1.137
 20
1.287
 30
0.0
 11
1.218
 21
1.287
 31
0.0
  0
LINE
  8
0
  6
CONTINUOUS
 62
     7
  5
1C5
 10
1.218
 20
1.287
 30
0.0
 11
1.473
 21
1.287
 31
0.0
  0
LINE
  8
0
  6
CONTINUOUS
 62
     7
  5
1C6
 10
1.137
 20
1.287
 30
0.0
 11
1.137
 21
1.245
 31
0.0
  0
LINE
  8
0
  6
CONTINUOUS
 62
     7
  5
1C7
 10
1.298
 20
1.245
 30
0.0
 11
0.609
 21
1.245
 31
0.0
  0
LINE
  8
0
  6
CONTINUOUS
 62
     7
  5
1C8
 10
1.483
 20
1.245
 30
0.0
 11
1.298
 21
1.245
 31
0.0
  0
LINE
  8
0
  6
CONTINUOUS
 62
     7
  5
1C9
 10
0.354
 20
1.287
 30
0.0
 11
0.864
 21
1.287
 31
0.0
  0
LINE
  8
0
  6
CONTINUOUS
 62
     7
  5
1CA
 10
0.354
 20
1.287
 30
0.0
 11
0.354
 21
1.216
 31
0.0
  0
LINE
  8
0
  6
CONTINUOUS
 62
     7
  5
1CB
 10
0.864
 20
1.245
 30
0.0
 11
0.864
 21
1.287
 31
0.0
  0
LINE
  8
0
  6
CONTINUOUS
 62
     7
  5
1CC
 10
0.539
 20
1.245
 30
0.0
 11
0.539
 21
1.136
 31
0.0
  0
LINE
  8
0
  6
CONTINUOUS
 62
     7
  5
1CD
 10
0.609
 20
1.245
 30
0.0
 11
0.539
 21
1.245
 31
0.0
  0
LINE
  8
0
  6
CONTINUOUS
 62
     7
  5
1CE
 10
-0.171
 20
1.136
 30
0.0
 11
-0.271
 21
1.136
 31
0.0
  0
LINE
  8
0
  6
CONTINUOUS
 62
     7
  5
1CF
 10
0.539
 20
1.136
 30
0.0
 11
-0.171
 21
1.136
 31
0.0
  0
LINE
  8
0
  6
CONTINUOUS
 62
     7
  5
1D0
 10
-0.271
 20
1.076
 30
0.0
 11
-0.271
 21
1.136
 31
0.0
  0
LINE
  8
0
  6
CONTINUOUS
 62
     7
  5
1D1
 10
1.483
 20
1.185
 30
0.0
 11
1.483
 21
1.245
 31
0.0
  0
LINE
  8
0
  6
CONTINUOUS
 62
     7
  5
1D2
 10
0.365
 20
1.89
 30
0.0
 11
0.853
 21
1.89
 31
0.0
  0
LINE
  8
0
  6
CONTINUOUS
 62
     7
  5
1D3
 10
0.853
 20
1.076
 30
0.0
 11
0.744
 21
1.076
 31
0.0
  0
LINE
  8
0
  6
CONTINUOUS
 62
     7
  5
1D4
 10
0.744
 20
1.076
 30
0.0
 11
0.599
 21
1.076
 31
0.0
  0
LINE
  8
0
  6
CONTINUOUS
 62
     7
  5
1D5
 10
0.744
 20
0.0
 30
0.0
 11
0.744
 21
1.076
 31
0.0
  0
LINE
  8
0
  6
CONTINUOUS
 62
     7
  5
1D6
 10
0.163
 20
0.0
 30
0.0
 11
0.744
 21
0.0
 31
0.0
  0
LINE
  8
0
  6
CONTINUOUS
 62
     7
  5
1D7
 10
0.073
 20
0.0
 30
0.0
 11
0.163
 21
0.0
 31
0.0
  0
LINE
  8
0
  6
CONTINUOUS
 62
     7
  5
1D8
 10
0.0
 20
0.0
 30
0.0
 11
0.073
 21
0.0
 31
0.0
  0
LINE
  8
0
  6
CONTINUOUS
 62
     7
  5
1D9
 10
-0.208
 20
0.0
 30
0.0
 11
0.0
 21
0.0
 31
0.0
  0
LINE
  8
0
  6
CONTINUOUS
 62
     7
  5
1DA
 10
-0.376
 20
0.424708
 30
0.0
 11
0.073
 21
0.424708
 31
0.0
  0
LINE
  8
0
  6
CONTINUOUS
 62
     7
  5
1DB
 10
-0.19
 20
1.216
 30
0.0
 11
-0.19
 21
1.136
 31
0.0
  0
LINE
  8
0
  6
CONTINUOUS
 62
     7
  5
1DC
 10
0.19
 20
1.136
 30
0.0
 11
0.19
 21
1.216
 31
0.0
  0
LINE
  8
0
  6
CONTINUOUS
 62
     7
  5
1DD
 10
0.305
 20
1.216
 30
0.0
 11
0.305
 21
1.136
 31
0.0
  0
LINE
  8
0
  6
CONTINUOUS
 62
     7
  5
1DE
 10
0.354
 20
1.216
 30
0.0
 11
0.354
 21
1.136
 31
0.0
  0
LINE
  8
0
  6
CONTINUOUS
 62
     7
  5
1DF
 10
1.473
 20
1.245
 30
0.0
 11
1.473
 21
1.287
 31
0.0
  0
LINE
  8
0
  6
CONTINUOUS
 62
     7
  5
1E0
 10
0.365
 20
1.89
 30
0.0
 11
0.365
 21
1.287
 31
0.0
  0
LINE
  8
0
  6
CONTINUOUS
 62
     7
  5
1E1
 10
0.853
 20
1.287
 30
0.0
 11
0.853
 21
1.89
 31
0.0
  0
LINE
  8
0
  6
CONTINUOUS
 62
     7
  5
1E2
 10
0.853
 20
1.076
 30
0.0
 11
0.853
 21
1.185
 31
0.0
  0
LINE
  8
0
  6
CONTINUOUS
 62
     7
  5
1E3
 10
-0.208
 20
0.424708
 30
0.0
 11
-0.208
 21
0.0
 31
0.0
  0
ENDSEC
  0
EOF
