999
DXF file: C:\Users\sesa63760\Dev\_Creo\CAD\MCADID0001738_3D-CAD\drw0001_4.dxf
999
Pro/ENGINEER 2019471 by Parametric Technology Corporation
  0
SECTION
  2
HEADER
  9
$ACADVER
  1
AC1024
  9
$DWGCODEPAGE
  3
ANSI_1252
  9
$EXTMAX
 10
89.6228970066
 20
126.7523829094
 30
0.0
  9
$EXTMIN
 10
0.0
 20
0.0
 30
0.0
  9
$LIMMIN
 10
0.0
 20
0.0
  9
$LIMMAX
 10
89.6228970066
 20
126.7523829094
  9
$VIEWCTR
 10
44.8114485033
 20
63.3761914547
  9
$VIEWSIZE
 40
126.7523829094
  9
$CLAYER
  8
0
  9
$LTSCALE
 40
8.2623775526
  9
$CELTYPE
  6
BYLAYER
  9
$DIMSCALE
 40
1.0
  9
$DIMASZ
 40
1.0669392501
  9
$DIMEXO
 40
1.0
  9
$DIMDLI
 40
5.7085517636
  9
$DIMEXE
 40
1.0
  9
$DIMCEN
 40
1.3520254177
  9
$DIMLFAC
 40
1.0
  9
$DIMBLK
  1
_FILLED
  9
$DIMALT
 70
0
  9
$DIMALTF
 40
0.0393700787
  9
$DIMTXT
 40
1.4937149501
  9
$DIMTOL
 70
1
  9
$DIMLIM
 70
0
  9
$DIMTFAC
 40
1.0
  9
$DIMTP
 40
0.01
  9
$DIMTM
 40
0.01
  9
$DIMGAP
 40
0.625
  9
$DIMDSEP
 70
46
  9
$AUNITS
 70
0
  9
$PDMODE
 70
3
  9
$PDSIZE
 40
0.3125
  9
$HANDSEED
  5
343
  9
$TILEMODE
 70
1
  9
$MEASUREMENT
 70
1
  9
$INSUNITS
 70
4
  0
ENDSEC
  0
SECTION
  2
CLASSES
  0
CLASS
  1
ACDBDICTIONARYWDFLT
  2
AcDbDictionaryWithDefault
  3
AutoCAD 2000
 90
0
 91
1
280
0
281
0
  0
CLASS
  1
ACDBPLACEHOLDER
  2
AcDbPlaceHolder
  3
AutoCAD 2000
 90
0
 91
1
280
0
281
0
  0
CLASS
  1
LAYOUT
  2
AcDbLayout
  3
AutoCAD 2000
 90
0
 91
0
280
0
281
0
  0
ENDSEC
  0
SECTION
  2
TABLES
  0
TABLE
  2
VPORT
  5
8
100
AcDbSymbolTable
 70
2
  0
VPORT
  5
1F4
100
AcDbSymbolTableRecord
100
AcDbViewportTableRecord
  2
*ACTIVE
 70
0
 10
0.0
 20
0.0
 11
1.0
 21
1.0
 12
44.8114485033
 22
63.3761914547
 13
0.0
 23
0.0
 14
1.0
 24
1.0
 15
0.0
 25
0.0
 16
0.0
 26
0.0
 36
1.0
 17
0.0
 27
0.0
 37
0.0
 40
126.7523829094
 41
0.7070707071
 42
50.0
 43
0.0
 44
0.0
 50
0.0
 51
0.0
 71
0
 72
100
 73
1
 74
1
 75
0
 76
0
 77
0
 78
0
  0
ENDTAB
  0
TABLE
  2
LTYPE
  5
5
100
AcDbSymbolTable
 70
6
  0
LTYPE
  5
14
100
AcDbSymbolTableRecord
100
AcDbLinetypeTableRecord
  2
BYBLOCK
 70
0
  3

 72
65
 73
0
 40
0.0
  0
LTYPE
  5
15
100
AcDbSymbolTableRecord
100
AcDbLinetypeTableRecord
  2
BYLAYER
 70
0
  3

 72
65
 73
0
 40
0.0
  0
LTYPE
  5
16
100
AcDbSymbolTableRecord
100
AcDbLinetypeTableRecord
  2
CONTINUOUS
 70
64
  3
Solid line
 72
65
 73
0
 40
0.0
  0
LTYPE
  5
1F5
100
AcDbSymbolTableRecord
100
AcDbLinetypeTableRecord
  2
CENTER
 70
64
  3
____ _ ____ _ ____ _ ____ _ ____ _ ____ _ ____
 72
65
 73
4
 40
0.6
 49
0.375
 74
0
 49
-0.075
 74
0
 49
0.075
 74
0
 49
-0.075
 74
0
  0
LTYPE
  5
1F6
100
AcDbSymbolTableRecord
100
AcDbLinetypeTableRecord
  2
HIDDEN
 70
64
  3
- - - - - - - - - - - - - - - - - - - -
 72
65
 73
2
 40
0.2
 49
0.1
 74
0
 49
-0.1
 74
0
  0
LTYPE
  5
1F7
100
AcDbSymbolTableRecord
100
AcDbLinetypeTableRecord
  2
PHANTOM
 70
64
  3
_____ _ _ _____ _ _ _____ _ _ _____
 72
65
 73
6
 40
0.8
 49
0.45
 74
0
 49
-0.05
 74
0
 49
0.1
 74
0
 49
-0.05
 74
0
 49
0.1
 74
0
 49
-0.05
 74
0
  0
LTYPE
  5
1F8
100
AcDbSymbolTableRecord
100
AcDbLinetypeTableRecord
  2
DOT
 70
64
  3
. . . . . . . . . . . . . . . . . . . .
 72
65
 73
2
 40
0.2
 49
0.1
 74
0
 49
-0.1
 74
0
  0
LTYPE
  5
1F9
100
AcDbSymbolTableRecord
100
AcDbLinetypeTableRecord
  2
DASHED
 70
64
  3
- - - - - - - - - - - - - - - - - - - -
 72
65
 73
2
 40
0.2
 49
0.1
 74
0
 49
-0.1
 74
0
  0
ENDTAB
  0
TABLE
  2
LAYER
  5
2
100
AcDbSymbolTable
 70
36
  0
LAYER
  5
10
100
AcDbSymbolTableRecord
100
AcDbLayerTableRecord
  2
0
 70
0
 62
7
  6
CONTINUOUS
370
-3
390
F
  0
LAYER
  5
1FA
100
AcDbSymbolTableRecord
100
AcDbLayerTableRecord
  2
DEFAULT_1
 70
0
 62
7
  6
CENTER
370
-3
390
F
  0
LAYER
  5
1FB
100
AcDbSymbolTableRecord
100
AcDbLayerTableRecord
  2
DEFAULT_2
 70
0
 62
8
  6
HIDDEN
370
-3
390
F
  0
LAYER
  5
1FC
100
AcDbSymbolTableRecord
100
AcDbLayerTableRecord
  2
DEFAULT_3
 70
0
 62
7
  6
PHANTOM
370
-3
390
F
  0
LAYER
  5
1FD
100
AcDbSymbolTableRecord
100
AcDbLayerTableRecord
  2
00_COMPONENTS
 70
0
 62
7
  6
CONTINUOUS
370
-3
390
F
  0
LAYER
  5
1FE
100
AcDbSymbolTableRecord
100
AcDbLayerTableRecord
  2
01_1_DEFAULT_DATUMS
 70
0
 62
7
  6
CONTINUOUS
370
-3
390
F
  0
LAYER
  5
1FF
100
AcDbSymbolTableRecord
100
AcDbLayerTableRecord
  2
01_PLANES
 70
0
 62
7
  6
CONTINUOUS
370
-3
390
F
  0
LAYER
  5
200
100
AcDbSymbolTableRecord
100
AcDbLayerTableRecord
  2
02_COORD_SYS
 70
0
 62
7
  6
CONTINUOUS
370
-3
390
F
  0
LAYER
  5
201
100
AcDbSymbolTableRecord
100
AcDbLayerTableRecord
  2
03_AXES
 70
0
 62
7
  6
CONTINUOUS
370
-3
390
F
  0
LAYER
  5
202
100
AcDbSymbolTableRecord
100
AcDbLayerTableRecord
  2
04_POINTS
 70
0
 62
7
  6
CONTINUOUS
370
-3
390
F
  0
LAYER
  5
203
100
AcDbSymbolTableRecord
100
AcDbLayerTableRecord
  2
05_CURVES
 70
0
 62
7
  6
CONTINUOUS
370
-3
390
F
  0
LAYER
  5
204
100
AcDbSymbolTableRecord
100
AcDbLayerTableRecord
  2
06_SURFS
 70
0
 62
7
  6
CONTINUOUS
370
-3
390
F
  0
LAYER
  5
205
100
AcDbSymbolTableRecord
100
AcDbLayerTableRecord
  2
07_COSMETICS
 70
0
 62
7
  6
CONTINUOUS
370
-3
390
F
  0
LAYER
  5
206
100
AcDbSymbolTableRecord
100
AcDbLayerTableRecord
  2
10_NOTES
 70
0
 62
7
  6
CONTINUOUS
370
-3
390
F
  0
LAYER
  5
207
100
AcDbSymbolTableRecord
100
AcDbLayerTableRecord
  2
11_NOTES_PUB
 70
0
 62
7
  6
CONTINUOUS
370
-3
390
F
  0
LAYER
  5
208
100
AcDbSymbolTableRecord
100
AcDbLayerTableRecord
  2
13_REF_GTOL
 70
0
 62
7
  6
CONTINUOUS
370
-3
390
F
  0
LAYER
  5
209
100
AcDbSymbolTableRecord
100
AcDbLayerTableRecord
  2
16_MISC
 70
0
 62
7
  6
CONTINUOUS
370
-3
390
F
  0
LAYER
  5
20A
100
AcDbSymbolTableRecord
100
AcDbLayerTableRecord
  2
17_NO_PRINT
 70
0
 62
7
  6
CONTINUOUS
370
-3
390
F
  0
LAYER
  5
20B
100
AcDbSymbolTableRecord
100
AcDbLayerTableRecord
  2
18_DATUM_CAMS_JOINTS
 70
0
 62
7
  6
CONTINUOUS
370
-3
390
F
  0
LAYER
  5
20C
100
AcDbSymbolTableRecord
100
AcDbLayerTableRecord
  2
19_DATUM_FUNCTIONAL
 70
0
 62
7
  6
CONTINUOUS
370
-3
390
F
  0
LAYER
  5
20D
100
AcDbSymbolTableRecord
100
AcDbLayerTableRecord
  2
20_DATUM_KINEMATIC_SCHEME
 70
0
 62
7
  6
CONTINUOUS
370
-3
390
F
  0
ENDTAB
  0
TABLE
  2
STYLE
  5
3
100
AcDbSymbolTable
 70
1
  0
STYLE
  5
11
100
AcDbSymbolTableRecord
100
AcDbTextStyleTableRecord
  2
STANDARD
 70
0
 40
0.0
 41
0.8
 50
0.0
 71
0
 42
0.2
  3
txt
  4

  0
STYLE
  5
20E
100
AcDbSymbolTableRecord
100
AcDbTextStyleTableRecord
  2
TEXTSTYLE_1
 70
0
 40
0.0
 41
0.8
 50
0.0
 71
0
 42
0.2
  3
gdt
  4

  0
ENDTAB
  0
TABLE
  2
VIEW
  5
6
100
AcDbSymbolTable
 70
0
  0
ENDTAB
  0
TABLE
  2
UCS
  5
7
100
AcDbSymbolTable
 70
0
  0
ENDTAB
  0
TABLE
  2
APPID
  5
9
100
AcDbSymbolTable
 70
1
  0
APPID
  5
20F
100
AcDbSymbolTableRecord
100
AcDbRegAppTableRecord
  2
ACAD
 70
0
  0
ENDTAB
  0
TABLE
  2
BLOCK_RECORD
  5
1
100
AcDbSymbolTable
 70
0
  0
BLOCK_RECORD
  5
210
100
AcDbSymbolTableRecord
100
AcDbBlockTableRecord
  2
*Model_Space
  0
BLOCK_RECORD
  5
211
100
AcDbSymbolTableRecord
100
AcDbBlockTableRecord
  2
*Paper_Space
  0
BLOCK_RECORD
  5
212
100
AcDbSymbolTableRecord
100
AcDbBlockTableRecord
  2
_FILLED
  0
ENDTAB
  0
TABLE
  2
DIMSTYLE
  5
A
100
AcDbSymbolTable
 70
1
100
AcDbDimStyleTable
 71
0
  0
DIMSTYLE
105
213
100
AcDbSymbolTableRecord
100
AcDbDimStyleTableRecord
  2
STANDARD
 70
0
  3

  4

 40
1.0
 41
1.0669392501
 42
1.0
 43
0.38
 44
1.0
 45
0.0
 46
0.0
 47
0.01
 48
0.01
140
1.4937149501
141
0.09
142
0.0
143
25.4
144
1.0
145
0.0
146
1.0
147
0.625
 71
1
 72
0
 73
0
 74
0
 75
0
 76
0
 77
1
 78
8
 79
2
170
0
171
1
172
0
173
0
174
0
175
0
176
0
177
0
178
0
270
2
179
2
271
2
272
2
273
2
274
2
275
0
280
0
281
0
282
0
283
1
284
8
285
0
286
0
287
3
288
0
340
11
278
46
341
212
342
212
343
212
344
212
  0
ENDTAB
  0
ENDSEC
  0
SECTION
  2
BLOCKS
  0
BLOCK
  5
20
100
AcDbEntity
  8
0
100
AcDbBlockBegin
  2
*Model_Space
 70
0
 10
0.0
 20
0.0
 30
0.0
  3
*Model_Space
  1

  0
ENDBLK
  5
21
100
AcDbEntity
  8
0
100
AcDbBlockEnd
  0
BLOCK
  5
1C
100
AcDbEntity
  8
0
100
AcDbBlockBegin
  2
*Paper_Space
 70
0
 10
0.0
 20
0.0
 30
0.0
  3
*Paper_Space
  1

  0
ENDBLK
  5
1D
100
AcDbEntity
  8
0
100
AcDbBlockEnd
  0
BLOCK
  5
214
100
AcDbEntity
  8
0
100
AcDbBlockBegin
  2
_FILLED
 70
64
 10
0.0
 20
0.0
  3
_FILLED
  1

  0
SOLID
  5
215
100
AcDbEntity
  8
0
  6
BYBLOCK
 62
0
100
AcDbTrace
 10
0.0
 20
0.0
 11
-1.0
 21
0.25
 12
-1.0
 22
-0.25
 13
-1.0
 23
-0.25
  0
ENDBLK
  5
216
100
AcDbEntity
  8
0
  6
BYBLOCK
 62
0
100
AcDbBlockEnd
  0
ENDSEC
  0
SECTION
  2
ENTITIES
  0
LINE
  5
217
100
AcDbEntity
  8
0
100
AcDbLine
 62
7
  6
CONTINUOUS
 10
57.5802833866
 20
19.5799750134
 11
57.8704197486
 21
19.6064104289
  0
LINE
  5
218
100
AcDbEntity
  8
0
100
AcDbLine
 62
7
  6
CONTINUOUS
 10
76.7083587932
 20
16.5883322659
 11
79.1083587932
 21
16.5883322659
  0
LINE
  5
219
100
AcDbEntity
  8
0
100
AcDbLine
 62
7
  6
CONTINUOUS
 10
79.2823881954
 20
17.5753020509
 11
76.7083587932
 21
17.5753020509
  0
LINE
  5
21A
100
AcDbEntity
  8
0
100
AcDbLine
 62
7
  6
CONTINUOUS
 10
81.9683587932
 20
19.3883322659
 11
57.973882432
 21
19.3883302756
  0
LINE
  5
21B
100
AcDbEntity
  8
0
100
AcDbLine
 62
7
  6
CONTINUOUS
 10
72.4683587932
 20
19.8883060852
 11
58.2821594397
 21
19.8882797852
  0
LINE
  5
21C
100
AcDbEntity
  8
0
100
AcDbLine
 62
7
  6
CONTINUOUS
 10
81.9683587932
 20
19.8883322659
 11
72.5683587932
 21
19.8883322659
  0
LINE
  5
21D
100
AcDbEntity
  8
0
100
AcDbLine
 62
7
  6
CONTINUOUS
 10
72.5683587932
 20
20.7383322659
 11
72.4683587932
 21
20.7383322659
  0
LINE
  5
21E
100
AcDbEntity
  8
0
100
AcDbLine
 62
7
  6
CONTINUOUS
 10
72.5683587932
 20
21.1383322659
 11
72.4683587932
 21
21.1383322659
  0
LINE
  5
21F
100
AcDbEntity
  8
0
100
AcDbLine
 62
7
  6
CONTINUOUS
 10
72.5683587932
 20
22.4883322659
 11
74.7683587932
 21
22.4883322659
  0
LINE
  5
220
100
AcDbEntity
  8
0
100
AcDbLine
 62
7
  6
CONTINUOUS
 10
74.7683587932
 20
22.5383322659
 11
72.4683587932
 21
22.5383322659
  0
LINE
  5
221
100
AcDbEntity
  8
0
100
AcDbLine
 62
7
  6
CONTINUOUS
 10
9.9683587932
 20
84.9883322659
 11
9.9683587932
 21
42.5883322659
  0
LINE
  5
222
100
AcDbEntity
  8
0
100
AcDbLine
 62
7
  6
CONTINUOUS
 10
10.7632154105
 20
83.1883322659
 11
10.7632154105
 21
84.0979772255
  0
LINE
  5
223
100
AcDbEntity
  8
0
100
AcDbLine
 62
7
  6
CONTINUOUS
 10
11.1952116594
 20
83.1543421428
 11
11.1952116594
 21
42.5883322659
  0
LINE
  5
224
100
AcDbEntity
  8
0
100
AcDbLine
 62
7
  6
CONTINUOUS
 10
11.7524845087
 20
83.3496657794
 11
11.8818940946
 21
83.832628929
  0
LINE
  5
225
100
AcDbEntity
  8
0
100
AcDbLine
 62
7
  6
CONTINUOUS
 10
11.6747641117
 20
42.0883322659
 11
11.6747641117
 21
83.0258464505
  0
LINE
  5
226
100
AcDbEntity
  8
0
100
AcDbLine
 62
7
  6
CONTINUOUS
 10
12.2183587932
 20
86.388332021
 11
12.2183587932
 21
86.8883322659
  0
LINE
  5
227
100
AcDbEntity
  8
0
100
AcDbLine
 62
7
  6
CONTINUOUS
 10
39.1682709784
 20
30.8758826298
 11
38.8780618546
 21
30.8519308379
  0
LINE
  5
228
100
AcDbEntity
  8
0
100
AcDbLine
 62
7
  6
CONTINUOUS
 10
51.7683587932
 20
30.6383322659
 11
74.7683587932
 21
30.6383322659
  0
LINE
  5
229
100
AcDbEntity
  8
0
100
AcDbLine
 62
7
  6
CONTINUOUS
 10
51.7683587932
 20
30.6583322659
 11
39.2731846612
 21
30.6583305502
  0
LINE
  5
22A
100
AcDbEntity
  8
0
100
AcDbLine
 62
7
  6
CONTINUOUS
 10
51.7683587932
 20
31.1583322659
 11
39.5798022503
 21
31.1583129632
  0
LINE
  5
22B
100
AcDbEntity
  8
0
100
AcDbLine
 62
7
  6
CONTINUOUS
 10
16.4683587932
 20
42.0883322659
 11
16.4683587932
 21
81.9709519355
  0
LINE
  5
22C
100
AcDbEntity
  8
0
100
AcDbLine
 62
7
  6
CONTINUOUS
 10
16.9683587932
 20
41.8883322659
 11
16.9683587932
 21
82.4697145673
  0
LINE
  5
22D
100
AcDbEntity
  8
0
100
AcDbLine
 62
7
  6
CONTINUOUS
 10
18.4683587932
 20
86.8883322659
 11
18.4683587932
 21
41.8883322659
  0
LINE
  5
22E
100
AcDbEntity
  8
0
100
AcDbLine
 62
7
  6
CONTINUOUS
 10
37.8721043173
 20
32.7227994173
 11
38.068793673
 21
32.7281609853
  0
LINE
  5
22F
100
AcDbEntity
  8
0
100
AcDbLine
 62
7
  6
CONTINUOUS
 10
36.8678681868
 20
35.9473415045
 11
36.7460094709
 21
35.9456590495
  0
LINE
  5
230
100
AcDbEntity
  8
0
100
AcDbLine
 62
7
  6
CONTINUOUS
 10
51.7683587932
 20
33.7383322659
 11
53.9683587932
 21
33.7383322659
  0
LINE
  5
231
100
AcDbEntity
  8
0
100
AcDbLine
 62
7
  6
CONTINUOUS
 10
53.9683587932
 20
33.8083322659
 11
51.7683587932
 21
33.8083322659
  0
LINE
  5
232
100
AcDbEntity
  8
0
100
AcDbLine
 62
7
  6
CONTINUOUS
 10
36.9890365268
 20
35.8083322659
 11
36.7500386146
 21
35.8083322659
  0
LWPOLYLINE
  5
233
100
AcDbEntity
  8
0
100
AcDbPolyline
 62
7
  6
CONTINUOUS
 90
7
 70
0
 10
36.780246243
 20
97.9464491605
 10
36.0474897141
 20
96.786915725
 10
35.3514684402
 20
95.3703411358
 10
34.6620199354
 20
93.7351269495
 10
33.9587112404
 20
91.8337542808
 10
33.2361513596
 20
89.5828402302
 10
32.5333997853
 20
86.8883322659
  0
LINE
  5
234
100
AcDbEntity
  8
0
100
AcDbLine
 62
7
  6
CONTINUOUS
 10
35.8202178573
 20
38.6829131059
 11
35.5600046171
 21
38.6662921344
  0
LINE
  5
235
100
AcDbEntity
  8
0
100
AcDbLine
 62
7
  6
CONTINUOUS
 10
35.5038025878
 20
38.6627318267
 11
35.5320834159
 21
38.6645230335
  0
LINE
  5
236
100
AcDbEntity
  8
0
100
AcDbLine
 62
7
  6
CONTINUOUS
 10
36.3582581045
 20
38.7413872921
 11
35.9966313239
 21
38.7206258478
  0
LINE
  5
237
100
AcDbEntity
  8
0
100
AcDbLine
 62
7
  6
CONTINUOUS
 10
36.3582581045
 20
38.7413872921
 11
35.8516752728
 21
38.7124219512
  0
LINE
  5
238
100
AcDbEntity
  8
0
100
AcDbLine
 62
7
  6
CONTINUOUS
 10
36.644121843
 20
35.9437394446
 11
36.5620049311
 21
35.9415812894
  0
LINE
  5
239
100
AcDbEntity
  8
0
100
AcDbLine
 62
7
  6
CONTINUOUS
 10
36.8676840069
 20
35.9479173727
 11
36.5617285011
 21
35.9423629058
  0
LINE
  5
23A
100
AcDbEntity
  8
0
100
AcDbLine
 62
7
  6
CONTINUOUS
 10
35.8202209582
 20
38.682917848
 11
35.8190788752
 21
38.6831066073
  0
LWPOLYLINE
  5
23B
100
AcDbEntity
  8
0
100
AcDbPolyline
 62
7
  6
CONTINUOUS
 90
15
 70
0
 10
36.9674997591
 20
35.8359845807
 10
36.9768465165
 20
35.8257981003
 10
37.0310286929
 20
35.7481659329
 10
37.116523878
 20
35.5943157313
 10
37.2306415034
 20
35.3527247921
 10
37.3754292015
 20
35.0036503946
 10
37.5553015368
 20
34.5189472922
 10
37.6973121001
 20
34.1040436263
 10
37.8109797924
 20
33.7540880393
 10
37.899168819
 20
33.4707571332
 10
37.9659177229
 20
33.2463520082
 10
38.0138267221
 20
33.075104814
 10
38.0451154117
 20
32.9512000929
 10
38.0615595468
 20
32.8712343568
 10
38.0649607806
 20
32.8465215565
  0
LINE
  5
23C
100
AcDbEntity
  8
0
100
AcDbLine
 62
7
  6
CONTINUOUS
 10
23.9683587932
 20
43.5883322659
 11
23.9683587932
 21
41.8883322659
  0
LINE
  5
23D
100
AcDbEntity
  8
0
100
AcDbLine
 62
7
  6
CONTINUOUS
 10
23.9683587932
 20
85.1883322659
 11
23.9683587932
 21
86.8883322659
  0
LINE
  5
23E
100
AcDbEntity
  8
0
100
AcDbLine
 62
7
  6
CONTINUOUS
 10
24.2183587932
 20
41.8883322659
 11
24.2183587932
 21
43.4883322659
  0
LINE
  5
23F
100
AcDbEntity
  8
0
100
AcDbLine
 62
7
  6
CONTINUOUS
 10
24.2183587932
 20
85.2883322659
 11
24.2183587932
 21
86.8883322659
  0
LINE
  5
240
100
AcDbEntity
  8
0
100
AcDbLine
 62
7
  6
CONTINUOUS
 10
25.9683587932
 20
85.2883322659
 11
25.9683587932
 21
85.1883322659
  0
LINE
  5
241
100
AcDbEntity
  8
0
100
AcDbLine
 62
7
  6
CONTINUOUS
 10
25.9683587932
 20
43.4883322659
 11
25.9683587932
 21
43.5883322659
  0
LINE
  5
242
100
AcDbEntity
  8
0
100
AcDbLine
 62
7
  6
CONTINUOUS
 10
35.8244407632
 20
41.4083322659
 11
35.1896012974
 21
41.4083322659
  0
LINE
  5
243
100
AcDbEntity
  8
0
100
AcDbLine
 62
7
  6
CONTINUOUS
 10
35.1411826829
 20
41.4083322659
 11
34.8187739431
 21
41.4083322659
  0
LINE
  5
244
100
AcDbEntity
  8
0
100
AcDbLine
 62
7
  6
CONTINUOUS
 10
34.7838865257
 20
41.4083322659
 11
34.7484718966
 21
41.4083322659
  0
LINE
  5
245
100
AcDbEntity
  8
0
100
AcDbLine
 62
7
  6
CONTINUOUS
 10
16.9683587932
 20
41.8883322659
 11
53.9683587932
 21
41.8883322659
  0
LINE
  5
246
100
AcDbEntity
  8
0
100
AcDbLine
 62
7
  6
CONTINUOUS
 10
10.4684235622
 20
42.0883322659
 11
16.4683587932
 21
42.0883322659
  0
LINE
  5
247
100
AcDbEntity
  8
0
100
AcDbLine
 62
7
  6
CONTINUOUS
 10
33.6683587932
 20
42.3883322659
 11
30.9683587932
 21
42.3883322659
  0
LINE
  5
248
100
AcDbEntity
  8
0
100
AcDbLine
 62
7
  6
CONTINUOUS
 10
30.7183587932
 20
42.3883322659
 11
24.2183587932
 21
42.3883322659
  0
LINE
  5
249
100
AcDbEntity
  8
0
100
AcDbLine
 62
7
  6
CONTINUOUS
 10
23.9683587932
 20
42.3883322659
 11
16.4683587932
 21
42.3883322659
  0
LINE
  5
24A
100
AcDbEntity
  8
0
100
AcDbLine
 62
7
  6
CONTINUOUS
 10
16.4683587932
 20
42.5883322659
 11
9.9683587932
 21
42.5883322659
  0
LINE
  5
24B
100
AcDbEntity
  8
0
100
AcDbLine
 62
7
  6
CONTINUOUS
 10
24.2183587932
 20
43.0883322659
 11
30.7183587932
 21
43.0883322659
  0
LINE
  5
24C
100
AcDbEntity
  8
0
100
AcDbLine
 62
7
  6
CONTINUOUS
 10
23.9683587932
 20
43.4883322659
 11
30.9683587932
 21
43.4883322659
  0
LINE
  5
24D
100
AcDbEntity
  8
0
100
AcDbLine
 62
7
  6
CONTINUOUS
 10
30.9683587932
 20
43.5883322659
 11
23.9683587932
 21
43.5883322659
  0
LWPOLYLINE
  5
24E
100
AcDbEntity
  8
0
100
AcDbPolyline
 62
7
  6
CONTINUOUS
 90
3
 70
0
 10
37.7855079786
 20
32.7215938931
 10
38.1090563363
 20
32.0884113318
 10
38.8781262553
 20
30.8520729748
  0
LINE
  5
24F
100
AcDbEntity
  8
0
100
AcDbLine
 62
7
  6
CONTINUOUS
 10
37.7100906219
 20
32.8848687819
 11
37.7323468942
 21
32.8358311173
  0
LWPOLYLINE
  5
250
100
AcDbEntity
  8
0
100
AcDbPolyline
 62
7
  6
CONTINUOUS
 90
5
 70
0
 10
37.0823218823
 20
34.3315847972
 10
37.3414391875
 20
33.7173301619
 10
37.5781034757
 20
33.175709642
 10
37.7322497626
 20
32.8360399092
 10
37.7846191868
 20
32.7234676946
  0
LINE
  5
251
100
AcDbEntity
  8
0
100
AcDbLine
 62
7
  6
CONTINUOUS
 10
36.8297837648
 20
34.9460832343
 11
37.0823223666
 21
34.3315849657
  0
LINE
  5
252
100
AcDbEntity
  8
0
100
AcDbLine
 62
7
  6
CONTINUOUS
 10
36.4290565661
 20
35.9376751992
 11
36.4290048861
 21
35.9378012147
  0
LINE
  5
253
100
AcDbEntity
  8
0
100
AcDbLine
 62
7
  6
CONTINUOUS
 10
28.9683587932
 20
85.2883322659
 11
28.9683587932
 21
85.1883322659
  0
LINE
  5
254
100
AcDbEntity
  8
0
100
AcDbLine
 62
7
  6
CONTINUOUS
 10
28.9683587932
 20
43.4883322659
 11
28.9683587932
 21
43.5883322659
  0
LINE
  5
255
100
AcDbEntity
  8
0
100
AcDbLine
 62
7
  6
CONTINUOUS
 10
30.7183587932
 20
43.4883322659
 11
30.7183587932
 21
41.8883322659
  0
LINE
  5
256
100
AcDbEntity
  8
0
100
AcDbLine
 62
7
  6
CONTINUOUS
 10
30.7183587932
 20
85.2883322659
 11
30.7183587932
 21
86.8883322659
  0
LINE
  5
257
100
AcDbEntity
  8
0
100
AcDbLine
 62
7
  6
CONTINUOUS
 10
76.7083587932
 20
47.0883322659
 11
77.7083587932
 21
47.0883322659
  0
LINE
  5
258
100
AcDbEntity
  8
0
100
AcDbLine
 62
7
  6
CONTINUOUS
 10
36.6137929325
 20
35.479221748
 11
36.8301438359
 21
34.9452070788
  0
LINE
  5
259
100
AcDbEntity
  8
0
100
AcDbLine
 62
7
  6
CONTINUOUS
 10
36.4290045401
 20
35.937801728
 11
36.6137929325
 21
35.479221748
  0
LWPOLYLINE
  5
25A
100
AcDbEntity
  8
0
100
AcDbPolyline
 62
7
  6
CONTINUOUS
 90
3
 70
0
 10
35.50379762
 20
38.6627302308
 10
35.9967935054
 20
37.1479169049
 10
36.4290264396
 20
35.937736894
  0
LINE
  5
25B
100
AcDbEntity
  8
0
100
AcDbLine
 62
7
  6
CONTINUOUS
 10
34.6378612963
 20
41.8883322659
 11
34.7484701382
 21
41.4083322659
  0
LWPOLYLINE
  5
25C
100
AcDbEntity
  8
0
100
AcDbPolyline
 62
7
  6
CONTINUOUS
 90
4
 70
0
 10
35.1394479576
 20
41.4083322659
 10
35.3278030255
 20
40.5722847644
 10
35.5600830024
 20
39.6380140937
 10
35.8190066821
 20
38.6830855618
  0
LINE
  5
25D
100
AcDbEntity
  8
0
100
AcDbLine
 62
7
  6
CONTINUOUS
 10
30.9683587932
 20
41.8883322659
 11
30.9683587932
 21
43.5883322659
  0
LINE
  5
25E
100
AcDbEntity
  8
0
100
AcDbLine
 62
7
  6
CONTINUOUS
 10
30.9683587932
 20
85.1883322659
 11
30.9683587932
 21
86.8883322659
  0
LINE
  5
25F
100
AcDbEntity
  8
0
100
AcDbLine
 62
7
  6
CONTINUOUS
 10
33.6683587932
 20
42.3883322659
 11
33.6683587932
 21
41.8883322659
  0
LINE
  5
260
100
AcDbEntity
  8
0
100
AcDbLine
 62
7
  6
CONTINUOUS
 10
33.6683587932
 20
86.3883322659
 11
33.6683587932
 21
86.8883322659
  0
LWPOLYLINE
  5
261
100
AcDbEntity
  8
0
100
AcDbPolyline
 62
7
  6
CONTINUOUS
 90
3
 70
0
 10
59.6781262553
 20
109.1745915569
 10
58.9090563363
 20
107.9382531999
 10
58.5855079786
 20
107.3050706386
  0
LINE
  5
262
100
AcDbEntity
  8
0
100
AcDbLine
 62
7
  6
CONTINUOUS
 10
37.4823615389
 20
97.6383702889
 11
37.4823615389
 21
98.1383322659
  0
LINE
  5
263
100
AcDbEntity
  8
0
100
AcDbLine
 62
7
  6
CONTINUOUS
 10
81.9683587932
 20
45.2646117075
 11
76.4683587932
 21
46.7383322659
  0
LINE
  5
264
100
AcDbEntity
  8
0
100
AcDbLine
 62
7
  6
CONTINUOUS
 10
39.5798606095
 20
30.658332268
 11
39.5798606095
 21
31.1583322659
  0
LINE
  5
265
100
AcDbEntity
  8
0
100
AcDbLine
 62
7
  6
CONTINUOUS
 10
42.1683587932
 20
41.8883324269
 11
42.1683587932
 21
30.6583322666
  0
LINE
  5
266
100
AcDbEntity
  8
0
100
AcDbLine
 62
7
  6
CONTINUOUS
 10
57.229005194
 20
104.0888642256
 11
57.4144789193
 21
104.5491429779
  0
LWPOLYLINE
  5
267
100
AcDbEntity
  8
0
100
AcDbPolyline
 62
7
  6
CONTINUOUS
 90
3
 70
0
 10
57.8823197608
 20
105.6950795873
 10
57.6309783241
 20
105.0835171766
 10
57.4144789193
 20
104.5491429779
  0
LWPOLYLINE
  5
268
100
AcDbEntity
  8
0
100
AcDbPolyline
 62
7
  6
CONTINUOUS
 90
5
 70
0
 10
58.5846191868
 20
107.3031968371
 10
58.5324054816
 20
107.1909625024
 10
58.3787429251
 20
106.8523948903
 10
58.1426458826
 20
106.312154741
 10
57.8823205287
 20
105.6950793549
  0
LWPOLYLINE
  5
269
100
AcDbEntity
  8
0
100
AcDbPolyline
 62
7
  6
CONTINUOUS
 90
4
 70
0
 10
56.619002342
 20
101.3435824351
 10
56.3602967387
 20
100.3894776905
 10
56.1279968203
 20
99.4552145808
 10
55.9394164603
 20
98.6183322659
  0
LINE
  5
26A
100
AcDbEntity
  8
0
100
AcDbLine
 62
7
  6
CONTINUOUS
 10
56.7967935054
 20
102.8787476268
 11
56.30379762
 21
101.3639343009
  0
LINE
  5
26B
100
AcDbEntity
  8
0
100
AcDbLine
 62
7
  6
CONTINUOUS
 10
57.2290264396
 20
104.0889276377
 11
56.7967935054
 21
102.8787476268
  0
LINE
  5
26C
100
AcDbEntity
  8
0
100
AcDbLine
 62
7
  6
CONTINUOUS
 10
76.4683587932
 20
60.3883322659
 11
74.2683587932
 21
60.3883322659
  0
LINE
  5
26D
100
AcDbEntity
  8
0
100
AcDbLine
 62
7
  6
CONTINUOUS
 10
74.4683587932
 20
60.6383322659
 11
76.4683587932
 21
60.6383322659
  0
LINE
  5
26E
100
AcDbEntity
  8
0
100
AcDbLine
 62
7
  6
CONTINUOUS
 10
74.2683587932
 20
62.3883322659
 11
74.4683587932
 21
62.3883322659
  0
LWPOLYLINE
  5
26F
100
AcDbEntity
  8
0
100
AcDbPolyline
 62
7
  6
CONTINUOUS
 90
7
 70
0
 10
53.3333997853
 20
30.6383322659
 10
54.0361513596
 20
27.9438243016
 10
54.7587112404
 20
25.6929102509
 10
55.4620199354
 20
23.7915375822
 10
56.1514684402
 20
22.156323396
 10
56.8474897141
 20
20.7397488067
 10
57.580246243
 20
19.5802153712
  0
LINE
  5
270
100
AcDbEntity
  8
0
100
AcDbLine
 62
7
  6
CONTINUOUS
 10
55.5484701382
 20
98.6183322659
 11
55.4378612963
 21
98.1383322659
  0
LINE
  5
271
100
AcDbEntity
  8
0
100
AcDbLine
 62
7
  6
CONTINUOUS
 10
74.2683587932
 20
66.3883322659
 11
74.4683587932
 21
66.3883322659
  0
LINE
  5
272
100
AcDbEntity
  8
0
100
AcDbLine
 62
7
  6
CONTINUOUS
 10
51.7447062197
 20
96.3883322659
 11
51.7683587932
 21
95.9370142785
  0
LINE
  5
273
100
AcDbEntity
  8
0
100
AcDbLine
 62
7
  6
CONTINUOUS
 10
51.815327718
 20
95.0407938029
 11
51.8180771107
 21
94.9883322659
  0
LINE
  5
274
100
AcDbEntity
  8
0
100
AcDbLine
 62
7
  6
CONTINUOUS
 10
51.6683587932
 20
94.9883322659
 11
51.6683587932
 21
98.1383322659
  0
LINE
  5
275
100
AcDbEntity
  8
0
100
AcDbLine
 62
7
  6
CONTINUOUS
 10
51.7683587932
 20
98.1383322659
 11
51.7683587932
 21
95.0383322659
  0
LINE
  5
276
100
AcDbEntity
  8
0
100
AcDbLine
 62
7
  6
CONTINUOUS
 10
51.7683587932
 20
30.6383322659
 11
51.7683587932
 21
33.8083322659
  0
LINE
  5
277
100
AcDbEntity
  8
0
100
AcDbLine
 62
7
  6
CONTINUOUS
 10
53.9683587932
 20
95.0383322659
 11
53.9683587932
 21
86.8883322659
  0
LINE
  5
278
100
AcDbEntity
  8
0
100
AcDbLine
 62
7
  6
CONTINUOUS
 10
53.9683587932
 20
41.8883322659
 11
53.9683587932
 21
33.7383322659
  0
LWPOLYLINE
  5
279
100
AcDbEntity
  8
0
100
AcDbPolyline
 62
7
  6
CONTINUOUS
 90
14
 70
0
 10
58.865319278
 20
107.1846769837
 10
58.8615157566
 20
107.1552227187
 10
58.8449737863
 20
107.0748997965
 10
58.8135360813
 20
106.9505182902
 10
58.7654064436
 20
106.7785859749
 10
58.6983513193
 20
106.5532685654
 10
58.6097631555
 20
106.2687868501
 10
58.495528664
 20
105.917289482
 10
58.3528886141
 20
105.5009198047
 10
58.172642224
 20
105.0159290339
 10
58.0289869083
 20
104.6702075684
 10
57.9155033876
 20
104.430355319
 10
57.8305093446
 20
104.27766167
 10
57.7750217586
 20
104.1987346168
  0
LINE
  5
27A
100
AcDbEntity
  8
0
100
AcDbLine
 62
7
  6
CONTINUOUS
 10
74.4683587932
 20
68.1383322659
 11
76.4683587932
 21
68.1383322659
  0
LINE
  5
27B
100
AcDbEntity
  8
0
100
AcDbLine
 62
7
  6
CONTINUOUS
 10
74.2683587932
 20
68.3883322659
 11
76.4683587932
 21
68.3883322659
  0
LINE
  5
27C
100
AcDbEntity
  8
0
100
AcDbLine
 62
7
  6
CONTINUOUS
 10
79.4882712414
 20
80.0383322659
 11
81.9683587932
 21
82.5184198176
  0
LINE
  5
27D
100
AcDbEntity
  8
0
100
AcDbLine
 62
7
  6
CONTINUOUS
 10
11.0683587932
 20
83.1883322659
 11
16.4683587932
 21
81.7414066267
  0
LINE
  5
27E
100
AcDbEntity
  8
0
100
AcDbLine
 62
7
  6
CONTINUOUS
 10
11.7524845103
 20
83.349665779
 11
16.3571814568
 21
82.1158409508
  0
LINE
  5
27F
100
AcDbEntity
  8
0
100
AcDbLine
 62
7
  6
CONTINUOUS
 10
11.8819120516
 20
83.8326243709
 11
16.9683587932
 21
82.4697145673
  0
LINE
  5
280
100
AcDbEntity
  8
0
100
AcDbLine
 62
7
  6
CONTINUOUS
 10
81.7083587932
 20
46.0467042371
 11
78.0834876626
 21
49.0883322659
  0
LINE
  5
281
100
AcDbEntity
  8
0
100
AcDbLine
 62
7
  6
CONTINUOUS
 10
58.282360723
 20
19.3883322659
 11
58.282360723
 21
19.8882929352
  0
LINE
  5
282
100
AcDbEntity
  8
0
100
AcDbLine
 62
7
  6
CONTINUOUS
 10
60.3798933246
 20
108.868356203
 11
60.3798933242
 21
109.3683322659
  0
LINE
  5
283
100
AcDbEntity
  8
0
100
AcDbLine
 62
7
  6
CONTINUOUS
 10
62.9683587932
 20
98.1383321075
 11
62.9683587932
 21
109.3683322659
  0
LINE
  5
284
100
AcDbEntity
  8
0
100
AcDbLine
 62
7
  6
CONTINUOUS
 10
35.529937869
 20
38.6711276664
 11
35.50379762
 21
38.6627302308
  0
LINE
  5
285
100
AcDbEntity
  8
0
100
AcDbLine
 62
7
  6
CONTINUOUS
 10
79.1882712414
 20
80.0383322659
 11
79.4882712414
 21
80.0383322659
  0
LINE
  5
286
100
AcDbEntity
  8
0
100
AcDbLine
 62
7
  6
CONTINUOUS
 10
75.7683587932
 20
82.0383322659
 11
77.2683587932
 21
82.0383322659
  0
LINE
  5
287
100
AcDbEntity
  8
0
100
AcDbLine
 62
7
  6
CONTINUOUS
 10
39.1767249248
 20
30.8815579901
 11
39.5798585376
 21
31.1583870919
  0
LINE
  5
288
100
AcDbEntity
  8
0
100
AcDbLine
 62
7
  6
CONTINUOUS
 10
39.1683689007
 20
30.8758968616
 11
39.1767249248
 21
30.8815579901
  0
LINE
  5
289
100
AcDbEntity
  8
0
100
AcDbLine
 62
7
  6
CONTINUOUS
 10
37.0823746806
 20
34.3316067378
 11
37.0823218823
 21
34.3315847972
  0
LINE
  5
28A
100
AcDbEntity
  8
0
100
AcDbLine
 62
7
  6
CONTINUOUS
 10
35.5598740971
 20
38.6662549675
 11
35.8007214673
 21
38.7415654455
  0
LINE
  5
28B
100
AcDbEntity
  8
0
100
AcDbLine
 62
7
  6
CONTINUOUS
 10
10.7632154105
 20
83.1883322659
 11
11.0683587932
 21
83.1883322659
  0
LINE
  5
28C
100
AcDbEntity
  8
0
100
AcDbLine
 62
7
  6
CONTINUOUS
 10
81.9683587932
 20
83.6383322659
 11
75.7683587932
 21
83.6383322659
  0
LINE
  5
28D
100
AcDbEntity
  8
0
100
AcDbLine
 62
7
  6
CONTINUOUS
 10
75.6683587932
 20
83.7383322659
 11
81.9683587932
 21
83.7383322659
  0
LINE
  5
28E
100
AcDbEntity
  8
0
100
AcDbLine
 62
7
  6
CONTINUOUS
 10
9.9683587932
 20
84.9883322659
 11
10.4405282594
 21
84.9883322659
  0
LINE
  5
28F
100
AcDbEntity
  8
0
100
AcDbLine
 62
7
  6
CONTINUOUS
 10
30.9683587932
 20
85.1883322659
 11
23.9683587932
 21
85.1883322659
  0
LINE
  5
290
100
AcDbEntity
  8
0
100
AcDbLine
 62
7
  6
CONTINUOUS
 10
23.9683587932
 20
85.2883322659
 11
30.9683587932
 21
85.2883322659
  0
LINE
  5
291
100
AcDbEntity
  8
0
100
AcDbLine
 62
7
  6
CONTINUOUS
 10
24.2183587932
 20
85.6883322659
 11
30.7183587932
 21
85.6883322659
  0
LINE
  5
292
100
AcDbEntity
  8
0
100
AcDbLine
 62
7
  6
CONTINUOUS
 10
24.2183587932
 20
86.3883322659
 11
30.7183587932
 21
86.3883322659
  0
LINE
  5
293
100
AcDbEntity
  8
0
100
AcDbLine
 62
7
  6
CONTINUOUS
 10
30.9683587932
 20
86.3883322659
 11
33.6683587932
 21
86.3883322659
  0
LINE
  5
294
100
AcDbEntity
  8
0
100
AcDbLine
 62
7
  6
CONTINUOUS
 10
12.218355089
 20
86.3883317762
 11
23.9683587932
 21
86.3883322659
  0
LINE
  5
295
100
AcDbEntity
  8
0
100
AcDbLine
 62
7
  6
CONTINUOUS
 10
53.9683587932
 20
86.8883322659
 11
12.2183587932
 21
86.8883322659
  0
LINE
  5
296
100
AcDbEntity
  8
0
100
AcDbLine
 62
7
  6
CONTINUOUS
 10
37.070508098
 20
97.9202307121
 11
37.482359141
 21
97.6382289952
  0
LINE
  5
297
100
AcDbEntity
  8
0
100
AcDbLine
 62
7
  6
CONTINUOUS
 10
72.4683587932
 20
19.3883322659
 11
72.4683587932
 21
22.5383322659
  0
LINE
  5
298
100
AcDbEntity
  8
0
100
AcDbLine
 62
7
  6
CONTINUOUS
 10
72.5683587932
 20
19.3883322659
 11
72.5683587932
 21
22.4883322659
  0
LINE
  5
299
100
AcDbEntity
  8
0
100
AcDbLine
 62
7
  6
CONTINUOUS
 10
72.5683587932
 20
106.2183322659
 11
72.5683587932
 21
109.3883322659
  0
LINE
  5
29A
100
AcDbEntity
  8
0
100
AcDbLine
 62
7
  6
CONTINUOUS
 10
74.2683587932
 20
60.3883322659
 11
74.2683587932
 21
68.3883322659
  0
LINE
  5
29B
100
AcDbEntity
  8
0
100
AcDbLine
 62
7
  6
CONTINUOUS
 10
74.4683587932
 20
60.3883322659
 11
74.4683587932
 21
68.3883322659
  0
LINE
  5
29C
100
AcDbEntity
  8
0
100
AcDbLine
 62
7
  6
CONTINUOUS
 10
74.7683587932
 20
106.2883322659
 11
74.7683587932
 21
98.1383322659
  0
LINE
  5
29D
100
AcDbEntity
  8
0
100
AcDbLine
 62
7
  6
CONTINUOUS
 10
74.7683587932
 20
30.6383322659
 11
74.7683587932
 21
22.4883322659
  0
LINE
  5
29E
100
AcDbEntity
  8
0
100
AcDbLine
 62
7
  6
CONTINUOUS
 10
74.8683587932
 20
60.6383322659
 11
74.8683587932
 21
68.1383322659
  0
LINE
  5
29F
100
AcDbEntity
  8
0
100
AcDbLine
 62
7
  6
CONTINUOUS
 10
75.6683587931
 20
80.7239729119
 11
75.6683587932
 21
83.7383322659
  0
LINE
  5
2A0
100
AcDbEntity
  8
0
100
AcDbLine
 62
7
  6
CONTINUOUS
 10
75.7683587931
 20
80.5383322659
 11
75.7683587932
 21
83.6383322659
  0
LINE
  5
2A1
100
AcDbEntity
  8
0
100
AcDbLine
 62
7
  6
CONTINUOUS
 10
76.4683587932
 20
46.7383322659
 11
76.4683587932
 21
79.3383322659
  0
LINE
  5
2A2
100
AcDbEntity
  8
0
100
AcDbLine
 62
7
  6
CONTINUOUS
 10
76.7083587932
 20
47.0883322659
 11
76.7083587932
 21
46.6740244597
  0
LINE
  5
2A3
100
AcDbEntity
  8
0
100
AcDbLine
 62
7
  6
CONTINUOUS
 10
76.7083587932
 20
16.5883322659
 11
76.7083587932
 21
19.3883322659
  0
LINE
  5
2A4
100
AcDbEntity
  8
0
100
AcDbLine
 62
7
  6
CONTINUOUS
 10
77.2683587932
 20
82.0383322659
 11
77.2683587932
 21
81.5383322659
  0
LINE
  5
2A5
100
AcDbEntity
  8
0
100
AcDbLine
 62
7
  6
CONTINUOUS
 10
77.7083587932
 20
47.6883322659
 11
77.7083587932
 21
47.0883322659
  0
LINE
  5
2A6
100
AcDbEntity
  8
0
100
AcDbLine
 62
7
  6
CONTINUOUS
 10
72.6180771107
 20
22.5383322659
 11
72.615327718
 21
22.4858707288
  0
LINE
  5
2A7
100
AcDbEntity
  8
0
100
AcDbLine
 62
7
  6
CONTINUOUS
 10
72.5683587932
 20
21.5896502532
 11
72.5447062197
 21
21.1383322659
  0
LINE
  5
2A8
100
AcDbEntity
  8
0
100
AcDbLine
 62
7
  6
CONTINUOUS
 10
80.0083587932
 20
47.4731736101
 11
80.0083587932
 21
45.7897921247
  0
LINE
  5
2A9
100
AcDbEntity
  8
0
100
AcDbLine
 62
7
  6
CONTINUOUS
 10
81.7083587932
 20
46.0467042371
 11
81.7083587932
 21
45.3342784975
  0
LINE
  5
2AA
100
AcDbEntity
  8
0
100
AcDbLine
 62
7
  6
CONTINUOUS
 10
78.0834876626
 20
49.0883322659
 11
77.7083587932
 21
47.6883322659
  0
LINE
  5
2AB
100
AcDbEntity
  8
0
100
AcDbLine
 62
7
  6
CONTINUOUS
 10
37.4746266939
 20
98.1382716058
 11
37.4823414445
 21
98.1383301262
  0
LINE
  5
2AC
100
AcDbEntity
  8
0
100
AcDbLine
 62
7
  6
CONTINUOUS
 10
53.9683587932
 20
94.9883322659
 11
51.6683587932
 21
94.9883322659
  0
LINE
  5
2AD
100
AcDbEntity
  8
0
100
AcDbLine
 62
7
  6
CONTINUOUS
 10
51.7683587932
 20
95.0383322659
 11
53.9683587932
 21
95.0383322659
  0
LINE
  5
2AE
100
AcDbEntity
  8
0
100
AcDbLine
 62
7
  6
CONTINUOUS
 10
51.7683587932
 20
96.3883322659
 11
51.6683587932
 21
96.3883322659
  0
LINE
  5
2AF
100
AcDbEntity
  8
0
100
AcDbLine
 62
7
  6
CONTINUOUS
 10
51.7683587932
 20
96.7883322659
 11
51.6683587932
 21
96.7883322659
  0
LINE
  5
2B0
100
AcDbEntity
  8
0
100
AcDbLine
 62
7
  6
CONTINUOUS
 10
37.4821364264
 20
97.6383813058
 11
51.6683587932
 21
97.638359272
  0
LINE
  5
2B1
100
AcDbEntity
  8
0
100
AcDbLine
 62
7
  6
CONTINUOUS
 10
74.7683587932
 20
98.1383322659
 11
37.173882432
 21
98.1383342561
  0
LINE
  5
2B2
100
AcDbEntity
  8
0
100
AcDbLine
 62
7
  6
CONTINUOUS
 10
55.5484718966
 20
98.6183322659
 11
55.5837936582
 21
98.6183322659
  0
LINE
  5
2B3
100
AcDbEntity
  8
0
100
AcDbLine
 62
7
  6
CONTINUOUS
 10
55.6188464279
 20
98.6183322659
 11
55.9411681053
 21
98.6183322659
  0
LINE
  5
2B4
100
AcDbEntity
  8
0
100
AcDbLine
 62
7
  6
CONTINUOUS
 10
55.9896277833
 20
98.6183322659
 11
56.6244266355
 21
98.6183322659
  0
LINE
  5
2B5
100
AcDbEntity
  8
0
100
AcDbLine
 62
7
  6
CONTINUOUS
 10
37.0704244096
 20
97.9202579851
 11
36.7802833866
 21
97.9466895184
  0
LINE
  5
2B6
100
AcDbEntity
  8
0
100
AcDbLine
 62
7
  6
CONTINUOUS
 10
77.2683587932
 20
81.5383322659
 11
79.1882712414
 21
80.0383322659
  0
LINE
  5
2B7
100
AcDbEntity
  8
0
100
AcDbLine
 62
7
  6
CONTINUOUS
 10
76.4683587932
 20
79.3383322659
 11
75.6683587931
 21
80.7239729119
  0
LINE
  5
2B8
100
AcDbEntity
  8
0
100
AcDbLine
 62
7
  6
CONTINUOUS
 10
81.9683587932
 20
19.3883322659
 11
81.9683587932
 21
45.2646117075
  0
LINE
  5
2B9
100
AcDbEntity
  8
0
100
AcDbLine
 62
7
  6
CONTINUOUS
 10
81.9683587932
 20
82.5184198176
 11
81.9683587932
 21
98.3883322658
  0
LINE
  5
2BA
100
AcDbEntity
  8
0
100
AcDbLine
 62
7
  6
CONTINUOUS
 10
56.6190856911
 20
101.343558136
 11
56.6202353096
 21
101.3437446379
  0
LINE
  5
2BB
100
AcDbEntity
  8
0
100
AcDbLine
 62
7
  6
CONTINUOUS
 10
56.6516707368
 20
101.3142384692
 11
57.1582499115
 21
101.2852751164
  0
LINE
  5
2BC
100
AcDbEntity
  8
0
100
AcDbLine
 62
7
  6
CONTINUOUS
 10
56.9655626863
 20
101.2963961624
 11
57.1582499115
 21
101.2852751164
  0
LINE
  5
2BD
100
AcDbEntity
  8
0
100
AcDbLine
 62
7
  6
CONTINUOUS
 10
56.3320973829
 20
101.3621375877
 11
56.3038025877
 21
101.3639327051
  0
LINE
  5
2BE
100
AcDbEntity
  8
0
100
AcDbLine
 62
7
  6
CONTINUOUS
 10
56.3600019783
 20
101.3603651345
 11
56.6202135686
 21
101.3437474062
  0
LINE
  5
2BF
100
AcDbEntity
  8
0
100
AcDbLine
 62
7
  6
CONTINUOUS
 10
79.6020743391
 20
19.3883322659
 11
79.1083587931
 21
16.5883322659
  0
LINE
  5
2C0
100
AcDbEntity
  8
0
100
AcDbLine
 62
7
  6
CONTINUOUS
 10
57.5500422945
 20
104.2183322659
 11
57.7887993696
 21
104.2183322659
  0
LINE
  5
2C1
100
AcDbEntity
  8
0
100
AcDbLine
 62
7
  6
CONTINUOUS
 10
74.7683587932
 20
106.2183322659
 11
72.5683587932
 21
106.2183322659
  0
LINE
  5
2C2
100
AcDbEntity
  8
0
100
AcDbLine
 62
7
  6
CONTINUOUS
 10
72.5683587932
 20
106.2883322659
 11
74.7683587932
 21
106.2883322659
  0
LINE
  5
2C3
100
AcDbEntity
  8
0
100
AcDbLine
 62
7
  6
CONTINUOUS
 10
57.5460126651
 20
104.0810048068
 11
57.6678670026
 21
104.0793181295
  0
LINE
  5
2C4
100
AcDbEntity
  8
0
100
AcDbLine
 62
7
  6
CONTINUOUS
 10
57.3617293801
 20
104.0843028158
 11
57.6676843725
 21
104.0787468344
  0
LINE
  5
2C5
100
AcDbEntity
  8
0
100
AcDbLine
 62
7
  6
CONTINUOUS
 10
57.3620059261
 20
104.0850848052
 11
57.4441241413
 21
104.0829265744
  0
LINE
  5
2C6
100
AcDbEntity
  8
0
100
AcDbLine
 62
7
  6
CONTINUOUS
 10
56.600710436
 20
101.2850905964
 11
56.3599118704
 21
101.3603973795
  0
LINE
  5
2C7
100
AcDbEntity
  8
0
100
AcDbLine
 62
7
  6
CONTINUOUS
 10
56.30379762
 20
101.3639343009
 11
56.3299376009
 21
101.3555369514
  0
LINE
  5
2C8
100
AcDbEntity
  8
0
100
AcDbLine
 62
7
  6
CONTINUOUS
 10
81.9683587932
 20
98.3883322658
 11
80.2261299496
 21
109.3883322659
  0
LINE
  5
2C9
100
AcDbEntity
  8
0
100
AcDbLine
 62
7
  6
CONTINUOUS
 10
60.3798363322
 20
108.8683705235
 11
72.5683587932
 21
108.8683322659
  0
LINE
  5
2CA
100
AcDbEntity
  8
0
100
AcDbLine
 62
7
  6
CONTINUOUS
 10
72.5683587932
 20
108.8883322659
 11
80.3053221697
 21
108.8883322659
  0
LINE
  5
2CB
100
AcDbEntity
  8
0
100
AcDbLine
 62
7
  6
CONTINUOUS
 10
60.0732195995
 20
109.3683322659
 11
72.5683587932
 21
109.3683322659
  0
LINE
  5
2CC
100
AcDbEntity
  8
0
100
AcDbLine
 62
7
  6
CONTINUOUS
 10
80.2261299496
 20
109.3883322659
 11
72.5683587932
 21
109.3883322659
  0
LINE
  5
2CD
100
AcDbEntity
  8
0
100
AcDbLine
 62
7
  6
CONTINUOUS
 10
58.8687774039
 20
107.2985107613
 11
58.6720950078
 21
107.303870583
  0
LINE
  5
2CE
100
AcDbEntity
  8
0
100
AcDbLine
 62
7
  6
CONTINUOUS
 10
59.6780618648
 20
109.1747337079
 11
59.968772493
 21
109.1514578426
  0
LINE
  5
2CF
100
AcDbEntity
  8
0
100
AcDbLine
 62
7
  6
CONTINUOUS
 10
57.8823725572
 20
105.6950576482
 11
57.8823197618
 21
105.6950795869
  0
LINE
  5
2D0
100
AcDbEntity
  8
0
100
AcDbLine
 62
7
  6
CONTINUOUS
 10
59.9688471847
 20
109.1514252641
 11
60.3798946059
 21
108.8683356699
  0
ARC
  5
2D1
100
AcDbEntity
  8
0
100
AcDbCircle
 62
7
  6
CONTINUOUS
 10
6.5248102362
 20
23.8325530408
 40
32.8231317485
100
AcDbArc
 50
17.4680211295
 51
17.6661970779
  0
ARC
  5
2D2
100
AcDbEntity
  8
0
100
AcDbCircle
 62
7
  6
CONTINUOUS
 10
25.2032037845
 20
29.5299227282
 40
13.2946689232
100
AcDbArc
 50
15.9925300754
 51
16.2670530815
  0
ARC
  5
2D3
100
AcDbEntity
  8
0
100
AcDbCircle
 62
7
  6
CONTINUOUS
 10
34.5878994982
 20
32.106164333
 40
3.5623270203
100
AcDbArc
 50
13.3633850066
 51
14.5910589357
  0
ARC
  5
2D4
100
AcDbEntity
  8
0
100
AcDbCircle
 62
7
  6
CONTINUOUS
 10
35.9532075876
 20
35.1371147854
 40
1.2457664806
100
AcDbArc
 50
32.8478564802
 51
33.6937598044
  0
ARC
  5
2D5
100
AcDbEntity
  8
0
100
AcDbCircle
 62
7
  6
CONTINUOUS
 10
37.2606622246
 20
32.6882228241
 40
0.8263415248
100
AcDbArc
 50
9.0894617094
 51
9.4963946666
  0
ARC
  5
2D6
100
AcDbEntity
  8
0
100
AcDbCircle
 62
7
  6
CONTINUOUS
 10
57.9738784317
 20
19.8883303466
 40
0.5000000711
100
AcDbArc
 50
218.0520071402
 51
270.0
  0
ARC
  5
2D7
100
AcDbEntity
  8
0
100
AcDbCircle
 62
7
  6
CONTINUOUS
 10
39.2731811018
 20
31.1583305599
 40
0.5000000097
100
AcDbArc
 50
217.7838472476
 51
270.0
  0
ARC
  5
2D8
100
AcDbEntity
  8
0
100
AcDbCircle
 62
7
  6
CONTINUOUS
 10
10.4683587932
 20
42.5883322659
 40
0.5
100
AcDbArc
 50
180.0
 51
270.0
  0
ARC
  5
2D9
100
AcDbEntity
  8
0
100
AcDbCircle
 62
7
  6
CONTINUOUS
 10
16.9683587932
 20
42.3883322659
 40
0.5
100
AcDbArc
 50
180.0
 51
270.0
  0
ARC
  5
2DA
100
AcDbEntity
  8
0
100
AcDbCircle
 62
7
  6
CONTINUOUS
 10
58.2831271517
 20
19.8872525498
 40
0.4991113933
100
AcDbArc
 50
214.2371245035
 51
242.0816093956
  0
ARC
  5
2DB
100
AcDbEntity
  8
0
100
AcDbCircle
 62
7
  6
CONTINUOUS
 10
39.5804284645
 20
31.1570558784
 40
0.4988421362
100
AcDbArc
 50
214.3067405607
 51
241.0180630076
  0
ARC
  5
2DC
100
AcDbEntity
  8
0
100
AcDbCircle
 62
7
  6
CONTINUOUS
 10
58.2823894007
 20
19.8859266302
 40
0.4975943663
100
AcDbArc
 50
242.085187512
 51
269.9942674921
  0
ARC
  5
2DD
100
AcDbEntity
  8
0
100
AcDbCircle
 62
7
  6
CONTINUOUS
 10
39.5798865399
 20
31.1559056066
 40
0.4975733363
100
AcDbArc
 50
241.0084727198
 51
269.9972625527
  0
ARC
  5
2DE
100
AcDbEntity
  8
0
100
AcDbCircle
 62
7
  6
CONTINUOUS
 10
38.0540954186
 20
32.8085616478
 40
0.2011888498
100
AcDbArc
 50
180.0652320379
 51
205.2318832265
  0
ARC
  5
2DF
100
AcDbEntity
  8
0
100
AcDbCircle
 62
7
  6
CONTINUOUS
 10
38.2532118623
 20
32.808257087
 40
0.2011381487
100
AcDbArc
 50
168.3941212277
 51
203.5125219516
  0
ARC
  5
2E0
100
AcDbEntity
  8
0
100
AcDbCircle
 62
7
  6
CONTINUOUS
 10
38.2527554339
 20
32.8083218017
 40
0.2006872228
100
AcDbArc
 50
159.1841743008
 51
162.1577665699
  0
ARC
  5
2E1
100
AcDbEntity
  8
0
100
AcDbCircle
 62
7
  6
CONTINUOUS
 10
38.2523328708
 20
32.8084590641
 40
0.2002429265
100
AcDbArc
 50
162.158106655
 51
163.0893808161
  0
ARC
  5
2E2
100
AcDbEntity
  8
0
100
AcDbCircle
 62
7
  6
CONTINUOUS
 10
38.0528328988
 20
32.8084327049
 40
0.1999134539
100
AcDbArc
 50
96.045916146
 51
180.028691779
  0
ARC
  5
2E3
100
AcDbEntity
  8
0
100
AcDbCircle
 62
7
  6
CONTINUOUS
 10
38.2518457361
 20
32.8086487668
 40
0.1997211856
100
AcDbArc
 50
163.1007561949
 51
168.4253441759
  0
ARC
  5
2E4
100
AcDbEntity
  8
0
100
AcDbCircle
 62
7
  6
CONTINUOUS
 10
36.7502064626
 20
36.007829739
 40
0.1995112025
100
AcDbArc
 50
199.3924704552
 51
269.953306777
  0
ARC
  5
2E5
100
AcDbEntity
  8
0
100
AcDbCircle
 62
7
  6
CONTINUOUS
 10
37.6700717244
 20
112.8068032547
 40
21.9368890406
100
AcDbArc
 50
340.3808214977
 51
340.7686872891
  0
ARC
  5
2E6
100
AcDbEntity
  8
0
100
AcDbCircle
 62
7
  6
CONTINUOUS
 10
48.14698559
 20
108.9427872217
 40
10.7695708978
100
AcDbArc
 50
337.7073698209
 51
338.8152863059
  0
ARC
  5
2E7
100
AcDbEntity
  8
0
100
AcDbCircle
 62
7
  6
CONTINUOUS
 10
54.2701063424
 20
108.204228286
 40
4.7154952301
100
AcDbArc
 50
345.316401109
 51
345.8021444498
  0
ARC
  5
2E8
100
AcDbEntity
  8
0
100
AcDbCircle
 62
7
  6
CONTINUOUS
 10
55.6737641641
 20
107.8524311526
 40
3.2684287166
100
AcDbArc
 50
345.745603389
 51
346.8371915754
  0
ARC
  5
2E9
100
AcDbEntity
  8
0
100
AcDbCircle
 62
7
  6
CONTINUOUS
 10
11.7683587932
 20
84.9883322659
 40
1.8
100
AcDbArc
 50
93.7825642766
 51
180.0
  0
ARC
  5
2EA
100
AcDbEntity
  8
0
100
AcDbCircle
 62
7
  6
CONTINUOUS
 10
12.2183587932
 20
85.0883322659
 40
1.8
100
AcDbArc
 50
89.9999999981
 51
254.9999999731
  0
ARC
  5
2EB
100
AcDbEntity
  8
0
100
AcDbCircle
 62
7
  6
CONTINUOUS
 10
56.4434636674
 20
105.0830921402
 40
1.6110931019
100
AcDbArc
 50
328.1897305451
 51
328.349900845
  0
ARC
  5
2EC
100
AcDbEntity
  8
0
100
AcDbCircle
 62
7
  6
CONTINUOUS
 10
12.2183587932
 20
85.0883322659
 40
1.2999985311
100
AcDbArc
 50
90.0001632561
 51
255.0008163084
  0
ARC
  5
2ED
100
AcDbEntity
  8
0
100
AcDbCircle
 62
7
  6
CONTINUOUS
 10
57.9291935268
 20
107.3605616449
 40
0.9596841461
100
AcDbArc
 50
349.6232494562
 51
350.199335251
  0
CIRCLE
  5
2EE
100
AcDbEntity
  8
0
100
AcDbCircle
 62
7
  6
CONTINUOUS
 10
12.2183587932
 20
85.0883322659
 40
0.9
  0
CIRCLE
  5
2EF
100
AcDbEntity
  8
0
100
AcDbCircle
 62
7
  6
CONTINUOUS
 10
12.2183587932
 20
85.0883322659
 40
0.86
  0
ARC
  5
2F0
100
AcDbEntity
  8
0
100
AcDbCircle
 62
7
  6
CONTINUOUS
 10
37.1738784317
 20
97.6383341851
 40
0.5000000711
100
AcDbArc
 50
90.0
 51
141.9479928598
  0
ARC
  5
2F1
100
AcDbEntity
  8
0
100
AcDbCircle
 62
7
  6
CONTINUOUS
 10
37.4829085294
 20
97.6395221922
 40
0.4989546418
100
AcDbArc
 50
117.8590992259
 51
145.7608822027
  0
ARC
  5
2F2
100
AcDbEntity
  8
0
100
AcDbCircle
 62
7
  6
CONTINUOUS
 10
37.4822472733
 20
97.6409117572
 40
0.4974171282
100
AcDbArc
 50
90.8776822072
 51
117.8665547809
  0
ARC
  5
2F3
100
AcDbEntity
  8
0
100
AcDbCircle
 62
7
  6
CONTINUOUS
 10
59.054123388
 20
107.2185619573
 40
0.2020713943
100
AcDbArc
 50
190.2668736885
 51
191.655062828
  0
ARC
  5
2F4
100
AcDbEntity
  8
0
100
AcDbCircle
 62
7
  6
CONTINUOUS
 10
59.0535378196
 20
107.2181560368
 40
0.2014724894
100
AcDbArc
 50
156.4951496817
 51
179.9499602869
  0
ARC
  5
2F5
100
AcDbEntity
  8
0
100
AcDbCircle
 62
7
  6
CONTINUOUS
 10
58.8538400561
 20
107.2181624649
 40
0.2009370784
100
AcDbArc
 50
154.7521683091
 51
179.9516561012
  0
ARC
  5
2F6
100
AcDbEntity
  8
0
100
AcDbCircle
 62
7
  6
CONTINUOUS
 10
59.0529714369
 20
107.2183953173
 40
0.2009081914
100
AcDbArc
 50
180.0180586744
 51
190.2786644147
  0
ARC
  5
2F7
100
AcDbEntity
  8
0
100
AcDbCircle
 62
7
  6
CONTINUOUS
 10
58.8528199384
 20
107.2182322315
 40
0.1999126083
100
AcDbArc
 50
179.9714046258
 51
263.9544513335
  0
ARC
  5
2F8
100
AcDbEntity
  8
0
100
AcDbCircle
 62
7
  6
CONTINUOUS
 10
57.5502082173
 20
104.0188384252
 40
0.1995103197
100
AcDbArc
 50
90.047081511
 51
160.6081636259
  0
ARC
  5
2F9
100
AcDbEntity
  8
0
100
AcDbCircle
 62
7
  6
CONTINUOUS
 10
16.3183587932
 20
81.9709520251
 40
0.15
100
AcDbArc
 50
0.0000115429
 51
75.0
  0
ARC
  5
2FA
100
AcDbEntity
  8
0
100
AcDbCircle
 62
7
  6
CONTINUOUS
 10
83.9260241162
 20
52.2333390981
 40
49.9778215249
100
AcDbArc
 50
195.2239558561
 51
195.5558587152
  0
ARC
  5
2FB
100
AcDbEntity
  8
0
100
AcDbCircle
 62
7
  6
CONTINUOUS
 10
83.654953461
 20
52.1574455507
 40
49.6963273783
100
AcDbArc
 50
195.5553763134
 51
195.7319593253
  0
ARC
  5
2FC
100
AcDbEntity
  8
0
100
AcDbCircle
 62
7
  6
CONTINUOUS
 10
81.4642379988
 20
51.569557151
 40
47.4281235153
100
AcDbArc
 50
194.3195740987
 51
195.2311549016
  0
ARC
  5
2FD
100
AcDbEntity
  8
0
100
AcDbCircle
 62
7
  6
CONTINUOUS
 10
78.072123552
 20
50.699528694
 40
43.9262136884
100
AcDbArc
 50
193.7915130551
 51
194.3143227595
  0
ARC
  5
2FE
100
AcDbEntity
  8
0
100
AcDbCircle
 62
7
  6
CONTINUOUS
 10
75.517437024
 20
50.0740692906
 40
41.2960767996
100
AcDbArc
 50
192.9314197806
 51
193.7937101393
  0
ARC
  5
2FF
100
AcDbEntity
  8
0
100
AcDbCircle
 62
7
  6
CONTINUOUS
 10
73.6331125884
 20
49.6390550557
 40
39.3621919998
100
AcDbArc
 50
192.6494886783
 51
192.928073571
  0
ARC
  5
300
100
AcDbEntity
  8
0
100
AcDbCircle
 62
7
  6
CONTINUOUS
 10
70.6076260262
 20
48.9629630576
 40
36.2620854751
100
AcDbArc
 50
192.0244817243
 51
192.6540038505
  0
ARC
  5
301
100
AcDbEntity
  8
0
100
AcDbCircle
 62
7
  6
CONTINUOUS
 10
113.441836331
 20
82.6193885384
 40
60.1609542362
100
AcDbArc
 50
156.779004292
 51
157.4452839901
  0
ARC
  5
302
100
AcDbEntity
  8
0
100
AcDbCircle
 62
7
  6
CONTINUOUS
 10
99.3121729549
 20
88.6549937067
 40
44.7962179874
100
AcDbArc
 50
156.3219391498
 51
156.7478484982
  0
ARC
  5
303
100
AcDbEntity
  8
0
100
AcDbCircle
 62
7
  6
CONTINUOUS
 10
92.2803859674
 20
91.7316717598
 40
37.120807341
100
AcDbArc
 50
155.934232318
 51
156.3122565799
  0
ARC
  5
304
100
AcDbEntity
  8
0
100
AcDbCircle
 62
7
  6
CONTINUOUS
 10
85.8847056738
 20
94.5839622569
 40
30.1179314578
100
AcDbArc
 50
155.5896954944
 51
155.9271957046
  0
ARC
  5
305
100
AcDbEntity
  8
0
100
AcDbCircle
 62
7
  6
CONTINUOUS
 10
60.0731811018
 20
108.8683339718
 40
0.5000000097
100
AcDbArc
 50
90.0
 51
142.2161527524
  0
ARC
  5
306
100
AcDbEntity
  8
0
100
AcDbCircle
 62
7
  6
CONTINUOUS
 10
60.3801135008
 20
108.8700286604
 40
0.4983124322
100
AcDbArc
 50
90.0251243319
 51
145.6192888865
  0
SPLINE
  5
307
100
AcDbEntity
  8
0
100
AcDbSpline
 62
7
  6
CONTINUOUS
 70
0
 71
3
 72
10
 73
6
 74
0
 42
0.0000001
 43
0.0000001
 44
0.0000000001
 40
0.0
 40
0.0
 40
0.0
 40
0.0
 40
0.5005667067
 40
0.750437142
 40
1.0
 40
1.0
 40
1.0
 40
1.0
 10
56.3322346894
 20
101.3626875229
 30
0.0
 10
56.1934511383
 20
100.9087226695
 30
0.0
 10
55.9946281974
 20
100.2252480948
 30
0.0
 10
55.7516481811
 20
99.3085378273
 30
0.0
 10
55.6382422162
 20
98.8486490975
 30
0.0
 10
55.5839073725
 20
98.6183013609
 30
0.0
  0
SPLINE
  5
308
100
AcDbEntity
  8
0
100
AcDbSpline
 62
7
  6
CONTINUOUS
 70
0
 71
3
 72
10
 73
6
 74
0
 42
0.0000001
 43
0.0000001
 44
0.0000000001
 40
0.0
 40
0.0
 40
0.0
 40
0.0
 40
0.4999928766
 40
0.7499970456
 40
1.0
 40
1.0
 40
1.0
 40
1.0
 10
57.1582499115
 20
101.2852751164
 30
0.0
 10
57.0556532905
 20
100.843590909
 30
0.0
 10
56.9108901482
 20
100.1788639575
 30
0.0
 10
56.7392139302
 20
99.2883320582
 30
0.0
 10
56.6611629559
 20
98.8416093937
 30
0.0
 10
56.6243907767
 20
98.6178835841
 30
0.0
  0
SPLINE
  5
309
100
AcDbEntity
  8
0
100
AcDbSpline
 62
7
  6
CONTINUOUS
 70
0
 71
3
 72
9
 73
5
 74
0
 42
0.0000001
 43
0.0000001
 44
0.0000000001
 40
0.0
 40
0.0
 40
0.0
 40
0.0
 40
0.4913800182
 40
1.0
 40
1.0
 40
1.0
 40
1.0
 10
57.7736637329
 20
104.1999395443
 30
0.0
 10
57.7493141068
 20
104.188619362
 30
0.0
 10
57.7040655347
 20
104.1549905446
 30
0.0
 10
57.6762750569
 20
104.1058103281
 30
0.0
 10
57.6678666388
 20
104.0793182024
 30
0.0
  0
SPLINE
  5
30A
100
AcDbEntity
  8
0
100
AcDbSpline
 62
7
  6
CONTINUOUS
 70
0
 71
3
 72
13
 73
9
 74
0
 42
0.0000001
 43
0.0000001
 44
0.0000000001
 40
0.0
 40
0.0
 40
0.0
 40
0.0
 40
0.0223815485
 40
0.0844228271
 40
0.1830449692
 40
0.3105290721
 40
0.6320712699
 40
1.0
 40
1.0
 40
1.0
 40
1.0
 10
57.2290654884
 20
104.089015036
 30
0.0
 10
57.2338905862
 20
104.101016782
 30
0.0
 10
57.2522078349
 20
104.1462399984
 30
0.0
 10
57.2917001838
 20
104.2443825509
 30
0.0
 10
57.35388793
 20
104.3988697455
 30
0.0
 10
57.47235402
 20
104.6923755381
 30
0.0
 10
57.6494764558
 20
105.1300512695
 30
0.0
 10
57.8007793621
 20
105.4986911858
 30
0.0
 10
57.8823725572
 20
105.6950576482
 30
0.0
  0
SPLINE
  5
30B
100
AcDbEntity
  8
0
100
AcDbSpline
 62
7
  6
CONTINUOUS
 70
0
 71
3
 72
25
 73
21
 74
0
 42
0.0000001
 43
0.0000001
 44
0.0000000001
 40
0.0
 40
0.0
 40
0.0
 40
0.0
 40
0.0312549725
 40
0.0468905158
 40
0.0625188245
 40
0.0937647552
 40
0.1250106067
 40
0.1562571246
 40
0.1875073299
 40
0.2500177011
 40
0.312521279
 40
0.3750195934
 40
0.437518875
 40
0.5000200414
 40
0.6250161553
 40
0.750010464
 40
0.8125093667
 40
0.8750065178
 40
0.9375037092
 40
1.0
 40
1.0
 40
1.0
 40
1.0
 10
59.9688300028
 20
109.1514497078
 30
0.0
 10
59.9004980045
 20
109.0521023697
 30
0.0
 10
59.8052479956
 20
108.8980379279
 30
0.0
 10
59.6870106331
 20
108.6878279215
 30
0.0
 10
59.572940587
 20
108.4753330354
 30
0.0
 10
59.4378938549
 20
108.205835253
 30
0.0
 10
59.2855950139
 20
107.8777946293
 30
0.0
 10
59.1407607148
 20
107.5463852192
 30
0.0
 10
58.9564488511
 20
107.1007014451
 30
0.0
 10
58.7404635775
 20
106.5377700616
 30
0.0
 10
58.4972651128
 20
105.8564200645
 30
0.0
 10
58.2684348635
 20
105.170157018
 30
0.0
 10
58.0523412933
 20
104.4797988312
 30
0.0
 10
57.779714877
 20
103.5546369289
 30
0.0
 10
57.4651193564
 20
102.3906488273
 30
0.0
 10
57.1855453571
 20
101.2177676347
 30
0.0
 10
56.9829316958
 20
100.2748213219
 30
0.0
 10
56.8426054933
 20
99.5651958379
 30
0.0
 10
56.7149209497
 20
98.8531975809
 30
0.0
 10
56.6393223092
 20
98.3768998985
 30
0.0
 10
56.6044662437
 20
98.1383285814
 30
0.0
  0
SPLINE
  5
30C
100
AcDbEntity
  8
0
100
AcDbSpline
 62
7
  6
CONTINUOUS
 70
0
 71
3
 72
22
 73
18
 74
0
 42
0.0000001
 43
0.0000001
 44
0.0000000001
 40
0.0
 40
0.0
 40
0.0
 40
0.0
 40
0.0302401167
 40
0.0610588575
 40
0.0920194408
 40
0.1230955887
 40
0.1542414822
 40
0.1854357275
 40
0.247938162
 40
0.3105365528
 40
0.3731724008
 40
0.4358399449
 40
0.4985318675
 40
0.6239414335
 40
0.7493556149
 40
0.8747338166
 40
1.0
 40
1.0
 40
1.0
 40
1.0
 10
60.3797121562
 20
108.868456067
 30
0.0
 10
60.3152272272
 20
108.7748490173
 30
0.0
 10
60.1951034087
 20
108.5789454466
 30
0.0
 10
60.0296858342
 20
108.2751286326
 30
0.0
 10
59.8737666727
 20
107.9627749099
 30
0.0
 10
59.7267470981
 20
107.6448235072
 30
0.0
 10
59.586455552
 20
107.3228998461
 30
0.0
 10
59.4074018452
 20
106.8891079441
 30
0.0
 10
59.1970137125
 20
106.3404849116
 30
0.0
 10
58.959511325
 20
105.6759249554
 30
0.0
 10
58.7355775249
 20
105.0060167808
 30
0.0
 10
58.523736632
 20
104.3318294431
 30
0.0
 10
58.2560022967
 20
103.4280100813
 30
0.0
 10
57.9463808542
 20
102.2907555683
 30
0.0
 10
57.6149992103
 20
100.9158300015
 30
0.0
 10
57.3242580569
 20
99.5322991219
 30
0.0
 10
57.1620090048
 20
98.6039261913
 30
0.0
 10
57.0916966426
 20
98.1383459177
 30
0.0
  0
SPLINE
  5
30D
100
AcDbEntity
  8
0
100
AcDbSpline
 62
7
  6
CONTINUOUS
 70
0
 71
3
 72
10
 73
6
 74
0
 42
0.0000001
 43
0.0000001
 44
0.0000000001
 40
0.0
 40
0.0
 40
0.0
 40
0.0
 40
0.2495767038
 40
0.4994511502
 40
1.0
 40
1.0
 40
1.0
 40
1.0
 10
55.6188990858
 20
98.6184456379
 30
0.0
 10
55.6726400534
 20
98.8485808651
 30
0.0
 10
55.7848503116
 20
99.3080474353
 30
0.0
 10
56.0254140813
 20
100.2239211653
 30
0.0
 10
56.2224082674
 20
100.9067981346
 30
0.0
 10
56.3599654756
 20
101.3603729434
 30
0.0
  0
SPLINE
  5
30E
100
AcDbEntity
  8
0
100
AcDbSpline
 62
7
  6
CONTINUOUS
 70
0
 71
3
 72
10
 73
6
 74
0
 42
0.0000001
 43
0.0000001
 44
0.0000000001
 40
0.0
 40
0.0
 40
0.0
 40
0.0
 40
0.2500037544
 40
0.5000065209
 40
1.0
 40
1.0
 40
1.0
 40
1.0
 10
55.9896389731
 20
98.6185497817
 30
0.0
 10
56.0371277861
 20
98.8449765471
 30
0.0
 10
56.1366284745
 20
99.2968907349
 30
0.0
 10
56.3510416581
 20
100.1971364094
 30
0.0
 10
56.5278226732
 20
100.8684282937
 30
0.0
 10
56.6516707368
 20
101.3142384692
 30
0.0
  0
SPLINE
  5
30F
100
AcDbEntity
  8
0
100
AcDbSpline
 62
7
  6
CONTINUOUS
 70
0
 71
3
 72
10
 73
6
 74
0
 42
0.0000001
 43
0.0000001
 44
0.0000000001
 40
0.0
 40
0.0
 40
0.0
 40
0.0
 40
0.4999930937
 40
0.7499972206
 40
1.0
 40
1.0
 40
1.0
 40
1.0
 10
56.6202135686
 20
101.3437474062
 30
0.0
 10
56.4932771439
 20
100.893068937
 30
0.0
 10
56.312051649
 20
100.214384578
 30
0.0
 10
56.092001961
 20
99.3041353801
 30
0.0
 10
55.9899234238
 20
98.8471362734
 30
0.0
 10
55.9411778224
 20
98.6181546504
 30
0.0
  0
LINE
  5
310
100
AcDbEntity
  8
0
100
AcDbLine
 62
7
  6
CONTINUOUS
 10
56.7955928758
 20
101.277034519
 11
57.1349141965
 21
101.1799737658
  0
SPLINE
  5
311
100
AcDbEntity
  8
0
100
AcDbSpline
 62
7
  6
CONTINUOUS
 70
0
 71
3
 72
14
 73
10
 74
0
 42
0.0000001
 43
0.0000001
 44
0.0000000001
 40
0.0
 40
0.0
 40
0.0
 40
0.0
 40
0.0398828032
 40
0.1106176406
 40
0.2101205292
 40
0.3350071609
 40
0.4813839441
 40
0.644664762
 40
1.0
 40
1.0
 40
1.0
 40
1.0
 10
56.6516818341
 20
101.3142389972
 30
0.0
 10
56.6536555803
 20
101.3141279028
 30
0.0
 10
56.6590622694
 20
101.3130878624
 30
0.0
 10
56.6692358744
 20
101.3109242484
 30
0.0
 10
56.6834593143
 20
101.3074718442
 30
0.0
 10
56.7012709782
 20
101.3029562088
 30
0.0
 10
56.7220989277
 20
101.2974624819
 30
0.0
 10
56.7539124201
 20
101.2888393882
 30
0.0
 10
56.7786617966
 20
101.2818876296
 30
0.0
 10
56.7955929976
 20
101.277034944
 30
0.0
  0
SPLINE
  5
312
100
AcDbEntity
  8
0
100
AcDbSpline
 62
7
  6
CONTINUOUS
 70
0
 71
3
 72
9
 73
5
 74
0
 42
0.0000001
 43
0.0000001
 44
0.0000000001
 40
0.0
 40
0.0
 40
0.0
 40
0.0
 40
0.2500570584
 40
1.0
 40
1.0
 40
1.0
 40
1.0
 10
56.7954034706
 20
101.2770871912
 30
0.0
 10
56.7342488746
 20
101.0571799833
 30
0.0
 10
56.4953812823
 20
100.1761972943
 30
0.0
 10
56.2818376192
 20
99.2881949675
 30
0.0
 10
56.1406142159
 20
98.6183724068
 30
0.0
  0
SPLINE
  5
313
100
AcDbEntity
  8
0
100
AcDbSpline
 62
7
  6
CONTINUOUS
 70
0
 71
3
 72
12
 73
8
 74
0
 42
0.0000001
 43
0.0000001
 44
0.0000000001
 40
0.0
 40
0.0
 40
0.0
 40
0.0
 40
0.4263410658
 40
0.7453430077
 40
0.8580144629
 40
0.9379660495
 40
1.0
 40
1.0
 40
1.0
 40
1.0
 10
58.4590356779
 20
107.0307458001
 30
0.0
 10
58.476792471
 20
107.0698563386
 30
0.0
 10
58.5086885968
 20
107.139583972
 30
0.0
 10
58.5430230661
 20
107.2139263095
 30
0.0
 10
58.5673837002
 20
107.2661786056
 30
0.0
 10
58.5736941188
 20
107.2798586717
 30
0.0
 10
58.5882900775
 20
107.3108514335
 30
0.0
 10
58.5855812633
 20
107.3052192233
 30
0.0
  0
SPLINE
  5
314
100
AcDbEntity
  8
0
100
AcDbSpline
 62
7
  6
CONTINUOUS
 70
0
 71
3
 72
16
 73
12
 74
0
 42
0.0000001
 43
0.0000001
 44
0.0000000001
 40
0.0
 40
0.0
 40
0.0
 40
0.0
 40
0.0275835168
 40
0.0533418403
 40
0.1115824551
 40
0.1919145825
 40
0.2985219623
 40
0.4318689402
 40
0.5928160963
 40
0.7820405656
 40
1.0
 40
1.0
 40
1.0
 40
1.0
 10
58.8687810804
 20
107.2985088296
 30
0.0
 10
58.8697690745
 20
107.298633512
 30
0.0
 10
58.871737752
 20
107.2986149495
 30
0.0
 10
58.8755591799
 20
107.2970385935
 30
0.0
 10
58.8791626531
 20
107.2918946986
 30
0.0
 10
58.8813605791
 20
107.283294763
 30
0.0
 10
58.8824462853
 20
107.2717416512
 30
0.0
 10
58.882331219
 20
107.2572574969
 30
0.0
 10
58.8810332368
 20
107.2398393692
 30
0.0
 10
58.878526172
 20
107.2194771181
 30
0.0
 10
58.8762109041
 20
107.204957417
 30
0.0
 10
58.8748719692
 20
107.1972033152
 30
0.0
  0
SPLINE
  5
315
100
AcDbEntity
  8
0
100
AcDbSpline
 62
7
  6
CONTINUOUS
 70
0
 71
3
 72
9
 73
5
 74
0
 42
0.0000001
 43
0.0000001
 44
0.0000000001
 40
0.0
 40
0.0
 40
0.0
 40
0.0
 40
0.2252908254
 40
1.0
 40
1.0
 40
1.0
 40
1.0
 10
58.873181694
 20
107.18770332
 30
0.0
 10
58.8720827674
 20
107.1816956101
 30
0.0
 10
58.8669712794
 20
107.1550718531
 30
0.0
 10
58.8610953801
 20
107.1285999854
 30
0.0
 10
58.8563212041
 20
107.1081483013
 30
0.0
  0
SPLINE
  5
316
100
AcDbEntity
  8
0
100
AcDbSpline
 62
7
  6
CONTINUOUS
 70
0
 71
3
 72
12
 73
8
 74
0
 42
0.0000001
 43
0.0000001
 44
0.0000000001
 40
0.0
 40
0.0
 40
0.0
 40
0.0
 40
0.0914853003
 40
0.1969683561
 40
0.4408371399
 40
0.7139395473
 40
1.0
 40
1.0
 40
1.0
 40
1.0
 10
58.8315951592
 20
107.0089396012
 30
0.0
 10
58.8200344322
 20
106.9647794403
 30
0.0
 10
58.7939891262
 20
106.8700049673
 30
0.0
 10
58.732637194
 20
106.6587663996
 30
0.0
 10
58.6415223383
 20
106.3618307878
 30
0.0
 10
58.5192601364
 20
105.9802417414
 30
0.0
 10
58.4298230049
 20
105.7159404979
 30
0.0
 10
58.3828055848
 20
105.5811713234
 30
0.0
  0
SPLINE
  5
317
100
AcDbEntity
  8
0
100
AcDbSpline
 62
7
  6
CONTINUOUS
 70
0
 71
3
 72
9
 73
5
 74
0
 42
0.0000001
 43
0.0000001
 44
0.0000000001
 40
0.0
 40
0.0
 40
0.0
 40
0.0
 40
0.2554305591
 40
1.0
 40
1.0
 40
1.0
 40
1.0
 10
58.333417194
 20
105.4411223775
 30
0.0
 10
58.3215166269
 20
105.4077474037
 30
0.0
 10
58.274584447
 20
105.2772087299
 30
0.0
 10
58.2260967785
 20
105.1472232428
 30
0.0
 10
58.188751559
 20
105.050924744
 30
0.0
  0
SPLINE
  5
318
100
AcDbEntity
  8
0
100
AcDbSpline
 62
7
  6
CONTINUOUS
 70
0
 71
3
 72
9
 73
5
 74
0
 42
0.0000001
 43
0.0000001
 44
0.0000000001
 40
0.0
 40
0.0
 40
0.0
 40
0.0
 40
0.5239292014
 40
1.0
 40
1.0
 40
1.0
 40
1.0
 10
58.1116228122
 20
104.8574889031
 30
0.0
 10
58.0857616464
 20
104.7945207514
 30
0.0
 10
58.035097613
 20
104.6748678703
 30
0.0
 10
57.981447658
 20
104.5565105713
 30
0.0
 10
57.9548694294
 20
104.5006580735
 30
0.0
  0
SPLINE
  5
319
100
AcDbEntity
  8
0
100
AcDbSpline
 62
7
  6
CONTINUOUS
 70
0
 71
3
 72
9
 73
5
 74
0
 42
0.0000001
 43
0.0000001
 44
0.0000000001
 40
0.0
 40
0.0
 40
0.0
 40
0.0
 40
0.2674896617
 40
1.0
 40
1.0
 40
1.0
 40
1.0
 10
57.9548694294
 20
104.5006580735
 30
0.0
 10
57.9479685444
 20
104.4861562921
 30
0.0
 10
57.9218994931
 20
104.4320723624
 30
0.0
 10
57.8946337301
 20
104.3785550587
 30
0.0
 10
57.8737023775
 20
104.3398756728
 30
0.0
  0
SPLINE
  5
31A
100
AcDbEntity
  8
0
100
AcDbSpline
 62
7
  6
CONTINUOUS
 70
0
 71
3
 72
9
 73
5
 74
0
 42
0.0000001
 43
0.0000001
 44
0.0000000001
 40
0.0
 40
0.0
 40
0.0
 40
0.0
 40
0.2676286646
 40
1.0
 40
1.0
 40
1.0
 40
1.0
 10
57.8737023775
 20
104.3398756728
 30
0.0
 10
57.8686976337
 20
104.3306273257
 30
0.0
 10
57.8497898974
 20
104.2961842055
 30
0.0
 10
57.8300363386
 20
104.2621988509
 30
0.0
 10
57.8149363755
 20
104.2377025294
 30
0.0
  0
SPLINE
  5
31B
100
AcDbEntity
  8
0
100
AcDbSpline
 62
7
  6
CONTINUOUS
 70
0
 71
3
 72
9
 73
5
 74
0
 42
0.0000001
 43
0.0000001
 44
0.0000000001
 40
0.0
 40
0.0
 40
0.0
 40
0.0
 40
0.2684938486
 40
1.0
 40
1.0
 40
1.0
 40
1.0
 10
57.8125677337
 20
104.2338718869
 30
0.0
 10
57.8089201257
 20
104.2279913224
 30
0.0
 10
57.7951905402
 20
104.2061803384
 30
0.0
 10
57.7808609128
 20
104.1847371935
 30
0.0
 10
57.7698582115
 20
104.1694274252
 30
0.0
  0
SPLINE
  5
31C
100
AcDbEntity
  8
0
100
AcDbSpline
 62
7
  6
CONTINUOUS
 70
0
 71
3
 72
11
 73
7
 74
0
 42
0.0000001
 43
0.0000001
 44
0.0000000001
 40
0.0
 40
0.0
 40
0.0
 40
0.0
 40
0.3589758541
 40
0.6374883054
 40
0.8448716307
 40
1.0
 40
1.0
 40
1.0
 40
1.0
 10
57.7698582115
 20
104.1694274252
 30
0.0
 10
57.7601464284
 20
104.1559139121
 30
0.0
 10
57.7422168469
 20
104.1323764882
 30
0.0
 10
57.7150855035
 20
104.1039449757
 30
0.0
 10
57.6909790655
 20
104.0862359431
 30
0.0
 10
57.6748499238
 20
104.0802686819
 30
0.0
 10
57.6677213506
 20
104.0793201053
 30
0.0
  0
SPLINE
  5
31D
100
AcDbEntity
  8
0
100
AcDbSpline
 62
7
  6
CONTINUOUS
 70
0
 71
3
 72
11
 73
7
 74
0
 42
0.0000001
 43
0.0000001
 44
0.0000000001
 40
0.0
 40
0.0
 40
0.0
 40
0.0
 40
0.1228706514
 40
0.3265312919
 40
0.6184411404
 40
1.0
 40
1.0
 40
1.0
 40
1.0
 10
58.8526959453
 20
107.0183274808
 30
0.0
 10
58.8510526258
 20
107.0183173363
 30
0.0
 10
58.8469441061
 20
107.0161515776
 30
0.0
 10
58.8407659978
 20
107.0108073844
 30
0.0
 10
58.8327196931
 20
107.0021726317
 30
0.0
 10
58.8270249387
 20
106.9952115359
 30
0.0
 10
58.8238620533
 20
106.9912066719
 30
0.0
  0
SPLINE
  5
31E
100
AcDbEntity
  8
0
100
AcDbSpline
 62
7
  6
CONTINUOUS
 70
0
 71
3
 72
35
 73
31
 74
0
 42
0.0000001
 43
0.0000001
 44
0.0000000001
 40
0.0
 40
0.0
 40
0.0
 40
0.0
 40
0.0130570738
 40
0.0303476226
 40
0.0516131395
 40
0.0765476163
 40
0.1361115626
 40
0.2064236602
 40
0.2849902875
 40
0.369386768
 40
0.5464445395
 40
0.6344721078
 40
0.7188590826
 40
0.758863921
 40
0.7969290674
 40
0.8326910198
 40
0.8657874775
 40
0.8958603155
 40
0.9225568691
 40
0.9455572083
 40
0.9555855604
 40
0.9645890145
 40
0.9725438551
 40
0.9794355297
 40
0.9852539162
 40
0.98999708
 40
0.9936868727
 40
0.9963993789
 40
0.9983341163
 40
1.0
 40
1.0
 40
1.0
 40
1.0
 10
58.8238620533
 20
106.9912066719
 30
0.0
 10
58.8155721357
 20
106.9807099299
 30
0.0
 10
58.7973697321
 20
106.9554815791
 30
0.0
 10
58.7680366146
 20
106.911490643
 30
0.0
 10
58.7333256569
 20
106.8564805289
 30
0.0
 10
58.6771581483
 20
106.7638297217
 30
0.0
 10
58.5978987322
 20
106.6264496476
 30
0.0
 10
58.4949391618
 20
106.4393750213
 30
0.0
 10
58.3832330807
 20
106.2281144532
 30
0.0
 10
58.2250956846
 20
105.9177582795
 30
0.0
 10
58.0694233236
 20
105.5953035095
 30
0.0
 10
57.9208357156
 20
105.2695903197
 30
0.0
 10
57.8336188788
 20
105.0702208706
 30
0.0
 10
57.7690122652
 20
104.9168521235
 30
0.0
 10
57.7247987282
 20
104.808948909
 30
0.0
 10
57.6843878599
 20
104.7071421402
 30
0.0
 10
57.6482176503
 20
104.6124691366
 30
0.0
 10
57.6166890647
 20
104.5259740636
 30
0.0
 10
57.590167775
 20
104.4486768843
 30
0.0
 10
57.5717335267
 20
104.3903274158
 30
0.0
 10
57.5598729865
 20
104.3489332592
 30
0.0
 10
57.5528321318
 20
104.3221974456
 30
0.0
 10
57.5472473998
 20
104.2984086559
 30
0.0
 10
57.5431243073
 20
104.2776402907
 30
0.0
 10
57.5404670638
 20
104.2599488737
 30
0.0
 10
57.5392584437
 20
104.2453908334
 30
0.0
 10
57.5395084262
 20
104.2339275329
 30
0.0
 10
57.5411266296
 20
104.2255211655
 30
0.0
 10
57.5445306496
 20
104.2196284013
 30
0.0
 10
57.5483669071
 20
104.2183437577
 30
0.0
 10
57.5500734141
 20
104.2183397786
 30
0.0
  0
SPLINE
  5
31F
100
AcDbEntity
  8
0
100
AcDbSpline
 62
7
  6
CONTINUOUS
 70
0
 71
3
 72
46
 73
42
 74
0
 42
0.0000001
 43
0.0000001
 44
0.0000000001
 40
0.0
 40
0.0
 40
0.0
 40
0.0
 40
0.0007957778
 40
0.0016226796
 40
0.0025757978
 40
0.0037234059
 40
0.0067552695
 40
0.010922847
 40
0.0163052611
 40
0.0229052688
 40
0.0307067206
 40
0.0396868911
 40
0.0498167148
 40
0.0610629677
 40
0.0867639938
 40
0.1164505289
 40
0.1497128646
 40
0.1861461111
 40
0.2253489148
 40
0.310315369
 40
0.4011672829
 40
0.4947582789
 40
0.5881965113
 40
0.6786731599
 40
0.721956116
 40
0.7634566269
 40
0.8028051684
 40
0.8396417832
 40
0.8736084004
 40
0.9043197201
 40
0.9313759649
 40
0.954383093
 40
0.9642470193
 40
0.9729641426
 40
0.9805141175
 40
0.9868793744
 40
0.9920431153
 40
0.9959611576
 40
0.9985819
 40
0.9994188546
 40
1.0
 40
1.0
 40
1.0
 40
1.0
 10
57.3620935123
 20
104.085081767
 30
0.0
 10
57.36117254
 20
104.0851957909
 30
0.0
 10
57.35931241
 20
104.0857582697
 30
0.0
 10
57.3569215793
 20
104.0876741575
 30
0.0
 10
57.3550105178
 20
104.0905498485
 30
0.0
 10
57.3528406825
 20
104.0961608611
 30
0.0
 10
57.3515019504
 20
104.1058972528
 30
0.0
 10
57.3515690799
 20
104.1205773055
 30
0.0
 10
57.353296594
 20
104.1393535699
 30
0.0
 10
57.3566697425
 20
104.1621815713
 30
0.0
 10
57.3617034949
 20
104.1889857507
 30
0.0
 10
57.3683854546
 20
104.2196522001
 30
0.0
 10
57.3766962369
 20
104.2540656016
 30
0.0
 10
57.3905450527
 20
104.3071919479
 30
0.0
 10
57.4118728382
 20
104.3819234458
 30
0.0
 10
57.4423257551
 20
104.4807214752
 30
0.0
 10
57.478276188
 20
104.5909046743
 30
0.0
 10
57.5192810715
 20
104.7110987036
 30
0.0
 10
57.5817828251
 20
104.8876535851
 30
0.0
 10
57.6690374682
 20
105.1227477987
 30
0.0
 10
57.7830720166
 20
105.4155081401
 30
0.0
 10
57.90508733
 20
105.7157256204
 30
0.0
 10
58.0311591794
 20
106.0137859064
 30
0.0
 10
58.137776028
 20
106.2563473141
 30
0.0
 10
58.2220731234
 20
106.4425363508
 30
0.0
 10
58.2827693412
 20
106.5739563284
 30
0.0
 10
58.341309403
 20
106.6980868394
 30
0.0
 10
58.3971061488
 20
106.8137923481
 30
0.0
 10
58.4495636186
 20
106.9199198163
 30
0.0
 10
58.4980237779
 20
107.0152938697
 30
0.0
 10
58.541801737
 20
107.0987022247
 30
0.0
 10
58.5752973465
 20
107.1600427819
 30
0.0
 10
58.5993197803
 20
107.2021756869
 30
0.0
 10
58.6148061148
 20
107.2284210547
 30
0.0
 10
58.6286470676
 20
107.2508983036
 30
0.0
 10
58.640793944
 20
107.2695362504
 30
0.0
 10
58.6511689483
 20
107.2842871734
 30
0.0
 10
58.659652312
 20
107.2949470172
 30
0.0
 10
58.6657091117
 20
107.3011831136
 30
0.0
 10
58.6697124991
 20
107.3036835089
 30
0.0
 10
58.6714378186
 20
107.3040176801
 30
0.0
 10
58.6720989881
 20
107.3038688731
 30
0.0
  0
SPLINE
  5
320
100
AcDbEntity
  8
0
100
AcDbSpline
 62
7
  6
CONTINUOUS
 70
0
 71
3
 72
10
 73
6
 74
0
 42
0.0000001
 43
0.0000001
 44
0.0000000001
 40
0.0
 40
0.0
 40
0.0
 40
0.0
 40
0.2495629265
 40
0.4994334163
 40
1.0
 40
1.0
 40
1.0
 40
1.0
 10
34.7839057667
 20
41.4083629476
 30
0.0
 10
34.8382402711
 20
41.1780190318
 30
0.0
 10
34.9516461623
 20
40.7181381271
 30
0.0
 10
35.1946221834
 20
39.8014428287
 30
0.0
 10
35.393440349
 20
39.1179790378
 30
0.0
 10
35.5322207144
 20
38.6640214319
 30
0.0
  0
SPLINE
  5
321
100
AcDbEntity
  8
0
100
AcDbSpline
 62
7
  6
CONTINUOUS
 70
0
 71
3
 72
9
 73
5
 74
0
 42
0.0000001
 43
0.0000001
 44
0.0000000001
 40
0.0
 40
0.0
 40
0.0
 40
0.0
 40
0.4999989509
 40
1.0
 40
1.0
 40
1.0
 40
1.0
 10
35.8244039125
 20
41.4087817535
 30
0.0
 10
35.89795757
 20
40.9613466862
 30
0.0
 10
36.0627119715
 20
40.0693282899
 30
0.0
 10
36.2556612618
 20
39.1830703159
 30
0.0
 10
36.3582581045
 20
38.7413872921
 30
0.0
  0
SPLINE
  5
322
100
AcDbEntity
  8
0
100
AcDbSpline
 62
7
  6
CONTINUOUS
 70
0
 71
3
 72
46
 73
42
 74
0
 42
0.0000001
 43
0.0000001
 44
0.0000000001
 40
0.0
 40
0.0
 40
0.0
 40
0.0
 40
0.0012426928
 40
0.0023861693
 40
0.0038967979
 40
0.0057567074
 40
0.0079410411
 40
0.0131881605
 40
0.0195759707
 40
0.0271150754
 40
0.0456714102
 40
0.0686765177
 40
0.0957173935
 40
0.1263969428
 40
0.1603489693
 40
0.1971948177
 40
0.2365439858
 40
0.2780231969
 40
0.3212736164
 40
0.4117190132
 40
0.5051613325
 40
0.5987590971
 40
0.6895747142
 40
0.7745536141
 40
0.8137939105
 40
0.8502748847
 40
0.8835500991
 40
0.9132206953
 40
0.9389193879
 40
0.9501735363
 40
0.9603115642
 40
0.969295842
 40
0.9770968554
 40
0.9836938924
 40
0.9890727849
 40
0.993239348
 40
0.9962739287
 40
0.9974230289
 40
0.998377106
 40
0.9992042491
 40
1.0
 40
1.0
 40
1.0
 40
1.0
 10
37.8721014107
 20
32.7227982015
 30
0.0
 10
37.8709245054
 20
32.7219525047
 30
0.0
 10
37.8676081901
 20
32.7236273146
 30
0.0
 10
37.8644861506
 20
32.7264657185
 30
0.0
 10
37.8607658563
 20
32.7303604793
 30
0.0
 10
37.8566642311
 20
32.7353244372
 30
0.0
 10
37.8500569556
 20
32.743937533
 30
0.0
 10
37.840817895
 20
32.7571367564
 30
0.0
 10
37.8286078507
 20
32.7758777545
 30
0.0
 10
37.8087415847
 20
32.8081347106
 30
0.0
 10
37.7801562459
 20
32.8577639486
 30
0.0
 10
37.7418003151
 20
32.9279784827
 30
0.0
 10
37.6980459717
 20
33.0113405501
 30
0.0
 10
37.6496073827
 20
33.106649874
 30
0.0
 10
37.5971690808
 20
33.2127446945
 30
0.0
 10
37.5413724288
 20
33.3284505657
 30
0.0
 10
37.4828373682
 20
33.452575609
 30
0.0
 10
37.4221627707
 20
33.5839444625
 30
0.0
 10
37.3378942752
 20
33.7700477005
 30
0.0
 10
37.2312929539
 20
34.0125533383
 30
0.0
 10
37.1052602415
 20
34.3106199737
 30
0.0
 10
36.9831733968
 20
34.6107923278
 30
0.0
 10
36.8691833346
 20
34.9035643377
 30
0.0
 10
36.7819158078
 20
35.1386826124
 30
0.0
 10
36.7193641979
 20
35.3153496948
 30
0.0
 10
36.6783047314
 20
35.4356520947
 30
0.0
 10
36.6423339304
 20
35.5458890752
 30
0.0
 10
36.6118893762
 20
35.6446880856
 30
0.0
 10
36.5905692672
 20
35.7194127625
 30
0.0
 10
36.5767107021
 20
35.7725557108
 30
0.0
 10
36.5683892423
 20
35.8069924389
 30
0.0
 10
36.5617013256
 20
35.8376732462
 30
0.0
 10
36.5566672098
 20
35.8644794794
 30
0.0
 10
36.5532972224
 20
35.8873008678
 30
0.0
 10
36.5515742432
 20
35.9060696714
 30
0.0
 10
36.5515111881
 20
35.9207482573
 30
0.0
 10
36.5528466898
 20
35.9304886299
 30
0.0
 10
36.555012147
 20
35.9361079245
 30
0.0
 10
36.556920391
 20
35.9389893864
 30
0.0
 10
36.5593101335
 20
35.9409096402
 30
0.0
 10
36.5611713552
 20
35.941471595
 30
0.0
 10
36.5620924981
 20
35.9415843232
 30
0.0
  0
SPLINE
  5
323
100
AcDbEntity
  8
0
100
AcDbSpline
 62
7
  6
CONTINUOUS
 70
0
 71
3
 72
14
 73
10
 74
0
 42
0.0000001
 43
0.0000001
 44
0.0000000001
 40
0.0
 40
0.0
 40
0.0
 40
0.0
 40
0.3553430123
 40
0.518623219
 40
0.6650006268
 40
0.7898916845
 40
0.8893953626
 40
0.960122311
 40
1.0
 40
1.0
 40
1.0
 40
1.0
 10
35.9955805791
 20
38.7496275123
 30
0.0
 10
35.9786508108
 20
38.7447753672
 30
0.0
 10
35.9539037304
 20
38.7378244387
 30
0.0
 10
35.9220932635
 20
38.7292023796
 30
0.0
 10
35.9012673307
 20
38.7237093128
 30
0.0
 10
35.8834573059
 20
38.7191941422
 30
0.0
 10
35.8692355302
 20
38.7157421973
 30
0.0
 10
35.8590635958
 20
38.7135790029
 30
0.0
 10
35.8536580952
 20
38.7125394443
 30
0.0
 10
35.8516848166
 20
38.712428369
 30
0.0
  0
LINE
  5
324
100
AcDbEntity
  8
0
100
AcDbLine
 62
7
  6
CONTINUOUS
 10
36.3348090132
 20
38.8466607555
 11
35.9955804092
 21
38.749628105
  0
SPLINE
  5
325
100
AcDbEntity
  8
0
100
AcDbSpline
 62
7
  6
CONTINUOUS
 70
0
 71
3
 72
9
 73
5
 74
0
 42
0.0000001
 43
0.0000001
 44
0.0000000001
 40
0.0
 40
0.0
 40
0.0
 40
0.0
 40
0.4999480619
 40
1.0
 40
1.0
 40
1.0
 40
1.0
 10
35.3406302149
 20
41.4083067071
 30
0.0
 10
35.4347818521
 20
40.9617549573
 30
0.0
 10
35.6405026843
 20
40.0721866897
 30
0.0
 10
35.873165859
 20
39.189371488
 30
0.0
 10
35.9954723082
 20
38.7495980408
 30
0.0
  0
SPLINE
  5
326
100
AcDbEntity
  8
0
100
AcDbSpline
 62
7
  6
CONTINUOUS
 70
0
 71
3
 72
22
 73
18
 74
0
 42
0.0000001
 43
0.0000001
 44
0.0000000001
 40
0.0
 40
0.0
 40
0.0
 40
0.0
 40
0.1252624209
 40
0.2506377657
 40
0.3760484889
 40
0.50145457
 40
0.5641448923
 40
0.6268108168
 40
0.6894450539
 40
0.7520421707
 40
0.8145428539
 40
0.8457361374
 40
0.8768811891
 40
0.9079564314
 40
0.9389141916
 40
0.9697312446
 40
1.0
 40
1.0
 40
1.0
 40
1.0
 10
36.2916869789
 20
41.8883184496
 30
0.0
 10
36.3619801168
 20
41.4227513609
 30
0.0
 10
36.5242946166
 20
40.4944180846
 30
0.0
 10
36.8149890669
 20
39.1109229502
 30
0.0
 10
37.1463478728
 20
37.7360346326
 30
0.0
 10
37.455952244
 20
36.5988133911
 30
0.0
 10
37.7236790025
 20
35.6950217182
 30
0.0
 10
37.9355155246
 20
35.0208548122
 30
0.0
 10
38.1594447967
 20
34.3509657957
 30
0.0
 10
38.3969367646
 20
33.6864234568
 30
0.0
 10
38.6073124466
 20
33.1378141461
 30
0.0
 10
38.786350128
 20
32.7040319917
 30
0.0
 10
38.9266270945
 20
32.382114613
 30
0.0
 10
39.0736271375
 20
32.0641742961
 30
0.0
 10
39.2295377684
 20
31.7518410803
 30
0.0
 10
39.3950878753
 20
31.4479883559
 30
0.0
 10
39.5152804585
 20
31.2520249523
 30
0.0
 10
39.5796707137
 20
31.1582226704
 30
0.0
  0
SPLINE
  5
327
100
AcDbEntity
  8
0
100
AcDbSpline
 62
7
  6
CONTINUOUS
 70
0
 71
3
 72
10
 73
6
 74
0
 42
0.0000001
 43
0.0000001
 44
0.0000000001
 40
0.0
 40
0.0
 40
0.0
 40
0.0
 40
0.5005486885
 40
0.7504232094
 40
1.0
 40
1.0
 40
1.0
 40
1.0
 10
35.5599659326
 20
38.6662838596
 30
0.0
 10
35.4224095568
 20
39.1198578839
 30
0.0
 10
35.2254169855
 20
39.8027339144
 30
0.0
 10
34.9848527967
 20
40.7186057734
 30
0.0
 10
34.8726399371
 20
41.1780709998
 30
0.0
 10
34.8188981821
 20
41.4082056976
 30
0.0
  0
SPLINE
  5
328
100
AcDbEntity
  8
0
100
AcDbSpline
 62
7
  6
CONTINUOUS
 70
0
 71
3
 72
15
 73
11
 74
0
 42
0.0000001
 43
0.0000001
 44
0.0000000001
 40
0.0
 40
0.0
 40
0.0
 40
0.0
 40
0.0545887547
 40
0.1149075139
 40
0.1941586883
 40
0.2985442415
 40
0.4307279892
 40
0.591712494
 40
0.7815595511
 40
1.0
 40
1.0
 40
1.0
 40
1.0
 10
38.0687887612
 20
32.7281583015
 30
0.0
 10
38.0705495773
 20
32.7281965111
 30
0.0
 10
38.0743510072
 20
32.7293213123
 30
0.0
 10
38.0784000401
 20
32.7344328273
 30
0.0
 10
38.0809011476
 20
32.7419612074
 30
0.0
 10
38.0822775635
 20
32.752095103
 30
0.0
 10
38.0825130859
 20
32.7649360453
 30
0.0
 10
38.0816324128
 20
32.780504787
 30
0.0
 10
38.079649758
 20
32.7987697308
 30
0.0
 10
38.0777402352
 20
32.8118060798
 30
0.0
 10
38.0766272795
 20
32.8187653261
 30
0.0
  0
SPLINE
  5
329
100
AcDbEntity
  8
0
100
AcDbSpline
 62
7
  6
CONTINUOUS
 70
0
 71
3
 72
9
 73
5
 74
0
 42
0.0000001
 43
0.0000001
 44
0.0000000001
 40
0.0
 40
0.0
 40
0.0
 40
0.0
 40
0.4560930367
 40
1.0
 40
1.0
 40
1.0
 40
1.0
 10
38.0756795529
 20
32.8245572298
 30
0.0
 10
38.0729908544
 20
32.8406363138
 30
0.0
 10
38.0661566124
 20
32.8757321807
 30
0.0
 10
38.0582563291
 20
32.9105945549
 30
0.0
 10
38.0537721633
 20
32.9295114463
 30
0.0
  0
LINE
  5
32A
100
AcDbEntity
  8
0
100
AcDbLine
 62
7
  6
CONTINUOUS
 10
38.0353361086
 20
33.0035798538
 11
38.0341720607
 21
33.0080662445
  0
SPLINE
  5
32B
100
AcDbEntity
  8
0
100
AcDbSpline
 62
7
  6
CONTINUOUS
 70
0
 71
3
 72
9
 73
5
 74
0
 42
0.0000001
 43
0.0000001
 44
0.0000000001
 40
0.0
 40
0.0
 40
0.0
 40
0.0
 40
0.2293486524
 40
1.0
 40
1.0
 40
1.0
 40
1.0
 10
38.0341720607
 20
33.0080662445
 30
0.0
 10
38.0304871875
 20
33.0222404266
 30
0.0
 10
38.0141428169
 20
33.083970167
 30
0.0
 10
37.996893838
 20
33.1454571491
 30
0.0
 10
37.9833374313
 20
33.1927639407
 30
0.0
  0
SPLINE
  5
32C
100
AcDbEntity
  8
0
100
AcDbSpline
 62
7
  6
CONTINUOUS
 70
0
 71
3
 72
9
 73
5
 74
0
 42
0.0000001
 43
0.0000001
 44
0.0000000001
 40
0.0
 40
0.0
 40
0.0
 40
0.0
 40
0.2305149824
 40
1.0
 40
1.0
 40
1.0
 40
1.0
 10
37.9656409207
 20
33.2539555048
 30
0.0
 10
37.955941343
 20
33.2872081017
 30
0.0
 10
37.9133507672
 20
33.4313121009
 30
0.0
 10
37.8689977982
 20
33.574890534
 30
0.0
 10
37.8342913525
 20
33.6851856843
 30
0.0
  0
SPLINE
  5
32D
100
AcDbEntity
  8
0
100
AcDbSpline
 62
7
  6
CONTINUOUS
 70
0
 71
3
 72
11
 73
7
 74
0
 42
0.0000001
 43
0.0000001
 44
0.0000000001
 40
0.0
 40
0.0
 40
0.0
 40
0.0
 40
0.2533279086
 40
0.5133334773
 40
0.7666737315
 40
1.0
 40
1.0
 40
1.0
 40
1.0
 10
37.8000256255
 20
33.7934204797
 30
0.0
 10
37.7602148015
 20
33.9184148128
 30
0.0
 10
37.6778335898
 20
34.1711602207
 30
0.0
 10
37.5484512825
 20
34.5465129041
 30
0.0
 10
37.4161235364
 20
34.9098417163
 30
0.0
 10
37.3228792938
 20
35.1440403423
 30
0.0
 10
37.2757547042
 20
35.2552951182
 30
0.0
  0
SPLINE
  5
32E
100
AcDbEntity
  8
0
100
AcDbSpline
 62
7
  6
CONTINUOUS
 70
0
 71
3
 72
9
 73
5
 74
0
 42
0.0000001
 43
0.0000001
 44
0.0000000001
 40
0.0
 40
0.0
 40
0.0
 40
0.0
 40
0.2609287322
 40
1.0
 40
1.0
 40
1.0
 40
1.0
 10
37.2757547042
 20
35.2552951182
 30
0.0
 10
37.2674597342
 20
35.2748784193
 30
0.0
 10
37.2353847875
 20
35.3498092263
 30
0.0
 10
37.2022372694
 20
35.4242851338
 30
0.0
 10
37.1769238808
 20
35.4789483453
 30
0.0
  0
SPLINE
  5
32F
100
AcDbEntity
  8
0
100
AcDbSpline
 62
7
  6
CONTINUOUS
 70
0
 71
3
 72
9
 73
5
 74
0
 42
0.0000001
 43
0.0000001
 44
0.0000000001
 40
0.0
 40
0.0
 40
0.0
 40
0.0
 40
0.2773407967
 40
1.0
 40
1.0
 40
1.0
 40
1.0
 10
37.1769238808
 20
35.4789483453
 30
0.0
 10
37.1660544025
 20
35.5024205323
 30
0.0
 10
37.1262947575
 20
35.5867804299
 30
0.0
 10
37.0838777526
 20
35.6699525802
 30
0.0
 10
37.0505996329
 20
35.7285645739
 30
0.0
  0
SPLINE
  5
330
100
AcDbEntity
  8
0
100
AcDbSpline
 62
7
  6
CONTINUOUS
 70
0
 71
3
 72
9
 73
5
 74
0
 42
0.0000001
 43
0.0000001
 44
0.0000000001
 40
0.0
 40
0.0
 40
0.0
 40
0.0
 40
0.2671814247
 40
1.0
 40
1.0
 40
1.0
 40
1.0
 10
37.0505996329
 20
35.7285645739
 30
0.0
 10
37.0462725112
 20
35.7361858346
 30
0.0
 10
37.0299038045
 20
35.7646109962
 30
0.0
 10
37.0128332791
 20
35.7926378684
 30
0.0
 10
36.9997932579
 20
35.8128311156
 30
0.0
  0
SPLINE
  5
331
100
AcDbEntity
  8
0
100
AcDbSpline
 62
7
  6
CONTINUOUS
 70
0
 71
3
 72
9
 73
5
 74
0
 42
0.0000001
 43
0.0000001
 44
0.0000000001
 40
0.0
 40
0.0
 40
0.0
 40
0.0
 40
0.2627749584
 40
1.0
 40
1.0
 40
1.0
 40
1.0
 10
36.9897034209
 20
35.8282084923
 30
0.0
 10
36.9875056158
 20
35.8315028073
 30
0.0
 10
36.9790765863
 20
35.8439955794
 30
0.0
 10
36.9703770942
 20
35.8563077457
 30
0.0
 10
36.9637661058
 20
35.8652372058
 30
0.0
  0
SPLINE
  5
332
100
AcDbEntity
  8
0
100
AcDbSpline
 62
7
  6
CONTINUOUS
 70
0
 71
3
 72
12
 73
8
 74
0
 42
0.0000001
 43
0.0000001
 44
0.0000000001
 40
0.0
 40
0.0
 40
0.0
 40
0.0
 40
0.355176153
 40
0.6371050522
 40
0.7511790666
 40
0.8484569403
 40
1.0
 40
1.0
 40
1.0
 40
1.0
 10
36.9637661058
 20
35.8652372058
 30
0.0
 10
36.9546549558
 20
35.8775436333
 30
0.0
 10
36.9376473659
 20
35.8991435204
 30
0.0
 10
36.9151410166
 20
35.9225659436
 30
0.0
 10
36.898375993
 20
35.9357670301
 30
0.0
 10
36.8850746887
 20
35.9439000667
 30
0.0
 10
36.8743988299
 20
35.9474692297
 30
0.0
 10
36.8678667497
 20
35.94734682
 30
0.0
  0
SPLINE
  5
333
100
AcDbEntity
  8
0
100
AcDbSpline
 62
7
  6
CONTINUOUS
 70
0
 71
3
 72
9
 73
5
 74
0
 42
0.0000001
 43
0.0000001
 44
0.0000000001
 40
0.0
 40
0.0
 40
0.0
 40
0.0
 40
0.5068325524
 40
1.0
 40
1.0
 40
1.0
 40
1.0
 10
36.8678684
 20
35.9473416202
 30
0.0
 10
36.8757446362
 20
35.9225269678
 30
0.0
 10
36.9011502807
 20
35.8761559374
 30
0.0
 10
36.9422654043
 20
35.8430093863
 30
0.0
 10
36.9646685871
 20
35.8311838759
 30
0.0
  0
SPLINE
  5
334
100
AcDbEntity
  8
0
100
AcDbSpline
 62
7
  6
CONTINUOUS
 70
0
 71
3
 72
35
 73
31
 74
0
 42
0.0000001
 43
0.0000001
 44
0.0000000001
 40
0.0
 40
0.0
 40
0.0
 40
0.0
 40
0.001665496
 40
0.0036005422
 40
0.0063136024
 40
0.0100039521
 40
0.0147475877
 40
0.0205663439
 40
0.0274583062
 40
0.0354133756
 40
0.0444170215
 40
0.0544455267
 40
0.0774460218
 40
0.104142479
 40
0.1342149642
 40
0.167310886
 40
0.2030721608
 40
0.2411364949
 40
0.2811403922
 40
0.365525156
 40
0.4535503583
 40
0.6306042766
 40
0.7149997383
 40
0.7935660954
 40
0.8638787908
 40
0.9234444004
 40
0.9483802542
 40
0.9696476011
 40
0.9869404334
 40
1.0
 40
1.0
 40
1.0
 40
1.0
 10
36.7500686114
 20
35.8083274834
 30
0.0
 10
36.7483625174
 20
35.8083228272
 30
0.0
 10
36.7445272523
 20
35.8070356008
 30
0.0
 10
36.7411257402
 20
35.8011413113
 30
0.0
 10
36.7395082439
 20
35.7927335115
 30
0.0
 10
36.7392589915
 20
35.7812686466
 30
0.0
 10
36.7404681788
 20
35.7667093565
 30
0.0
 10
36.7431259957
 20
35.7490169994
 30
0.0
 10
36.7472495939
 20
35.7282479895
 30
0.0
 10
36.7528347859
 20
35.7044587681
 30
0.0
 10
36.759876041
 20
35.6777226875
 30
0.0
 10
36.7717369988
 20
35.6363284847
 30
0.0
 10
36.7901715277
 20
35.5779794045
 30
0.0
 10
36.8166928426
 20
35.5006832605
 30
0.0
 10
36.848221103
 20
35.4141899469
 30
0.0
 10
36.8843907099
 20
35.3195193205
 30
0.0
 10
36.9248007141
 20
35.2177154079
 30
0.0
 10
36.9690131448
 20
35.1098154648
 30
0.0
 10
37.0336178791
 20
34.9564518136
 30
0.0
 10
37.1208319062
 20
34.7570892546
 30
0.0
 10
37.2694148151
 20
34.4313866383
 30
0.0
 10
37.4250831195
 20
34.1089414052
 30
0.0
 10
37.5832167911
 20
33.7985924549
 30
0.0
 10
37.6949211262
 20
33.5873339843
 30
0.0
 10
37.79788001
 20
33.4002586532
 30
0.0
 10
37.8771395923
 20
33.2628758808
 30
0.0
 10
37.9333082033
 20
33.1702209465
 30
0.0
 10
37.9680211154
 20
33.1152060503
 30
0.0
 10
37.9973568685
 20
33.0712092552
 30
0.0
 10
38.0155611268
 20
33.0459765469
 30
0.0
 10
38.0238519457
 20
33.0354774026
 30
0.0
  0
SPLINE
  5
335
100
AcDbEntity
  8
0
100
AcDbSpline
 62
7
  6
CONTINUOUS
 70
0
 71
3
 72
25
 73
21
 74
0
 42
0.0000001
 43
0.0000001
 44
0.0000000001
 40
0.0
 40
0.0
 40
0.0
 40
0.0
 40
0.062496499
 40
0.1249939689
 40
0.1874914001
 40
0.2499904916
 40
0.3749848045
 40
0.4999808193
 40
0.5624820454
 40
0.6249813946
 40
0.6874797241
 40
0.749983404
 40
0.8124940596
 40
0.8437443542
 40
0.874990821
 40
0.9062363719
 40
0.9374815731
 40
0.9531093705
 40
0.9687444262
 40
1.0
 40
1.0
 40
1.0
 40
1.0
 10
35.8044701095
 20
41.888336279
 30
0.0
 10
35.8393182316
 20
41.6497805939
 30
0.0
 10
35.9149198029
 20
41.173516587
 30
0.0
 10
36.0426050623
 20
40.4615686746
 30
0.0
 10
36.1829179098
 20
39.7519909283
 30
0.0
 10
36.3855067451
 20
38.8091086971
 30
0.0
 10
36.6650468274
 20
37.6363085878
 30
0.0
 10
36.9796092084
 20
36.4724018504
 30
0.0
 10
37.2522109152
 20
35.5473051928
 30
0.0
 10
37.4682850235
 20
34.8569951089
 30
0.0
 10
37.6970931069
 20
34.1707790342
 30
0.0
 10
37.9402656531
 20
33.4894736611
 30
0.0
 10
38.1562221174
 20
32.9265760592
 30
0.0
 10
38.3405012073
 20
32.480915128
 30
0.0
 10
38.485305448
 20
32.1495222654
 30
0.0
 10
38.6375651143
 20
31.8214968921
 30
0.0
 10
38.772598537
 20
31.5520227467
 30
0.0
 10
38.8866804712
 20
31.3395618209
 30
0.0
 10
39.0049663344
 20
31.1293987542
 30
0.0
 10
39.1001783809
 20
30.9753385742
 30
0.0
 10
39.1683413638
 20
30.875882946
 30
0.0
  0
SPLINE
  5
336
100
AcDbEntity
  8
0
100
AcDbSpline
 62
7
  6
CONTINUOUS
 70
0
 71
3
 72
13
 73
9
 74
0
 42
0.0000001
 43
0.0000001
 44
0.0000000001
 40
0.0
 40
0.0
 40
0.0
 40
0.0
 40
0.3677459109
 40
0.6891543075
 40
0.8168116588
 40
0.9151566954
 40
0.9775831056
 40
1.0
 40
1.0
 40
1.0
 40
1.0
 10
37.0823752414
 20
34.3316069383
 30
0.0
 10
37.0008195971
 20
34.5278783202
 30
0.0
 10
36.8495908718
 20
34.8963578308
 30
0.0
 10
36.6724773996
 20
35.3339560938
 30
0.0
 10
36.5540752315
 20
35.627345053
 30
0.0
 10
36.491836793
 20
35.7819901014
 30
0.0
 10
36.4522389825
 20
35.8801811618
 30
0.0
 10
36.4339432592
 20
35.9256761134
 30
0.0
 10
36.4290565661
 20
35.9376751992
 30
0.0
  0
SPLINE
  5
337
100
AcDbEntity
  8
0
100
AcDbSpline
 62
7
  6
CONTINUOUS
 70
0
 71
3
 72
10
 73
6
 74
0
 42
0.0000001
 43
0.0000001
 44
0.0000000001
 40
0.0
 40
0.0
 40
0.0
 40
0.0
 40
0.4999928985
 40
0.7499971432
 40
1.0
 40
1.0
 40
1.0
 40
1.0
 10
35.8516752728
 20
38.7124219512
 30
0.0
 10
35.727844318
 20
39.1582374637
 30
0.0
 10
35.5510964119
 20
39.8295394125
 30
0.0
 10
35.3365956316
 20
40.7297667567
 30
0.0
 10
35.2371267663
 20
41.1816898165
 30
0.0
 10
35.1896365955
 20
41.4081160108
 30
0.0
  0
SPLINE
  5
338
100
AcDbEntity
  8
0
100
AcDbSpline
 62
7
  6
CONTINUOUS
 70
0
 71
3
 72
16
 73
12
 74
0
 42
0.0000001
 43
0.0000001
 44
0.0000000001
 40
0.0
 40
0.0
 40
0.0
 40
0.0
 40
0.0052588717
 40
0.0207066171
 40
0.046469471
 40
0.0825121261
 40
0.1821359003
 40
0.3100517226
 40
0.4624457507
 40
0.6320515253
 40
1.0
 40
1.0
 40
1.0
 40
1.0
 10
37.7855810412
 20
32.7214457709
 30
0.0
 10
37.7842481873
 20
32.7242226763
 30
0.0
 10
37.779169292
 20
32.735236845
 30
0.0
 10
37.7676064265
 20
32.7598762337
 30
0.0
 10
37.7485581632
 20
32.8009204071
 30
0.0
 10
37.7088348963
 20
32.8867230531
 30
0.0
 10
37.6446043858
 20
33.0271137027
 30
0.0
 10
37.5536010056
 20
33.230191319
 30
0.0
 10
37.4474580795
 20
33.4713951681
 30
0.0
 10
37.2872111785
 20
33.8423824603
 30
0.0
 10
37.1650789926
 20
34.1325937376
 30
0.0
 10
37.0823746806
 20
34.3316067378
 30
0.0
  0
SPLINE
  5
339
100
AcDbEntity
  8
0
100
AcDbSpline
 62
7
  6
CONTINUOUS
 70
0
 71
3
 72
11
 73
7
 74
0
 42
0.0000001
 43
0.0000001
 44
0.0000000001
 40
0.0
 40
0.0
 40
0.0
 40
0.0
 40
0.2548321807
 40
0.5068145621
 40
0.7548064975
 40
1.0
 40
1.0
 40
1.0
 40
1.0
 10
11.1952116594
 20
42.5883322659
 30
0.0
 10
11.1952116594
 20
42.523394046
 30
0.0
 10
11.2198079156
 20
42.3929021044
 30
0.0
 10
11.3258009899
 20
42.2268391899
 30
0.0
 10
11.4851445303
 20
42.1147344491
 30
0.0
 10
11.612282091
 20
42.0883322659
 30
0.0
 10
11.6747641117
 20
42.0883322659
 30
0.0
  0
SPLINE
  5
33A
100
AcDbEntity
  8
0
100
AcDbSpline
 62
7
  6
CONTINUOUS
 70
0
 71
3
 72
21
 73
17
 74
0
 42
0.0000001
 43
0.0000001
 44
0.0000000001
 40
0.0
 40
0.0
 40
0.0
 40
0.0
 40
0.0625008073
 40
0.1250038968
 40
0.2499999524
 40
0.3749963837
 40
0.4999925346
 40
0.5624922829
 40
0.6249922144
 40
0.687492474
 40
0.7499924808
 40
0.8124940512
 40
0.8749953607
 40
0.9062471522
 40
0.9375038357
 40
1.0
 40
1.0
 40
1.0
 40
1.0
 10
33.7084600333
 20
86.8883202013
 30
0.0
 10
33.7431101214
 20
87.1273042965
 30
0.0
 10
33.8183813645
 20
87.6044292899
 30
0.0
 10
33.9883510572
 20
88.5553203573
 30
0.0
 10
34.2316390257
 20
89.7381820786
 30
0.0
 10
34.5671057488
 20
91.1478447236
 30
0.0
 10
34.8808728573
 20
92.3139381141
 30
0.0
 10
35.1534711326
 20
93.2406119717
 30
0.0
 10
35.3692639743
 20
93.9322049816
 30
0.0
 10
35.5979726153
 20
94.6196444668
 30
0.0
 10
35.8409196248
 20
95.3022038012
 30
0.0
 10
36.1008996974
 20
95.9784999249
 30
0.0
 10
36.3356934499
 20
96.5348379442
 30
0.0
 10
36.5378412924
 20
96.9735986797
 30
0.0
 10
36.75347219
 20
97.4056914071
 30
0.0
 10
36.9342204684
 20
97.7208741727
 30
0.0
 10
37.0704940853
 20
97.9202102307
 30
0.0
  0
SPLINE
  5
33B
100
AcDbEntity
  8
0
100
AcDbSpline
 62
7
  6
CONTINUOUS
 70
0
 71
3
 72
22
 73
18
 74
0
 42
0.0000001
 43
0.0000001
 44
0.0000000001
 40
0.0
 40
0.0
 40
0.0
 40
0.0
 40
0.0304360215
 40
0.0611386006
 40
0.0920651535
 40
0.1231496974
 40
0.1543104205
 40
0.1855189587
 40
0.2480158406
 40
0.3106018115
 40
0.3732314259
 40
0.4358951007
 40
0.4985827524
 40
0.6239806878
 40
0.7493857038
 40
0.8747508876
 40
1.0
 40
1.0
 40
1.0
 40
1.0
 10
37.4818400434
 20
97.6385855476
 30
0.0
 10
37.4168132638
 20
97.5442227215
 30
0.0
 10
37.296271433
 20
97.3477885254
 30
0.0
 10
37.1293260233
 20
97.0439319675
 30
0.0
 10
36.974280192
 20
96.7310589947
 30
0.0
 10
36.8278228008
 20
96.4122490114
 30
0.0
 10
36.687883282
 20
96.089370819
 30
0.0
 10
36.5089474502
 20
95.6545819008
 30
0.0
 10
36.2977279134
 20
95.10523073
 30
0.0
 10
36.0604509564
 20
94.4394117357
 30
0.0
 10
35.8366974335
 20
93.7682769954
 30
0.0
 10
35.6249533369
 20
93.0928637807
 30
0.0
 10
35.3574052446
 20
92.1874035838
 30
0.0
 10
35.0484250445
 20
91.0480109311
 30
0.0
 10
34.7171748671
 20
89.670723681
 30
0.0
 10
34.4275257541
 20
88.2846711896
 30
0.0
 10
34.2657254513
 20
87.3547170594
 30
0.0
 10
34.195841271
 20
86.8883324263
 30
0.0
  0
SPLINE
  5
33C
100
AcDbEntity
  8
0
100
AcDbSpline
 62
7
  6
CONTINUOUS
 70
0
 71
3
 72
24
 73
20
 74
0
 42
0.0000001
 43
0.0000001
 44
0.0000000001
 40
0.0
 40
0.0
 40
0.0
 40
0.0
 40
0.1252533073
 40
0.2506216183
 40
0.3760290345
 40
0.5014299754
 40
0.5641185654
 40
0.6267834977
 40
0.6894146111
 40
0.752001147
 40
0.8145007285
 40
0.8457055463
 40
0.876868475
 40
0.9079622964
 40
0.938892409
 40
0.9542708917
 40
0.9695936116
 40
0.9848654758
 40
1.0
 40
1.0
 40
1.0
 40
1.0
 10
54.9958377113
 20
30.6383321767
 30
0.0
 10
55.0657043395
 20
30.171925103
 30
0.0
 10
55.227571316
 20
29.241946443
 30
0.0
 10
55.5171751695
 20
27.8558360812
 30
0.0
 10
55.8484910857
 20
26.4785194231
 30
0.0
 10
56.1574398548
 20
25.3390843357
 30
0.0
 10
56.4249861723
 20
24.4335950287
 30
0.0
 10
56.6367507676
 20
23.7581675149
 30
0.0
 10
56.8605547181
 20
23.0870302744
 30
0.0
 10
57.0978287051
 20
22.4211864332
 30
0.0
 10
57.3089790735
 20
21.8718039959
 30
0.0
 10
57.4880484757
 20
21.4370599026
 30
0.0
 10
57.628037113
 20
21.1141713691
 30
0.0
 10
57.7743132671
 20
20.7952078899
 30
0.0
 10
57.9038946021
 20
20.5340797395
 30
0.0
 10
58.0134097915
 20
20.3294705394
 30
0.0
 10
58.0986851213
 20
20.1788084292
 30
0.0
 10
58.187485266
 20
20.0312748637
 30
0.0
 10
58.2495977174
 20
19.9350472676
 30
0.0
 10
58.2818629349
 20
19.8880761115
 30
0.0
  0
SPLINE
  5
33D
100
AcDbEntity
  8
0
100
AcDbSpline
 62
7
  6
CONTINUOUS
 70
0
 71
3
 72
18
 73
14
 74
0
 42
0.0000001
 43
0.0000001
 44
0.0000000001
 40
0.0
 40
0.0
 40
0.0
 40
0.0
 40
0.0101583307
 40
0.0291265588
 40
0.0567405702
 40
0.092761213
 40
0.136842475
 40
0.1886191737
 40
0.3133187701
 40
0.4624375201
 40
0.6306125094
 40
0.8120381688
 40
1.0
 40
1.0
 40
1.0
 40
1.0
 10
57.8705036764
 20
19.6064429158
 30
0.0
 10
57.871800424
 20
19.6075268652
 30
0.0
 10
57.8758530302
 20
19.6102074145
 30
0.0
 10
57.8836699998
 20
19.615484408
 30
0.0
 10
57.8950860298
 20
19.6231440021
 30
0.0
 10
57.9098681787
 20
19.633273931
 30
0.0
 10
57.9279598107
 20
19.6456897336
 30
0.0
 10
57.9582164543
 20
19.666452736
 30
0.0
 10
58.0029132328
 20
19.6970597937
 30
0.0
 10
58.0636321522
 20
19.7385447275
 30
0.0
 10
58.1319862384
 20
19.7855851779
 30
0.0
 10
58.2059398445
 20
19.8358823025
 30
0.0
 10
58.2568013725
 20
19.870389555
 30
0.0
 10
58.2823574456
 20
19.888413563
 30
0.0
  0
SPLINE
  5
33E
100
AcDbEntity
  8
0
100
AcDbSpline
 62
7
  6
CONTINUOUS
 70
0
 71
3
 72
23
 73
19
 74
0
 42
0.0000001
 43
0.0000001
 44
0.0000000001
 40
0.0
 40
0.0
 40
0.0
 40
0.0
 40
0.1249911492
 40
0.2499858217
 40
0.3749809326
 40
0.4999767207
 40
0.5624761225
 40
0.6249752572
 40
0.6874750549
 40
0.7499732745
 40
0.7812235493
 40
0.8124766598
 40
0.8749784815
 40
0.9062295775
 40
0.9374825188
 40
0.9531147273
 40
0.9687509819
 40
1.0
 40
1.0
 40
1.0
 40
1.0
 10
54.508506365
 20
30.6383438785
 30
0.0
 10
54.5778438794
 20
30.1604078441
 30
0.0
 10
54.7396732386
 20
29.2078340717
 30
0.0
 10
55.0316522986
 20
27.7884980219
 30
0.0
 10
55.3670853507
 20
26.3787745685
 30
0.0
 10
55.6809187432
 20
25.212676675
 30
0.0
 10
55.9534671158
 20
24.2859642351
 30
0.0
 10
56.1693249091
 20
23.594375977
 30
0.0
 10
56.3979390278
 20
22.9068975254
 30
0.0
 10
56.6004930118
 20
22.3381193208
 30
0.0
 10
56.7710438052
 20
21.8862384445
 30
0.0
 10
56.9477151104
 20
21.436709923
 30
0.0
 10
57.1353431535
 20
20.9914837772
 30
0.0
 10
57.3382216307
 20
20.553110239
 30
0.0
 10
57.4731269574
 20
20.2829564733
 30
0.0
 10
57.5871073314
 20
20.0699449531
 30
0.0
 10
57.7055329013
 20
19.8594145757
 30
0.0
 10
57.8012986756
 20
19.7053835067
 30
0.0
 10
57.869596227
 20
19.605816937
 30
0.0
  0
SPLINE
  5
33F
100
AcDbEntity
  8
0
100
AcDbSpline
 62
7
  6
CONTINUOUS
 70
0
 71
3
 72
26
 73
22
 74
0
 42
0.0000001
 43
0.0000001
 44
0.0000000001
 40
0.0
 40
0.0
 40
0.0
 40
0.0
 40
0.000363479
 40
0.0016774551
 40
0.0039268499
 40
0.0070827034
 40
0.0159937209
 40
0.0281699878
 40
0.0433799377
 40
0.0614191045
 40
0.0820881029
 40
0.1051872158
 40
0.1578813813
 40
0.2179431136
 40
0.2838329473
 40
0.3542672208
 40
0.4283935745
 40
0.5054103648
 40
0.6658067724
 40
0.8317373118
 40
1.0
 40
1.0
 40
1.0
 40
1.0
 10
16.3571808968
 20
82.1158411008
 30
0.0
 10
16.3570982436
 20
82.1158632477
 30
0.0
 10
16.3577419512
 20
82.116277335
 30
0.0
 10
16.3581967062
 20
82.1165495954
 30
0.0
 10
16.3597753925
 20
82.117443636
 30
0.0
 10
16.3626025861
 20
82.119002931
 30
0.0
 10
16.3676900723
 20
82.1218109592
 30
0.0
 10
16.3750954223
 20
82.1259764698
 30
0.0
 10
16.3843716934
 20
82.1313339887
 30
0.0
 10
16.3953270083
 20
82.1377322533
 30
0.0
 10
16.4078798338
 20
82.1450944486
 30
0.0
 10
16.4274708155
 20
82.1565768059
 30
0.0
 10
16.4551209605
 20
82.1726511353
 30
0.0
 10
16.4915318764
 20
82.193697377
 30
0.0
 10
16.5315586813
 20
82.2168338234
 30
0.0
 10
16.5744322748
 20
82.2416613348
 30
0.0
 10
16.6195755355
 20
82.2677966853
 30
0.0
 10
16.6830758275
 20
82.3044936865
 30
0.0
 10
16.7653264053
 20
82.3519399735
 30
0.0
 10
16.8657978665
 20
82.4107813285
 30
0.0
 10
16.9338705023
 20
82.450230685
 30
0.0
 10
16.968359089
 20
82.4697147415
 30
0.0
  0
SPLINE
  5
340
100
AcDbEntity
  8
0
100
AcDbSpline
 62
7
  6
CONTINUOUS
 70
0
 71
3
 72
20
 73
16
 74
0
 42
0.0000001
 43
0.0000001
 44
0.0000000001
 40
0.0
 40
0.0
 40
0.0
 40
0.0
 40
0.1682998785
 40
0.3342078327
 40
0.4945076119
 40
0.5715495458
 40
0.6457070987
 40
0.7161501978
 40
0.7820106376
 40
0.8420119081
 40
0.894620791
 40
0.938390037
 40
0.9720100287
 40
0.9938041406
 40
1.0
 40
1.0
 40
1.0
 40
1.0
 10
16.9683587932
 20
82.4697145673
 30
0.0
 10
16.9404377146
 20
82.4415991904
 30
0.0
 10
16.8847319586
 20
82.3860269921
 30
0.0
 10
16.8021259936
 20
82.303984151
 30
0.0
 10
16.7349875613
 20
82.2368560618
 30
0.0
 10
16.6830791263
 20
82.1850505676
 30
0.0
 10
16.6461217083
 20
82.1482041881
 30
0.0
 10
16.6110401147
 20
82.1132326836
 30
0.0
 10
16.5782955878
 20
82.0805436144
 30
0.0
 10
16.5486638109
 20
82.05098599
 30
0.0
 10
16.5221656481
 20
82.0247030295
 30
0.0
 10
16.5012990288
 20
82.0043014003
 30
0.0
 10
16.482440798
 20
81.9851173633
 30
0.0
 10
16.4771091831
 20
81.9793207307
 30
0.0
 10
16.4683587932
 20
81.9694930679
 30
0.0
 10
16.4683587932
 20
81.9709518017
 30
0.0
  0
ENDSEC
  0
SECTION
  2
OBJECTS
  0
DICTIONARY
  5
C
100
AcDbDictionary
280
0
281
1
  3
ACAD_GROUP
350
D
  3
ACAD_MLINESTYLE
350
17
  3
ACAD_LAYOUT
350
1A
  3
ACAD_PLOTSETTINGS
350
19
  3
ACAD_PLOTSTYLENAME
350
E
  0
DICTIONARY
  5
D
102
{ACAD_REACTORS
330
C
102
}
100
AcDbDictionary
280
0
281
1
  0
ACDBDICTIONARYWDFLT
  5
E
102
{ACAD_REACTORS
330
C
102
}
100
AcDbDictionary
281
1
  3
Normal
350
F
100
AcDbDictionaryWithDefault
340
F
  0
DICTIONARY
  5
17
102
{ACAD_REACTORS
330
C
102
}
100
AcDbDictionary
280
0
281
1
  3
Standard
350
18
  0
DICTIONARY
  5
19
102
{ACAD_REACTORS
330
C
102
}
100
AcDbDictionary
281
1
  0
DICTIONARY
  5
1A
102
{ACAD_REACTORS
330
C
102
}
100
AcDbDictionary
281
1
  3
Model
350
341
  3
Layout1
350
342
  0
ACDBPLACEHOLDER
  5
F
102
{ACAD_REACTORS
330
E
102
}
  0
MLINESTYLE
  5
18
102
{ACAD_REACTORS
330
17
102
}
100
AcDbMlineStyle
  2
STANDARD
 70
0
  3

 62
256
 51
90.0
 52
90.0
 71
2
 49
0.5
 62
256
  6
BYLAYER
 49
-0.5
 62
256
  6
BYLAYER
  0
LAYOUT
  5
341
102
{ACAD_REACTORS
330
1A
102
}
100
AcDbPlotSettings
  1

  2
none_device
  4

  6

 40
0.0
 41
0.0
 42
0.0
 43
0.0
 44
210.0
 45
297.0
 46
0.0
 47
0.0
 48
0.0
 49
0.0
140
0.0
141
0.0
142
1.0
143
1.0
 70
1024
 72
1
 73
0
 74
0
  7

 75
0
147
1.0
148
0.0
149
0.0
100
AcDbLayout
  1
Model
 70
0
 71
0
 10
0.0
 20
0.0
 11
210.0
 21
297.0
 12
0.0
 22
0.0
 32
0.0
 14
0.0
 24
0.0
 34
0.0
 15
0.0
 25
0.0
 35
0.0
146
0.0
 13
0.0
 23
0.0
 33
0.0
 16
1.0
 26
0.0
 36
0.0
 17
0.0
 27
1.0
 37
0.0
 76
0
330
210
345
0
346
0
  0
LAYOUT
  5
342
102
{ACAD_REACTORS
330
1A
102
}
100
AcDbPlotSettings
  1

  2
none_device
  4

  6

 40
0.0
 41
0.0
 42
0.0
 43
0.0
 44
210.0
 45
297.0
 46
0.0
 47
0.0
 48
0.0
 49
0.0
140
0.0
141
0.0
142
1.0
143
1.0
 70
0
 72
1
 73
0
 74
0
  7

 75
0
147
1.0
148
0.0
149
0.0
100
AcDbLayout
  1
Layout1
 70
0
 71
1
 10
0.0
 20
0.0
 11
210.0
 21
297.0
 12
0.0
 22
0.0
 32
0.0
 14
0.0
 24
0.0
 34
0.0
 15
0.0
 25
0.0
 35
0.0
146
0.0
 13
0.0
 23
0.0
 33
0.0
 16
1.0
 26
0.0
 36
0.0
 17
0.0
 27
1.0
 37
0.0
 76
0
330
211
345
0
346
0
  0
ENDSEC
  0
EOF
