999
DXF file: C:\Users\sesa63760\Dev\_Creo\CAD\MCADID0004810_3D-CAD\drw0001_1.dxf
999
Pro/ENGINEER 2019471 by Parametric Technology Corporation
  0
SECTION
  2
HEADER
  9
$ACADVER
  1
AC1024
  9
$DWGCODEPAGE
  3
ANSI_1252
  9
$EXTMAX
 10
52.3895014138
 20
74.0937234281
 30
0.0
  9
$EXTMIN
 10
0.0
 20
0.0
 30
0.0
  9
$LIMMIN
 10
0.0
 20
0.0
  9
$LIMMAX
 10
52.3895014138
 20
74.0937234281
  9
$VIEWCTR
 10
26.1947507069
 20
37.046861714
  9
$VIEWSIZE
 40
74.0937234281
  9
$CLAYER
  8
0
  9
$LTSCALE
 40
4.8298130827
  9
$CELTYPE
  6
BYLAYER
  9
$DIMSCALE
 40
1.0
  9
$DIMASZ
 40
0.6236845406
  9
$DIMEXO
 40
1.0
  9
$DIMDLI
 40
3.3369617662
  9
$DIMEXE
 40
1.0
  9
$DIMCEN
 40
0.7903330499
  9
$DIMLFAC
 40
1.0
  9
$DIMBLK
  1
_FILLED
  9
$DIMALT
 70
0
  9
$DIMALTF
 40
0.0393700787
  9
$DIMTXT
 40
0.8731583569
  9
$DIMTOL
 70
1
  9
$DIMLIM
 70
0
  9
$DIMTFAC
 40
1.0
  9
$DIMTP
 40
0.01
  9
$DIMTM
 40
0.01
  9
$DIMGAP
 40
0.625
  9
$DIMDSEP
 70
46
  9
$AUNITS
 70
0
  9
$PDMODE
 70
3
  9
$PDSIZE
 40
0.3125
  9
$HANDSEED
  5
29F
  9
$TILEMODE
 70
1
  9
$MEASUREMENT
 70
1
  9
$INSUNITS
 70
4
  0
ENDSEC
  0
SECTION
  2
CLASSES
  0
CLASS
  1
ACDBDICTIONARYWDFLT
  2
AcDbDictionaryWithDefault
  3
AutoCAD 2000
 90
0
 91
1
280
0
281
0
  0
CLASS
  1
ACDBPLACEHOLDER
  2
AcDbPlaceHolder
  3
AutoCAD 2000
 90
0
 91
1
280
0
281
0
  0
CLASS
  1
LAYOUT
  2
AcDbLayout
  3
AutoCAD 2000
 90
0
 91
0
280
0
281
0
  0
ENDSEC
  0
SECTION
  2
TABLES
  0
TABLE
  2
VPORT
  5
8
100
AcDbSymbolTable
 70
2
  0
VPORT
  5
1F4
100
AcDbSymbolTableRecord
100
AcDbViewportTableRecord
  2
*ACTIVE
 70
0
 10
0.0
 20
0.0
 11
1.0
 21
1.0
 12
26.1947507069
 22
37.046861714
 13
0.0
 23
0.0
 14
1.0
 24
1.0
 15
0.0
 25
0.0
 16
0.0
 26
0.0
 36
1.0
 17
0.0
 27
0.0
 37
0.0
 40
74.0937234281
 41
0.7070707071
 42
50.0
 43
0.0
 44
0.0
 50
0.0
 51
0.0
 71
0
 72
100
 73
1
 74
1
 75
0
 76
0
 77
0
 78
0
  0
ENDTAB
  0
TABLE
  2
LTYPE
  5
5
100
AcDbSymbolTable
 70
6
  0
LTYPE
  5
14
100
AcDbSymbolTableRecord
100
AcDbLinetypeTableRecord
  2
BYBLOCK
 70
0
  3

 72
65
 73
0
 40
0.0
  0
LTYPE
  5
15
100
AcDbSymbolTableRecord
100
AcDbLinetypeTableRecord
  2
BYLAYER
 70
0
  3

 72
65
 73
0
 40
0.0
  0
LTYPE
  5
16
100
AcDbSymbolTableRecord
100
AcDbLinetypeTableRecord
  2
CONTINUOUS
 70
64
  3
Solid line
 72
65
 73
0
 40
0.0
  0
LTYPE
  5
1F5
100
AcDbSymbolTableRecord
100
AcDbLinetypeTableRecord
  2
CENTER
 70
64
  3
____ _ ____ _ ____ _ ____ _ ____ _ ____ _ ____
 72
65
 73
4
 40
0.6
 49
0.375
 74
0
 49
-0.075
 74
0
 49
0.075
 74
0
 49
-0.075
 74
0
  0
LTYPE
  5
1F6
100
AcDbSymbolTableRecord
100
AcDbLinetypeTableRecord
  2
HIDDEN
 70
64
  3
- - - - - - - - - - - - - - - - - - - -
 72
65
 73
2
 40
0.2
 49
0.1
 74
0
 49
-0.1
 74
0
  0
LTYPE
  5
1F7
100
AcDbSymbolTableRecord
100
AcDbLinetypeTableRecord
  2
PHANTOM
 70
64
  3
_____ _ _ _____ _ _ _____ _ _ _____
 72
65
 73
6
 40
0.8
 49
0.45
 74
0
 49
-0.05
 74
0
 49
0.1
 74
0
 49
-0.05
 74
0
 49
0.1
 74
0
 49
-0.05
 74
0
  0
LTYPE
  5
1F8
100
AcDbSymbolTableRecord
100
AcDbLinetypeTableRecord
  2
DOT
 70
64
  3
. . . . . . . . . . . . . . . . . . . .
 72
65
 73
2
 40
0.2
 49
0.1
 74
0
 49
-0.1
 74
0
  0
LTYPE
  5
1F9
100
AcDbSymbolTableRecord
100
AcDbLinetypeTableRecord
  2
DASHED
 70
64
  3
- - - - - - - - - - - - - - - - - - - -
 72
65
 73
2
 40
0.2
 49
0.1
 74
0
 49
-0.1
 74
0
  0
ENDTAB
  0
TABLE
  2
LAYER
  5
2
100
AcDbSymbolTable
 70
36
  0
LAYER
  5
10
100
AcDbSymbolTableRecord
100
AcDbLayerTableRecord
  2
0
 70
0
 62
7
  6
CONTINUOUS
370
-3
390
F
  0
LAYER
  5
1FA
100
AcDbSymbolTableRecord
100
AcDbLayerTableRecord
  2
DEFAULT_1
 70
0
 62
7
  6
CENTER
370
-3
390
F
  0
LAYER
  5
1FB
100
AcDbSymbolTableRecord
100
AcDbLayerTableRecord
  2
DEFAULT_2
 70
0
 62
7
  6
HIDDEN
370
-3
390
F
  0
LAYER
  5
1FC
100
AcDbSymbolTableRecord
100
AcDbLayerTableRecord
  2
DEFAULT_3
 70
0
 62
7
  6
PHANTOM
370
-3
390
F
  0
LAYER
  5
1FD
100
AcDbSymbolTableRecord
100
AcDbLayerTableRecord
  2
00_COMPONENTS
 70
0
 62
7
  6
CONTINUOUS
370
-3
390
F
  0
LAYER
  5
1FE
100
AcDbSymbolTableRecord
100
AcDbLayerTableRecord
  2
01_1_DEFAULT_DATUMS
 70
0
 62
7
  6
CONTINUOUS
370
-3
390
F
  0
LAYER
  5
1FF
100
AcDbSymbolTableRecord
100
AcDbLayerTableRecord
  2
01_PLANES
 70
0
 62
7
  6
CONTINUOUS
370
-3
390
F
  0
LAYER
  5
200
100
AcDbSymbolTableRecord
100
AcDbLayerTableRecord
  2
02_COORD_SYS
 70
0
 62
7
  6
CONTINUOUS
370
-3
390
F
  0
LAYER
  5
201
100
AcDbSymbolTableRecord
100
AcDbLayerTableRecord
  2
03_AXES
 70
0
 62
7
  6
CONTINUOUS
370
-3
390
F
  0
LAYER
  5
202
100
AcDbSymbolTableRecord
100
AcDbLayerTableRecord
  2
04_POINTS
 70
0
 62
7
  6
CONTINUOUS
370
-3
390
F
  0
LAYER
  5
203
100
AcDbSymbolTableRecord
100
AcDbLayerTableRecord
  2
05_CURVES
 70
0
 62
7
  6
CONTINUOUS
370
-3
390
F
  0
LAYER
  5
204
100
AcDbSymbolTableRecord
100
AcDbLayerTableRecord
  2
06_SURFS
 70
0
 62
7
  6
CONTINUOUS
370
-3
390
F
  0
LAYER
  5
205
100
AcDbSymbolTableRecord
100
AcDbLayerTableRecord
  2
07_COSMETICS
 70
0
 62
7
  6
CONTINUOUS
370
-3
390
F
  0
LAYER
  5
206
100
AcDbSymbolTableRecord
100
AcDbLayerTableRecord
  2
10_NOTES
 70
0
 62
7
  6
CONTINUOUS
370
-3
390
F
  0
LAYER
  5
207
100
AcDbSymbolTableRecord
100
AcDbLayerTableRecord
  2
11_NOTES_PUB
 70
0
 62
7
  6
CONTINUOUS
370
-3
390
F
  0
LAYER
  5
208
100
AcDbSymbolTableRecord
100
AcDbLayerTableRecord
  2
13_REF_GTOL
 70
0
 62
7
  6
CONTINUOUS
370
-3
390
F
  0
LAYER
  5
209
100
AcDbSymbolTableRecord
100
AcDbLayerTableRecord
  2
16_MISC
 70
0
 62
7
  6
CONTINUOUS
370
-3
390
F
  0
LAYER
  5
20A
100
AcDbSymbolTableRecord
100
AcDbLayerTableRecord
  2
17_NO_PRINT
 70
0
 62
7
  6
CONTINUOUS
370
-3
390
F
  0
LAYER
  5
20B
100
AcDbSymbolTableRecord
100
AcDbLayerTableRecord
  2
18_DATUM_CAMS_JOINTS
 70
0
 62
7
  6
CONTINUOUS
370
-3
390
F
  0
LAYER
  5
20C
100
AcDbSymbolTableRecord
100
AcDbLayerTableRecord
  2
19_DATUM_FUNCTIONAL
 70
0
 62
7
  6
CONTINUOUS
370
-3
390
F
  0
LAYER
  5
20D
100
AcDbSymbolTableRecord
100
AcDbLayerTableRecord
  2
20_DATUM_KINEMATIC_SCHEME
 70
0
 62
7
  6
CONTINUOUS
370
-3
390
F
  0
ENDTAB
  0
TABLE
  2
STYLE
  5
3
100
AcDbSymbolTable
 70
1
  0
STYLE
  5
11
100
AcDbSymbolTableRecord
100
AcDbTextStyleTableRecord
  2
STANDARD
 70
0
 40
0.0
 41
1.0
 50
0.0
 71
0
 42
0.2
  3
ARIAL.TTF
  4

  0
STYLE
  5
20E
100
AcDbSymbolTableRecord
100
AcDbTextStyleTableRecord
  2
TEXTSTYLE_1
 70
0
 40
0.0
 41
0.8
 50
0.0
 71
0
 42
0.2
  3
gdt
  4

  0
ENDTAB
  0
TABLE
  2
VIEW
  5
6
100
AcDbSymbolTable
 70
0
  0
ENDTAB
  0
TABLE
  2
UCS
  5
7
100
AcDbSymbolTable
 70
0
  0
ENDTAB
  0
TABLE
  2
APPID
  5
9
100
AcDbSymbolTable
 70
1
  0
APPID
  5
20F
100
AcDbSymbolTableRecord
100
AcDbRegAppTableRecord
  2
ACAD
 70
0
  0
ENDTAB
  0
TABLE
  2
BLOCK_RECORD
  5
1
100
AcDbSymbolTable
 70
0
  0
BLOCK_RECORD
  5
210
100
AcDbSymbolTableRecord
100
AcDbBlockTableRecord
  2
*Model_Space
  0
BLOCK_RECORD
  5
211
100
AcDbSymbolTableRecord
100
AcDbBlockTableRecord
  2
*Paper_Space
  0
BLOCK_RECORD
  5
212
100
AcDbSymbolTableRecord
100
AcDbBlockTableRecord
  2
_FILLED
  0
ENDTAB
  0
TABLE
  2
DIMSTYLE
  5
A
100
AcDbSymbolTable
 70
1
100
AcDbDimStyleTable
 71
0
  0
DIMSTYLE
105
213
100
AcDbSymbolTableRecord
100
AcDbDimStyleTableRecord
  2
STANDARD
 70
0
  3

  4

 40
1.0
 41
0.6236845406
 42
1.0
 43
0.38
 44
1.0
 45
0.0
 46
0.0
 47
0.01
 48
0.01
140
0.8731583569
141
0.09
142
0.0
143
25.4
144
1.0
145
0.0
146
1.0
147
0.625
 71
1
 72
0
 73
0
 74
0
 75
0
 76
0
 77
1
 78
8
 79
2
170
0
171
1
172
0
173
0
174
0
175
0
176
0
177
0
178
0
270
2
179
2
271
2
272
2
273
2
274
2
275
0
280
0
281
0
282
0
283
1
284
8
285
0
286
0
287
3
288
0
340
11
278
46
341
212
342
212
343
212
344
212
  0
ENDTAB
  0
ENDSEC
  0
SECTION
  2
BLOCKS
  0
BLOCK
  5
20
100
AcDbEntity
  8
0
100
AcDbBlockBegin
  2
*Model_Space
 70
0
 10
0.0
 20
0.0
 30
0.0
  3
*Model_Space
  1

  0
ENDBLK
  5
21
100
AcDbEntity
  8
0
100
AcDbBlockEnd
  0
BLOCK
  5
1C
100
AcDbEntity
  8
0
100
AcDbBlockBegin
  2
*Paper_Space
 70
0
 10
0.0
 20
0.0
 30
0.0
  3
*Paper_Space
  1

  0
ENDBLK
  5
1D
100
AcDbEntity
  8
0
100
AcDbBlockEnd
  0
BLOCK
  5
214
100
AcDbEntity
  8
0
100
AcDbBlockBegin
  2
_FILLED
 70
64
 10
0.0
 20
0.0
  3
_FILLED
  1

  0
SOLID
  5
215
100
AcDbEntity
  8
0
  6
BYBLOCK
 62
0
100
AcDbTrace
 10
0.0
 20
0.0
 11
-1.0
 21
0.25
 12
-1.0
 22
-0.25
 13
-1.0
 23
-0.25
  0
ENDBLK
  5
216
100
AcDbEntity
  8
0
  6
BYBLOCK
 62
0
100
AcDbBlockEnd
  0
ENDSEC
  0
SECTION
  2
ENTITIES
  0
LWPOLYLINE
  5
217
100
AcDbEntity
  8
0
100
AcDbPolyline
 62
7
  6
BYLAYER
 90
3
 70
0
 10
6.820211565
 20
42.0318316866
 10
6.8927119267
 20
40.7665397927
 10
7.1381986601
 20
39.6135717878
  0
LINE
  5
218
100
AcDbEntity
  8
0
100
AcDbLine
 62
7
  6
BYLAYER
 10
6.7849093645
 20
34.6630553034
 11
6.7849064205
 21
35.0712977575
  0
LWPOLYLINE
  5
219
100
AcDbEntity
  8
0
100
AcDbPolyline
 62
7
  6
BYLAYER
 90
3
 70
0
 10
6.0777849195
 20
37.1125083289
 10
6.3742379751
 20
35.2216687566
 10
6.880328814
 20
34.0544582402
  0
LINE
  5
21A
100
AcDbEntity
  8
0
100
AcDbLine
 62
7
  6
BYLAYER
 10
33.8472541049
 20
61.3565476921
 11
30.3117349188
 21
59.3153269227
  0
LINE
  5
21B
100
AcDbEntity
  8
0
100
AcDbLine
 62
7
  6
BYLAYER
 10
9.0984431644
 20
47.0674770444
 11
12.6339623505
 21
49.1086978138
  0
LWPOLYLINE
  5
21C
100
AcDbEntity
  8
0
100
AcDbPolyline
 62
7
  6
BYLAYER
 90
5
 70
0
 10
7.7222733143
 20
32.5983085851
 10
8.4797847377
 20
31.5762586812
 10
9.9673626163
 20
30.3761557786
 10
11.4512368702
 20
29.8594137987
 10
12.7168749675
 20
30.1040393068
  0
LINE
  5
21D
100
AcDbEntity
  8
0
100
AcDbLine
 62
7
  6
BYLAYER
 10
8.3433192974
 20
40.2806651952
 11
8.2344310153
 21
41.2153501775
  0
LINE
  5
21E
100
AcDbEntity
  8
0
100
AcDbLine
 62
7
  6
BYLAYER
 10
10.7978250625
 20
30.086956874
 11
22.7701908898
 21
21.1964347057
  0
LINE
  5
21F
100
AcDbEntity
  8
0
100
AcDbLine
 62
7
  6
BYLAYER
 10
11.2788428986
 20
41.9754804198
 11
12.1648664265
 21
42.9495415768
  0
LINE
  5
220
100
AcDbEntity
  8
0
100
AcDbLine
 62
7
  6
BYLAYER
 10
8.1990926003
 20
32.2135898686
 11
8.5526354653
 21
32.0094659641
  0
LINE
  5
221
100
AcDbEntity
  8
0
100
AcDbLine
 62
7
  6
BYLAYER
 10
22.1256210086
 20
23.7371369106
 11
14.138833431
 21
29.6680208342
  0
LINE
  5
222
100
AcDbEntity
  8
0
100
AcDbLine
 62
7
  6
BYLAYER
 10
14.138833431
 20
29.6680208342
 11
14.138833431
 21
35.9022945472
  0
LINE
  5
223
100
AcDbEntity
  8
0
100
AcDbLine
 62
7
  6
BYLAYER
 10
15.0227132275
 20
30.1783260265
 11
15.0227132275
 21
35.5380587278
  0
LINE
  5
224
100
AcDbEntity
  8
0
100
AcDbLine
 62
7
  6
BYLAYER
 10
28.4301924737
 20
51.8781808861
 11
32.5313947295
 21
54.2459969785
  0
LINE
  5
225
100
AcDbEntity
  8
0
100
AcDbLine
 62
7
  6
BYLAYER
 10
7.2169007193
 20
39.6303310078
 11
11.3181029751
 21
41.9981471002
  0
LINE
  5
226
100
AcDbEntity
  8
0
100
AcDbLine
 62
7
  6
BYLAYER
 10
9.6987736152
 20
39.7940407625
 11
13.2342928013
 21
41.8352615319
  0
LINE
  5
227
100
AcDbEntity
  8
0
100
AcDbLine
 62
7
  6
BYLAYER
 10
15.0227132275
 20
30.1783260265
 11
22.0071604583
 21
24.9917669258
  0
LINE
  5
228
100
AcDbEntity
  8
0
100
AcDbLine
 62
7
  6
BYLAYER
 10
28.4301936026
 20
51.8781789294
 11
27.59036883
 21
50.9151378406
  0
LINE
  5
229
100
AcDbEntity
  8
0
100
AcDbLine
 62
7
  6
BYLAYER
 10
28.5159780839
 20
48.4636124899
 11
30.4170400495
 21
49.5611845758
  0
LINE
  5
22A
100
AcDbEntity
  8
0
100
AcDbLine
 62
7
  6
BYLAYER
 10
7.3026863295
 20
36.2157626116
 11
9.2037482951
 21
37.3133346975
  0
LINE
  5
22B
100
AcDbEntity
  8
0
100
AcDbLine
 62
7
  6
BYLAYER
 10
32.492134653
 20
54.2233302981
 11
33.3781581809
 21
55.197391455
  0
LINE
  5
22C
100
AcDbEntity
  8
0
100
AcDbLine
 62
7
  6
BYLAYER
 10
14.138833431
 20
35.9022945472
 11
24.5687018769
 21
31.6042760901
  0
LWPOLYLINE
  5
22D
100
AcDbEntity
  8
0
100
AcDbPolyline
 62
7
  6
BYLAYER
 90
9
 70
0
 10
21.0872088987
 20
38.5991729365
 10
20.6325845258
 20
39.724822543
 10
19.0845488798
 20
42.2883244563
 10
17.2042592644
 20
44.4992296665
 10
15.1273100452
 20
46.1965697732
 10
14.0653540305
 20
46.8093467963
 10
11.9922794604
 20
47.5081770338
 10
10.1152081808
 20
47.4690378041
 10
9.0984731652
 20
47.0674250928
  0
LINE
  5
22E
100
AcDbEntity
  8
0
100
AcDbLine
 62
7
  6
BYLAYER
 10
24.5687018769
 20
31.6042760901
 11
24.5687018769
 21
30.0611590093
  0
LINE
  5
22F
100
AcDbEntity
  8
0
100
AcDbLine
 62
7
  6
BYLAYER
 10
31.0159668917
 20
44.1334790092
 11
32.9603283855
 21
45.2560499402
  0
LINE
  5
230
100
AcDbEntity
  8
0
100
AcDbLine
 62
7
  6
BYLAYER
 10
9.8026751373
 20
31.8856291309
 11
11.7470366311
 21
33.0082000619
  0
LINE
  5
231
100
AcDbEntity
  8
0
100
AcDbLine
 62
7
  6
BYLAYER
 10
35.3129013145
 20
45.6918444358
 11
38.8484205005
 21
47.7330652052
  0
LINE
  5
232
100
AcDbEntity
  8
0
100
AcDbLine
 62
7
  6
BYLAYER
 10
25.3703784816
 20
33.3359682262
 11
9.6987736152
 21
39.7940407625
  0
LINE
  5
233
100
AcDbEntity
  8
0
100
AcDbLine
 62
7
  6
BYLAYER
 10
35.6551519689
 20
28.3238849849
 11
27.2708914253
 21
33.164430559
  0
LINE
  5
234
100
AcDbEntity
  8
0
100
AcDbLine
 62
7
  6
BYLAYER
 10
35.5286621043
 20
29.4175141765
 11
28.1547712218
 21
33.6747357513
  0
LINE
  5
235
100
AcDbEntity
  8
0
100
AcDbLine
 62
7
  6
BYLAYER
 10
27.4090222007
 20
48.6080769769
 11
25.3703784816
 21
33.3359682262
  0
LINE
  5
236
100
AcDbEntity
  8
0
100
AcDbLine
 62
7
  6
BYLAYER
 10
27.59036883
 20
50.9151378406
 11
27.2910766739
 21
49.3603582071
  0
LINE
  5
237
100
AcDbEntity
  8
0
100
AcDbLine
 62
7
  6
BYLAYER
 10
33.9301678508
 20
42.3518872285
 11
34.2130093857
 21
42.51518489
  0
LINE
  5
238
100
AcDbEntity
  8
0
100
AcDbLine
 62
7
  6
BYLAYER
 10
12.7168760964
 20
30.1040373502
 11
12.9997176313
 21
30.2673350117
  0
LINE
  5
239
100
AcDbEntity
  8
0
100
AcDbLine
 62
7
  6
BYLAYER
 10
15.0227132275
 20
30.1783260265
 11
14.138833431
 21
29.6680208342
  0
LWPOLYLINE
  5
23A
100
AcDbEntity
  8
0
100
AcDbPolyline
 62
7
  6
BYLAYER
 90
3
 70
0
 10
12.5809869936
 20
42.2430463313
 10
14.0685648721
 20
41.7254811155
 10
14.6619807609
 20
41.2469291638
  0
LINE
  5
23B
100
AcDbEntity
  8
0
100
AcDbLine
 62
7
  6
BYLAYER
 10
13.2342928013
 20
41.8352615319
 11
25.8129937958
 21
36.6517360329
  0
LWPOLYLINE
  5
23C
100
AcDbEntity
  8
0
100
AcDbPolyline
 62
7
  6
BYLAYER
 90
3
 70
0
 10
28.0335033194
 20
54.2796815648
 10
28.1060036811
 20
53.014389671
 10
28.3514904145
 20
51.861421666
  0
LINE
  5
23D
100
AcDbEntity
  8
0
100
AcDbLine
 62
7
  6
BYLAYER
 10
27.9982011189
 20
46.9109051816
 11
27.998198175
 21
47.3191476358
  0
LINE
  5
23E
100
AcDbEntity
  8
0
100
AcDbLine
 62
7
  6
BYLAYER
 10
27.2708914253
 20
33.164430559
 11
28.7635100489
 21
44.3460969428
  0
LINE
  5
23F
100
AcDbEntity
  8
0
100
AcDbLine
 62
7
  6
BYLAYER
 10
29.5208999808
 20
43.908827554
 11
28.1547712218
 21
33.6747357513
  0
LWPOLYLINE
  5
240
100
AcDbEntity
  8
0
100
AcDbPolyline
 62
7
  6
BYLAYER
 90
3
 70
0
 10
32.9691919477
 20
22.8995798541
 10
33.895908608
 20
20.5160963851
 10
34.2207711162
 20
18.2109503467
  0
LINE
  5
241
100
AcDbEntity
  8
0
100
AcDbLine
 62
7
  6
BYLAYER
 10
28.1547712218
 20
33.6747357513
 11
27.2708914253
 21
33.164430559
  0
LWPOLYLINE
  5
242
100
AcDbEntity
  8
0
100
AcDbPolyline
 62
7
  6
BYLAYER
 90
3
 70
0
 10
39.4353948176
 20
42.6580953657
 10
40.8046283654
 20
42.8823220162
 10
41.568669809
 20
43.4832622744
  0
LWPOLYLINE
  5
243
100
AcDbEntity
  8
0
100
AcDbPolyline
 62
7
  6
BYLAYER
 90
3
 70
0
 10
27.2910766739
 20
49.3603582071
 10
27.5875297295
 20
47.4695186349
 10
28.0936205684
 20
46.3023081185
  0
LWPOLYLINE
  5
244
100
AcDbEntity
  8
0
100
AcDbPolyline
 62
7
  6
BYLAYER
 90
3
 70
0
 10
26.6089389573
 20
28.1109901465
 10
26.3431402048
 20
27.73427589
 10
26.0182776967
 20
25.8042402785
  0
LINE
  5
245
100
AcDbEntity
  8
0
100
AcDbLine
 62
7
  6
BYLAYER
 10
44.8472048592
 20
42.3039603769
 11
41.3116856732
 21
40.2627396075
  0
LINE
  5
246
100
AcDbEntity
  8
0
100
AcDbLine
 62
7
  6
BYLAYER
 10
24.0071145161
 20
29.7369283307
 11
26.5880435219
 21
31.2270194923
  0
LINE
  5
247
100
AcDbEntity
  8
0
100
AcDbLine
 62
7
  6
BYLAYER
 10
39.1698931863
 20
44.9536178984
 11
39.2786849498
 21
44.9773182947
  0
LWPOLYLINE
  5
248
100
AcDbEntity
  8
0
100
AcDbPolyline
 62
7
  6
BYLAYER
 90
5
 70
0
 10
28.9355650687
 20
44.8461584634
 10
29.6930764921
 20
43.8241085595
 10
31.1806543707
 20
42.6240056568
 10
32.6645286246
 20
42.1072636769
 10
33.9301667219
 20
42.3518891851
  0
LINE
  5
249
100
AcDbEntity
  8
0
100
AcDbLine
 62
7
  6
BYLAYER
 10
29.5566110519
 20
52.5285150734
 11
29.4477227697
 21
53.4632000558
  0
LWPOLYLINE
  5
24A
100
AcDbEntity
  8
0
100
AcDbPolyline
 62
7
  6
BYLAYER
 90
6
 70
0
 10
25.1072705792
 20
27.8313908381
 10
26.2158364076
 20
28.1732380661
 10
27.9619190589
 20
27.8967452971
 10
29.8120607361
 20
26.8265999958
 10
31.5493854017
 20
25.0932917639
 10
32.9691919477
 20
22.8995798541
  0
LINE
  5
24B
100
AcDbEntity
  8
0
100
AcDbLine
 62
7
  6
BYLAYER
 10
11.3181074729
 20
41.9981393013
 11
12.5809869936
 21
42.2430463313
  0
LINE
  5
24C
100
AcDbEntity
  8
0
100
AcDbLine
 62
7
  6
BYLAYER
 10
28.7635100489
 20
44.3460969428
 11
29.7570874628
 21
43.7724677326
  0
LINE
  5
24D
100
AcDbEntity
  8
0
100
AcDbLine
 62
7
  6
BYLAYER
 10
32.606169933
 20
42.1275864137
 11
34.1625333454
 21
41.2290399064
  0
LINE
  5
24E
100
AcDbEntity
  8
0
100
AcDbLine
 62
7
  6
BYLAYER
 10
29.4123843547
 20
44.4614397468
 11
29.7659272197
 21
44.2573158423
  0
LWPOLYLINE
  5
24F
100
AcDbEntity
  8
0
100
AcDbPolyline
 62
7
  6
BYLAYER
 90
5
 70
0
 10
40.9006762868
 20
29.9892970098
 10
41.5753537435
 20
29.0908318047
 10
42.9661343703
 20
26.2285197436
 10
43.7071221081
 20
23.3176501009
 10
43.8020410639
 20
21.9463918332
  0
LINE
  5
250
100
AcDbEntity
  8
0
100
AcDbLine
 62
7
  6
BYLAYER
 10
34.1625333454
 20
41.2290399064
 11
35.6551519689
 21
28.3238849849
  0
LINE
  5
251
100
AcDbEntity
  8
0
100
AcDbLine
 62
7
  6
BYLAYER
 10
39.1704859064
 20
47.2375259999
 11
39.0054453592
 21
46.3754309801
  0
LINE
  5
252
100
AcDbEntity
  8
0
100
AcDbLine
 62
7
  6
BYLAYER
 10
38.2878082915
 20
19.9708499305
 11
35.3129013145
 21
45.6918444358
  0
LINE
  5
253
100
AcDbEntity
  8
0
100
AcDbLine
 62
7
  6
BYLAYER
 10
38.8484205005
 20
47.7330652051
 11
41.8233274776
 21
22.0120706998
  0
LINE
  5
254
100
AcDbEntity
  8
0
100
AcDbLine
 62
7
  6
BYLAYER
 10
41.8233274776
 20
22.0120706998
 11
38.2878082915
 21
19.9708499305
  0
LINE
  5
255
100
AcDbEntity
  8
0
100
AcDbLine
 62
7
  6
BYLAYER
 10
33.7570708665
 20
12.8494077559
 11
41.7826994189
 21
17.4829789023
  0
ARC
  5
256
100
AcDbEntity
  8
0
100
AcDbCircle
 62
7
  6
BYLAYER
 10
18.036480257
 20
41.6261829251
 40
8.3878390223
100
AcDbArc
 50
180.0176705954
 51
183.6337800586
  0
ARC
  5
257
100
AcDbEntity
  8
0
100
AcDbCircle
 62
7
  6
BYLAYER
 10
39.2497720114
 20
53.8740328033
 40
8.3878390223
100
AcDbArc
 50
180.0176705954
 51
183.6337800586
  0
SPLINE
  5
258
100
AcDbEntity
  8
0
100
AcDbSpline
 62
7
  6
BYLAYER
 70
0
 71
3
 72
15
 73
11
 74
0
 42
0.0000001
 43
0.0000001
 44
0.0000000001
 40
0.0
 40
0.0
 40
0.0
 40
0.0
 40
0.1080120437
 40
0.2180613192
 40
0.3320032662
 40
0.4513603399
 40
0.5772651893
 40
0.7104948808
 40
0.8514586687
 40
1.0
 40
1.0
 40
1.0
 40
1.0
 10
7.3026886649
 20
36.2157585664
 30
0.0
 10
7.2616979568
 20
36.192097566
 30
0.0
 10
7.1828952178
 20
36.1371013403
 30
0.0
 10
7.078758918
 20
36.0346280616
 30
0.0
 10
6.9892152321
 20
35.9129894881
 30
0.0
 10
6.9150571151
 20
35.7735878859
 30
0.0
 10
6.8568903709
 20
35.6178171581
 30
0.0
 10
6.8151338437
 20
35.4471718568
 30
0.0
 10
6.7901725352
 20
35.263330215
 30
0.0
 10
6.7849064205
 20
35.1363866674
 30
0.0
 10
6.7849064205
 20
35.0712977575
 30
0.0
  0
SPLINE
  5
259
100
AcDbEntity
  8
0
100
AcDbSpline
 62
7
  6
BYLAYER
 70
0
 71
3
 72
14
 73
10
 74
0
 42
0.0000001
 43
0.0000001
 44
0.0000000001
 40
0.0
 40
0.0
 40
0.0
 40
0.0
 40
0.2892707578
 40
0.4225382071
 40
0.5484970853
 40
0.6678942786
 40
0.7818682184
 40
0.8919523671
 40
1.0
 40
1.0
 40
1.0
 40
1.0
 10
8.5526354654
 20
32.0094722212
 30
0.0
 10
8.6623738798
 20
31.9461129113
 30
0.0
 10
8.8308556893
 20
31.8659270118
 30
0.0
 10
9.0619099833
 20
31.7985357551
 30
0.0
 10
9.2259184156
 20
31.7710324125
 30
0.0
 10
9.3837259844
 20
31.7655296024
 30
0.0
 10
9.5338387841
 20
31.7822806177
 30
0.0
 10
9.6746568191
 20
31.821210517
 30
0.0
 10
9.7616811501
 20
31.861971631
 30
0.0
 10
9.802672802
 20
31.8856331761
 30
0.0
  0
SPLINE
  5
25A
100
AcDbEntity
  8
0
100
AcDbSpline
 62
7
  6
BYLAYER
 70
0
 71
3
 72
19
 73
15
 74
0
 42
0.0000001
 43
0.0000001
 44
0.0000000001
 40
0.0
 40
0.0
 40
0.0
 40
0.0
 40
0.055824407
 40
0.1142048587
 40
0.1748305131
 40
0.2374072253
 40
0.3670168956
 40
0.4999977821
 40
0.6329822193
 40
0.7625930785
 40
0.8251768756
 40
0.8857951655
 40
0.9441481262
 40
1.0
 40
1.0
 40
1.0
 40
1.0
 10
6.7849093645
 20
34.6630553034
 30
0.0
 10
6.7849093645
 20
34.6083706464
 30
0.0
 10
6.7897863643
 20
34.49645756
 30
0.0
 10
6.810369172
 20
34.3262927525
 30
0.0
 10
6.844285039
 20
34.1515306888
 30
0.0
 10
6.9075061808
 20
33.9119331137
 30
0.0
 10
7.0177796758
 20
33.6122034951
 30
0.0
 10
7.1927752436
 20
33.2655713224
 30
0.0
 10
7.4054680151
 20
32.940702727
 30
0.0
 10
7.609906072
 20
32.6953234975
 30
0.0
 10
7.785801174
 20
32.5207803839
 30
0.0
 10
7.9201662135
 20
32.4040404376
 30
0.0
 10
8.0572257559
 20
32.3011228368
 30
0.0
 10
8.1517113511
 20
32.2409494038
 30
0.0
 10
8.1990926008
 20
32.2135930097
 30
0.0
  0
SPLINE
  5
25B
100
AcDbEntity
  8
0
100
AcDbSpline
 62
7
  6
BYLAYER
 70
0
 71
3
 72
15
 73
11
 74
0
 42
0.0000001
 43
0.0000001
 44
0.0000000001
 40
0.0
 40
0.0
 40
0.0
 40
0.0
 40
0.1080120437
 40
0.2180613192
 40
0.3320032662
 40
0.4513603399
 40
0.5772651893
 40
0.7104948808
 40
0.8514586687
 40
1.0
 40
1.0
 40
1.0
 40
1.0
 10
9.802672802
 20
31.8856331761
 30
0.0
 10
9.84366351
 20
31.9092941765
 30
0.0
 10
9.922466249
 20
31.9642904022
 30
0.0
 10
10.0266025488
 20
32.0667636809
 30
0.0
 10
10.1161462347
 20
32.1884022544
 30
0.0
 10
10.1903043517
 20
32.3278038565
 30
0.0
 10
10.248471096
 20
32.4835745844
 30
0.0
 10
10.2902276231
 20
32.6542198857
 30
0.0
 10
10.3151889316
 20
32.8380615275
 30
0.0
 10
10.3204550463
 20
32.9650050751
 30
0.0
 10
10.3204550463
 20
33.0300939849
 30
0.0
  0
SPLINE
  5
25C
100
AcDbEntity
  8
0
100
AcDbSpline
 62
7
  6
BYLAYER
 70
0
 71
3
 72
25
 73
21
 74
0
 42
0.0000001
 43
0.0000001
 44
0.0000000001
 40
0.0
 40
0.0
 40
0.0
 40
0.0
 40
0.062376794
 40
0.1287264445
 40
0.198313771
 40
0.2702914703
 40
0.3436683467
 40
0.4173998436
 40
0.4904238879
 40
0.5617100834
 40
0.6303074708
 40
0.695395416
 40
0.7563429837
 40
0.8127802256
 40
0.8646811581
 40
0.9124567696
 40
0.9351014158
 40
0.9571072298
 40
0.9786676775
 40
1.0
 40
1.0
 40
1.0
 40
1.0
 10
10.3204550463
 20
33.0300939849
 30
0.0
 10
10.3204550463
 20
33.1337986629
 30
0.0
 10
10.3063931455
 20
33.3479548072
 30
0.0
 10
10.2485931022
 20
33.6731143122
 30
0.0
 10
10.1545729802
 20
34.0063028996
 30
0.0
 10
10.0264138395
 20
34.340380811
 30
0.0
 10
9.8667952307
 20
34.6682804018
 30
0.0
 10
9.6791370695
 20
34.9829971549
 30
0.0
 10
9.4674426716
 20
35.2778223691
 30
0.0
 10
9.236223018
 20
35.5464742998
 30
0.0
 10
8.9903841476
 20
35.7832431888
 30
0.0
 10
8.7350946668
 20
35.9831067727
 30
0.0
 10
8.4756622436
 20
36.1418254718
 30
0.0
 10
8.2173315046
 20
36.2559826388
 30
0.0
 10
7.965340794
 20
36.3229570596
 30
0.0
 10
7.7609596356
 20
36.3379743842
 30
0.0
 10
7.6076737225
 20
36.3235728567
 30
0.0
 10
7.4997462271
 20
36.3005710148
 30
0.0
 10
7.3975223992
 20
36.2652195593
 30
0.0
 10
7.3334048296
 20
36.2334888086
 30
0.0
 10
7.3026886649
 20
36.2157585664
 30
0.0
  0
SPLINE
  5
25D
100
AcDbEntity
  8
0
100
AcDbSpline
 62
7
  6
BYLAYER
 70
0
 71
3
 72
35
 73
31
 74
0
 42
0.0000001
 43
0.0000001
 44
0.0000000001
 40
0.0
 40
0.0
 40
0.0
 40
0.0
 40
0.0325376524
 40
0.0665651348
 40
0.1019012648
 40
0.1383745926
 40
0.2139185975
 40
0.2914274761
 40
0.3689382928
 40
0.4444826059
 40
0.4809597855
 40
0.5162912964
 40
0.5503023867
 40
0.5828556471
 40
0.6138495096
 40
0.6432363423
 40
0.6710219234
 40
0.6972855858
 40
0.7221796594
 40
0.7459442449
 40
0.7688973064
 40
0.7914258304
 40
0.8139539077
 40
0.836906815
 40
0.8606725494
 40
0.8855660979
 40
0.9118265861
 40
0.9396175427
 40
0.9690215066
 40
1.0
 40
1.0
 40
1.0
 40
1.0
 10
9.6133482651
 20
33.0300922853
 30
0.0
 10
9.6133482651
 20
33.0847778666
 30
0.0
 10
9.6084710998
 20
33.1966928813
 30
0.0
 10
9.5878876121
 20
33.3668606267
 30
0.0
 10
9.5539706356
 20
33.5416257225
 30
0.0
 10
9.4907474537
 20
33.7812273901
 30
0.0
 10
9.3804704986
 20
34.0809618028
 30
0.0
 10
9.2054697336
 20
34.4275986947
 30
0.0
 10
8.9927708412
 20
34.752470574
 30
0.0
 10
8.7883278234
 20
34.9978507262
 30
0.0
 10
8.6124275175
 20
35.1723939827
 30
0.0
 10
8.4780620898
 20
35.2891315028
 30
0.0
 10
8.3409907087
 20
35.3920523401
 30
0.0
 10
8.2025396646
 20
35.4802242009
 30
0.0
 10
8.0639732355
 20
35.5527488073
 30
0.0
 10
7.9266156008
 20
35.6089807773
 30
0.0
 10
7.7917097281
 20
35.6482900046
 30
0.0
 10
7.6605257277
 20
35.6703176772
 30
0.0
 10
7.5342780129
 20
35.6746872307
 30
0.0
 10
7.414195827
 20
35.6613178126
 30
0.0
 10
7.3015297305
 20
35.6301316686
 30
0.0
 10
7.1974992837
 20
35.5814502723
 30
0.0
 10
7.1033227266
 20
35.5157008808
 30
0.0
 10
7.0199829861
 20
35.4337190873
 30
0.0
 10
6.9483680073
 20
35.3364056672
 30
0.0
 10
6.8890263289
 20
35.2248936232
 30
0.0
 10
6.8424991436
 20
35.1002726875
 30
0.0
 10
6.8090900563
 20
34.9637493234
 30
0.0
 10
6.789126832
 20
34.8166729155
 30
0.0
 10
6.7849093645
 20
34.7151204277
 30
0.0
 10
6.7849093645
 20
34.6630553034
 30
0.0
  0
SPLINE
  5
25E
100
AcDbEntity
  8
0
100
AcDbSpline
 62
7
  6
BYLAYER
 70
0
 71
3
 72
23
 73
19
 74
0
 42
0.0000001
 43
0.0000001
 44
0.0000000001
 40
0.0
 40
0.0
 40
0.0
 40
0.0
 40
0.0743007975
 40
0.1447491047
 40
0.2113587362
 40
0.2743198403
 40
0.3339975598
 40
0.3909674557
 40
0.4459917581
 40
0.499998178
 40
0.5540033898
 40
0.6090269253
 40
0.6659989518
 40
0.7256746128
 40
0.7886271825
 40
0.855248702
 40
0.9257370534
 40
1.0
 40
1.0
 40
1.0
 40
1.0
 10
8.1990926008
 20
32.2135930097
 30
0.0
 10
8.2442056921
 20
32.1875461765
 30
0.0
 10
8.3342561613
 20
32.140411389
 30
0.0
 10
8.4716088753
 20
32.0841786532
 30
0.0
 10
8.6065195544
 20
32.044863914
 30
0.0
 10
8.7377061673
 20
32.0228325003
 30
0.0
 10
8.8639571619
 20
32.0184594292
 30
0.0
 10
8.9840425121
 20
32.0318259848
 30
0.0
 10
9.0967117766
 20
32.0630098641
 30
0.0
 10
9.2007452778
 20
32.1116896462
 30
0.0
 10
9.2949247089
 20
32.1774380824
 30
0.0
 10
9.3782670613
 20
32.2594195645
 30
0.0
 10
9.4498843245
 20
32.3567332833
 30
0.0
 10
9.5092279154
 20
32.4682461826
 30
0.0
 10
9.5557566122
 20
32.5928684761
 30
0.0
 10
9.5891667893
 20
32.7293936449
 30
0.0
 10
9.6091306646
 20
32.876472245
 30
0.0
 10
9.6133482651
 20
32.9780263229
 30
0.0
 10
9.6133482651
 20
33.0300922853
 30
0.0
  0
SPLINE
  5
25F
100
AcDbEntity
  8
0
100
AcDbSpline
 62
7
  6
BYLAYER
 70
0
 71
3
 72
18
 73
14
 74
0
 42
0.0000001
 43
0.0000001
 44
0.0000000001
 40
0.0
 40
0.0
 40
0.0
 40
0.0
 40
0.0539108665
 40
0.1080799297
 40
0.1627599598
 40
0.2181908539
 40
0.2745959069
 40
0.3321795181
 40
0.4515054571
 40
0.5773924411
 40
0.7105716448
 40
0.8514509545
 40
1.0
 40
1.0
 40
1.0
 40
1.0
 10
9.0984474996
 20
47.067469546
 30
0.0
 10
9.0084086444
 20
47.0154819416
 30
0.0
 10
8.8322485756
 20
46.9035111005
 30
0.0
 10
8.5822590701
 20
46.7131047852
 30
0.0
 10
8.3468719855
 20
46.5004977081
 30
0.0
 10
8.1266556285
 20
46.2662936332
 30
0.0
 10
7.9221286052
 20
46.0110585632
 30
0.0
 10
7.6680832261
 20
45.63923282
 30
0.0
 10
7.3928269956
 20
45.1218560337
 30
0.0
 10
7.1369493304
 20
44.4365152791
 30
0.0
 10
6.953253816
 20
43.685737654
 30
0.0
 10
6.8433084972
 20
42.8768785854
 30
0.0
 10
6.820211565
 20
42.3183157735
 30
0.0
 10
6.820211565
 20
42.0318316866
 30
0.0
  0
SPLINE
  5
260
100
AcDbEntity
  8
0
100
AcDbSpline
 62
7
  6
BYLAYER
 70
0
 71
3
 72
30
 73
26
 74
0
 42
0.0000001
 43
0.0000001
 44
0.0000000001
 40
0.0
 40
0.0
 40
0.0
 40
0.0
 40
0.021328146
 40
0.0428536336
 40
0.0647647215
 40
0.0872332246
 40
0.1104084478
 40
0.1344141346
 40
0.1593468298
 40
0.1852765539
 40
0.2122478303
 40
0.2402820726
 40
0.2693794099
 40
0.2995213492
 40
0.3306725015
 40
0.3627830567
 40
0.4296007443
 40
0.4993697392
 40
0.5713316576
 40
0.6446388446
 40
0.7183913932
 40
0.7916726716
 40
0.863583243
 40
0.9332786652
 40
1.0
 40
1.0
 40
1.0
 40
1.0
 10
12.6339665468
 20
49.1086905591
 30
0.0
 10
12.7594518544
 20
49.1811446819
 30
0.0
 10
13.020512736
 20
49.3118367673
 30
0.0
 10
13.435274867
 20
49.4615255818
 30
0.0
 10
13.8719750849
 20
49.5646178555
 30
0.0
 10
14.3283699585
 20
49.6206741052
 30
0.0
 10
14.8022670578
 20
49.6295488207
 30
0.0
 10
15.2914144534
 20
49.5913142357
 30
0.0
 10
15.7935355047
 20
49.5062466298
 30
0.0
 10
16.3063148816
 20
49.3748251004
 30
0.0
 10
16.8274002472
 20
49.1977161849
 30
0.0
 10
17.3544034623
 20
48.9757854736
 30
0.0
 10
17.8849074067
 20
48.7100866072
 30
0.0
 10
18.4164698339
 20
48.4018728609
 30
0.0
 10
18.9466547397
 20
48.0525781053
 30
0.0
 10
19.6578003935
 20
47.5273232367
 30
0.0
 10
20.5263391583
 20
46.776522357
 30
0.0
 10
21.5105527565
 20
45.7548934745
 30
0.0
 10
22.4324811802
 20
44.6194198403
 30
0.0
 10
23.2750934337
 20
43.3910823703
 30
0.0
 10
24.0228898164
 20
42.0924903309
 30
0.0
 10
24.6620658584
 20
40.7476135904
 30
0.0
 10
25.1808625288
 20
39.3811742757
 30
0.0
 10
25.5696652968
 20
38.0185127473
 30
0.0
 10
25.7417984298
 20
37.1060946153
 30
0.0
 10
25.8026231939
 20
36.6568983067
 30
0.0
  0
SPLINE
  5
261
100
AcDbEntity
  8
0
100
AcDbSpline
 62
7
  6
BYLAYER
 70
0
 71
3
 72
22
 73
18
 74
0
 42
0.0000001
 43
0.0000001
 44
0.0000000001
 40
0.0
 40
0.0
 40
0.0
 40
0.0
 40
0.0454623733
 40
0.0930383717
 40
0.1430654372
 40
0.1957617461
 40
0.2512319643
 40
0.3094831624
 40
0.3704378705
 40
0.4339443864
 40
0.499792055
 40
0.5677188267
 40
0.6374208791
 40
0.7085625475
 40
0.7807814949
 40
0.8536976768
 40
1.0
 40
1.0
 40
1.0
 40
1.0
 10
11.2859228289
 20
45.7281966202
 30
0.0
 10
11.452590888
 20
45.749284725
 30
0.0
 10
11.7971433132
 20
45.7679541667
 30
0.0
 10
12.3255576428
 20
45.7279521789
 30
0.0
 10
12.8718121815
 20
45.6212852403
 30
0.0
 10
13.4314294607
 20
45.4489696919
 30
0.0
 10
14.0000592924
 20
45.2125967192
 30
0.0
 10
14.5732159117
 20
44.9141502918
 30
0.0
 10
15.1463466458
 20
44.5560474095
 30
0.0
 10
15.7149150302
 20
44.1412315261
 30
0.0
 10
16.2743596806
 20
43.6730314741
 30
0.0
 10
16.8201819782
 20
43.155222282
 30
0.0
 10
17.3480141344
 20
42.5920053816
 30
0.0
 10
17.8535612918
 20
41.9879162615
 30
0.0
 10
18.3327839046
 20
41.3478085575
 30
0.0
 10
18.9319385399
 20
40.4525236825
 30
0.0
 10
19.3295587683
 20
39.7445120741
 30
0.0
 10
19.5692420258
 20
39.2599163897
 30
0.0
  0
SPLINE
  5
262
100
AcDbEntity
  8
0
100
AcDbSpline
 62
7
  6
BYLAYER
 70
0
 71
3
 72
22
 73
18
 74
0
 42
0.0000001
 43
0.0000001
 44
0.0000000001
 40
0.0
 40
0.0
 40
0.0
 40
0.0
 40
0.0771321092
 40
0.1517409245
 40
0.2930770967
 40
0.3599754457
 40
0.424478457
 40
0.4867511869
 40
0.5470165879
 40
0.6055602271
 40
0.6627198818
 40
0.7188830995
 40
0.7744727023
 40
0.8299357664
 40
0.8857237778
 40
0.9422756213
 40
1.0
 40
1.0
 40
1.0
 40
1.0
 10
8.2344310153
 20
41.2153501775
 30
0.0
 10
8.2344310153
 20
41.3694188397
 30
0.0
 10
8.2427051521
 20
41.6726244495
 30
0.0
 10
8.293128004
 20
42.2560498429
 30
0.0
 10
8.3942523688
 20
42.8140486163
 30
0.0
 10
8.5506345277
 20
43.3363765236
 30
0.0
 10
8.690614354
 20
43.6974968927
 30
0.0
 10
8.854861158
 20
44.0335964731
 30
0.0
 10
9.0428149534
 20
44.3432543598
 30
0.0
 10
9.2536853771
 20
44.6251907607
 30
0.0
 10
9.4867161249
 20
44.8781312107
 30
0.0
 10
9.7408846665
 20
45.1010220528
 30
0.0
 10
10.0151893114
 20
45.2927883058
 30
0.0
 10
10.3083876075
 20
45.4526379287
 30
0.0
 10
10.6192345124
 20
45.5798282757
 30
0.0
 10
10.9463026549
 20
45.6738535817
 30
0.0
 10
11.1715324376
 20
45.7137230818
 30
0.0
 10
11.2859228289
 20
45.7281966202
 30
0.0
  0
SPLINE
  5
263
100
AcDbEntity
  8
0
100
AcDbSpline
 62
7
  6
BYLAYER
 70
0
 71
3
 72
26
 73
22
 74
0
 42
0.0000001
 43
0.0000001
 44
0.0000000001
 40
0.0
 40
0.0
 40
0.0
 40
0.0
 40
0.0234417732
 40
0.0465661764
 40
0.0695135386
 40
0.0924296076
 40
0.1154616316
 40
0.1387527482
 40
0.1865951834
 40
0.23694186
 40
0.2904761736
 40
0.3476198164
 40
0.408551081
 40
0.4732390199
 40
0.5414815009
 40
0.6129372417
 40
0.6871528508
 40
0.7635895977
 40
0.8416453067
 40
0.9206729461
 40
1.0
 40
1.0
 40
1.0
 40
1.0
 10
12.1648684476
 20
42.949538843
 30
0.0
 10
12.2099977871
 20
42.9991560151
 30
0.0
 10
12.3042319024
 20
43.093670715
 30
0.0
 10
12.4576893625
 20
43.2206585616
 30
0.0
 10
12.621554378
 20
43.3312786497
 30
0.0
 10
12.7952877358
 20
43.4250801302
 30
0.0
 10
12.9782929451
 20
43.5017806345
 30
0.0
 10
13.2359856864
 20
43.5816347017
 30
0.0
 10
13.5813072748
 20
43.6366414921
 30
0.0
 10
14.017221533
 20
43.6302130829
 30
0.0
 10
14.4730383768
 20
43.5529641146
 30
0.0
 10
14.9429941979
 20
43.4063611963
 30
0.0
 10
15.4213862829
 20
43.1925955416
 30
0.0
 10
15.9023547371
 20
42.9145407247
 30
0.0
 10
16.3799488619
 20
42.5757757599
 30
0.0
 10
16.8481834742
 20
42.1806016128
 30
0.0
 10
17.301163234
 20
41.7340525159
 30
0.0
 10
17.7331502213
 20
41.2418164107
 30
0.0
 10
18.1386490874
 20
40.7101484605
 30
0.0
 10
18.512460634
 20
40.1458556358
 30
0.0
 10
18.7376406135
 20
39.7522528451
 30
0.0
 10
18.8438188778
 20
39.5516514656
 30
0.0
  0
SPLINE
  5
264
100
AcDbEntity
  8
0
100
AcDbSpline
 62
7
  6
BYLAYER
 70
0
 71
3
 72
18
 73
14
 74
0
 42
0.0000001
 43
0.0000001
 44
0.0000000001
 40
0.0
 40
0.0
 40
0.0
 40
0.0
 40
0.1559125676
 40
0.3034781556
 40
0.4415779424
 40
0.5696598883
 40
0.6879029179
 40
0.7436970542
 40
0.7975235337
 40
0.8496808445
 40
0.9005293205
 40
0.9504838688
 40
1.0
 40
1.0
 40
1.0
 40
1.0
 10
15.5160537563
 20
40.9019781166
 30
0.0
 10
15.3488811381
 20
41.0631905256
 30
0.0
 10
15.0090670442
 20
41.3625577295
 30
0.0
 10
14.4730341254
 20
41.745841524
 30
0.0
 10
13.9326430226
 20
42.0454346372
 30
0.0
 10
13.3979456253
 20
42.2554356812
 30
0.0
 10
12.9563618499
 20
42.3538815535
 30
0.0
 10
12.617570597
 20
42.3810904845
 30
0.0
 10
12.3762064931
 20
42.3766687409
 30
0.0
 10
12.1439295768
 20
42.3477765756
 30
0.0
 10
11.9218804867
 20
42.294504878
 30
0.0
 10
11.7112615915
 20
42.2170497219
 30
0.0
 10
11.578939164
 20
42.1494430973
 30
0.0
 10
11.5154120012
 20
42.1119671054
 30
0.0
  0
SPLINE
  5
265
100
AcDbEntity
  8
0
100
AcDbSpline
 62
7
  6
BYLAYER
 70
0
 71
3
 72
18
 73
14
 74
0
 42
0.0000001
 43
0.0000001
 44
0.0000000001
 40
0.0
 40
0.0
 40
0.0
 40
0.0
 40
0.0554336541
 40
0.1104344253
 40
0.1653556867
 40
0.2205527782
 40
0.2763726852
 40
0.3331417555
 40
0.4505841391
 40
0.5749690873
 40
0.7076109988
 40
0.8492522403
 40
1.0
 40
1.0
 40
1.0
 40
1.0
 10
11.9805408536
 20
45.7659258493
 30
0.0
 10
11.8907811208
 20
45.7375387257
 30
0.0
 10
11.7145277551
 20
45.6724276492
 30
0.0
 10
11.4615272868
 20
45.5495664789
 30
0.0
 10
11.2222043673
 20
45.4025336213
 30
0.0
 10
10.997436487
 20
45.2318060051
 30
0.0
 10
10.7879654952
 20
45.037971968
 30
0.0
 10
10.5271002699
 20
44.7465148029
 30
0.0
 10
10.2424274806
 20
44.3234659369
 30
0.0
 10
9.9771785465
 20
43.7428283604
 30
0.0
 10
9.7864942587
 20
43.091017686
 30
0.0
 10
9.67237481
 20
42.3766470834
 30
0.0
 10
9.6486416337
 20
41.8796071775
 30
0.0
 10
9.6486416337
 20
41.6235960311
 30
0.0
  0
SPLINE
  5
266
100
AcDbEntity
  8
0
100
AcDbSpline
 62
7
  6
BYLAYER
 70
0
 71
3
 72
15
 73
11
 74
0
 42
0.0000001
 43
0.0000001
 44
0.0000000001
 40
0.0
 40
0.0
 40
0.0
 40
0.0
 40
0.1080120437
 40
0.2180613192
 40
0.3320032662
 40
0.4513603399
 40
0.5772651893
 40
0.7104948808
 40
0.8514586687
 40
1.0
 40
1.0
 40
1.0
 40
1.0
 10
28.5159804193
 20
48.4636084446
 30
0.0
 10
28.4749897112
 20
48.4399474443
 30
0.0
 10
28.3961869722
 20
48.3849512185
 30
0.0
 10
28.2920506724
 20
48.2824779399
 30
0.0
 10
28.2025069865
 20
48.1608393663
 30
0.0
 10
28.1283488695
 20
48.0214377642
 30
0.0
 10
28.0701821253
 20
47.8656670364
 30
0.0
 10
28.0284255981
 20
47.695021735
 30
0.0
 10
28.0034642896
 20
47.5111800932
 30
0.0
 10
27.998198175
 20
47.3842365457
 30
0.0
 10
27.998198175
 20
47.3191476358
 30
0.0
  0
SPLINE
  5
267
100
AcDbEntity
  8
0
100
AcDbSpline
 62
7
  6
BYLAYER
 70
0
 71
3
 72
14
 73
10
 74
0
 42
0.0000001
 43
0.0000001
 44
0.0000000001
 40
0.0
 40
0.0
 40
0.0
 40
0.0
 40
0.2892707578
 40
0.4225382071
 40
0.5484970853
 40
0.6678942786
 40
0.7818682184
 40
0.8919523671
 40
1.0
 40
1.0
 40
1.0
 40
1.0
 10
29.7659272199
 20
44.2573220995
 30
0.0
 10
29.8756656342
 20
44.1939627896
 30
0.0
 10
30.0441474437
 20
44.1137768901
 30
0.0
 10
30.2752017377
 20
44.0463856334
 30
0.0
 10
30.43921017
 20
44.0188822908
 30
0.0
 10
30.5970177388
 20
44.0133794807
 30
0.0
 10
30.7471305385
 20
44.030130496
 30
0.0
 10
30.8879485735
 20
44.0690603953
 30
0.0
 10
30.9749729045
 20
44.1098215093
 30
0.0
 10
31.0159645564
 20
44.1334830544
 30
0.0
  0
SPLINE
  5
268
100
AcDbEntity
  8
0
100
AcDbSpline
 62
7
  6
BYLAYER
 70
0
 71
3
 72
19
 73
15
 74
0
 42
0.0000001
 43
0.0000001
 44
0.0000000001
 40
0.0
 40
0.0
 40
0.0
 40
0.0
 40
0.055824407
 40
0.1142048587
 40
0.1748305131
 40
0.2374072253
 40
0.3670168956
 40
0.4999977821
 40
0.6329822193
 40
0.7625930785
 40
0.8251768756
 40
0.8857951655
 40
0.9441481262
 40
1.0
 40
1.0
 40
1.0
 40
1.0
 10
27.9982011189
 20
46.9109051816
 30
0.0
 10
27.9982011189
 20
46.8562205246
 30
0.0
 10
28.0030781187
 20
46.7443074383
 30
0.0
 10
28.0236609264
 20
46.5741426308
 30
0.0
 10
28.0575767934
 20
46.399380567
 30
0.0
 10
28.1207979352
 20
46.159782992
 30
0.0
 10
28.2310714302
 20
45.8600533733
 30
0.0
 10
28.406066998
 20
45.5134212007
 30
0.0
 10
28.6187597695
 20
45.1885526053
 30
0.0
 10
28.8231978264
 20
44.9431733758
 30
0.0
 10
28.9990929284
 20
44.7686302622
 30
0.0
 10
29.1334579679
 20
44.6518903158
 30
0.0
 10
29.2705175103
 20
44.5489727151
 30
0.0
 10
29.3650031055
 20
44.4887992821
 30
0.0
 10
29.4123843552
 20
44.461442888
 30
0.0
  0
SPLINE
  5
269
100
AcDbEntity
  8
0
100
AcDbSpline
 62
7
  6
BYLAYER
 70
0
 71
3
 72
15
 73
11
 74
0
 42
0.0000001
 43
0.0000001
 44
0.0000000001
 40
0.0
 40
0.0
 40
0.0
 40
0.0
 40
0.1080120437
 40
0.2180613192
 40
0.3320032662
 40
0.4513603399
 40
0.5772651893
 40
0.7104948808
 40
0.8514586687
 40
1.0
 40
1.0
 40
1.0
 40
1.0
 10
31.0159645564
 20
44.1334830544
 30
0.0
 10
31.0569552644
 20
44.1571440547
 30
0.0
 10
31.1357580034
 20
44.2121402805
 30
0.0
 10
31.2398943032
 20
44.3146135592
 30
0.0
 10
31.3294379891
 20
44.4362521327
 30
0.0
 10
31.4035961061
 20
44.5756537348
 30
0.0
 10
31.4617628504
 20
44.7314244627
 30
0.0
 10
31.5035193775
 20
44.902069764
 30
0.0
 10
31.528480686
 20
45.0859114058
 30
0.0
 10
31.5337468007
 20
45.2128549534
 30
0.0
 10
31.5337468007
 20
45.2779438632
 30
0.0
  0
SPLINE
  5
26A
100
AcDbEntity
  8
0
100
AcDbSpline
 62
7
  6
BYLAYER
 70
0
 71
3
 72
25
 73
21
 74
0
 42
0.0000001
 43
0.0000001
 44
0.0000000001
 40
0.0
 40
0.0
 40
0.0
 40
0.0
 40
0.062376794
 40
0.1287264445
 40
0.198313771
 40
0.2702914703
 40
0.3436683467
 40
0.4173998436
 40
0.4904238879
 40
0.5617100834
 40
0.6303074708
 40
0.695395416
 40
0.7563429837
 40
0.8127802256
 40
0.8646811581
 40
0.9124567696
 40
0.9351014158
 40
0.9571072298
 40
0.9786676775
 40
1.0
 40
1.0
 40
1.0
 40
1.0
 10
31.5337468007
 20
45.2779438632
 30
0.0
 10
31.5337468007
 20
45.3816485412
 30
0.0
 10
31.5196848999
 20
45.5958046854
 30
0.0
 10
31.4618848566
 20
45.9209641904
 30
0.0
 10
31.3678647346
 20
46.2541527779
 30
0.0
 10
31.2397055939
 20
46.5882306892
 30
0.0
 10
31.0800869851
 20
46.9161302801
 30
0.0
 10
30.8924288239
 20
47.2308470332
 30
0.0
 10
30.680734426
 20
47.5256722474
 30
0.0
 10
30.4495147724
 20
47.7943241781
 30
0.0
 10
30.203675902
 20
48.0310930671
 30
0.0
 10
29.9483864212
 20
48.230956651
 30
0.0
 10
29.688953998
 20
48.3896753501
 30
0.0
 10
29.430623259
 20
48.5038325171
 30
0.0
 10
29.1786325484
 20
48.5708069378
 30
0.0
 10
28.97425139
 20
48.5858242624
 30
0.0
 10
28.8209654769
 20
48.571422735
 30
0.0
 10
28.7130379815
 20
48.548420893
 30
0.0
 10
28.6108141537
 20
48.5130694376
 30
0.0
 10
28.546696584
 20
48.4813386869
 30
0.0
 10
28.5159804193
 20
48.4636084446
 30
0.0
  0
SPLINE
  5
26B
100
AcDbEntity
  8
0
100
AcDbSpline
 62
7
  6
BYLAYER
 70
0
 71
3
 72
35
 73
31
 74
0
 42
0.0000001
 43
0.0000001
 44
0.0000000001
 40
0.0
 40
0.0
 40
0.0
 40
0.0
 40
0.0325376524
 40
0.0665651348
 40
0.1019012648
 40
0.1383745926
 40
0.2139185975
 40
0.2914274761
 40
0.3689382928
 40
0.4444826059
 40
0.4809597855
 40
0.5162912964
 40
0.5503023867
 40
0.5828556471
 40
0.6138495096
 40
0.6432363423
 40
0.6710219234
 40
0.6972855858
 40
0.7221796594
 40
0.7459442449
 40
0.7688973064
 40
0.7914258304
 40
0.8139539077
 40
0.836906815
 40
0.8606725494
 40
0.8855660979
 40
0.9118265861
 40
0.9396175427
 40
0.9690215066
 40
1.0
 40
1.0
 40
1.0
 40
1.0
 10
30.8266400195
 20
45.2779421635
 30
0.0
 10
30.8266400195
 20
45.3326277449
 30
0.0
 10
30.8217628542
 20
45.4445427596
 30
0.0
 10
30.8011793665
 20
45.614710505
 30
0.0
 10
30.76726239
 20
45.7894756008
 30
0.0
 10
30.7040392081
 20
46.0290772684
 30
0.0
 10
30.593762253
 20
46.3288116811
 30
0.0
 10
30.418761488
 20
46.675448573
 30
0.0
 10
30.2060625956
 20
47.0003204523
 30
0.0
 10
30.0016195778
 20
47.2457006044
 30
0.0
 10
29.8257192719
 20
47.420243861
 30
0.0
 10
29.6913538442
 20
47.5369813811
 30
0.0
 10
29.5542824631
 20
47.6399022184
 30
0.0
 10
29.415831419
 20
47.7280740792
 30
0.0
 10
29.2772649899
 20
47.8005986856
 30
0.0
 10
29.1399073552
 20
47.8568306556
 30
0.0
 10
29.0050014825
 20
47.8961398829
 30
0.0
 10
28.8738174821
 20
47.9181675555
 30
0.0
 10
28.7475697674
 20
47.922537109
 30
0.0
 10
28.6274875814
 20
47.9091676909
 30
0.0
 10
28.5148214849
 20
47.8779815468
 30
0.0
 10
28.4107910381
 20
47.8293001505
 30
0.0
 10
28.316614481
 20
47.763550759
 30
0.0
 10
28.2332747405
 20
47.6815689656
 30
0.0
 10
28.1616597617
 20
47.5842555455
 30
0.0
 10
28.1023180833
 20
47.4727435015
 30
0.0
 10
28.055790898
 20
47.3481225657
 30
0.0
 10
28.0223818107
 20
47.2115992017
 30
0.0
 10
28.0024185864
 20
47.0645227937
 30
0.0
 10
27.9982011189
 20
46.962970306
 30
0.0
 10
27.9982011189
 20
46.9109051816
 30
0.0
  0
SPLINE
  5
26C
100
AcDbEntity
  8
0
100
AcDbSpline
 62
7
  6
BYLAYER
 70
0
 71
3
 72
23
 73
19
 74
0
 42
0.0000001
 43
0.0000001
 44
0.0000000001
 40
0.0
 40
0.0
 40
0.0
 40
0.0
 40
0.0743007975
 40
0.1447491047
 40
0.2113587362
 40
0.2743198403
 40
0.3339975598
 40
0.3909674557
 40
0.4459917581
 40
0.499998178
 40
0.5540033898
 40
0.6090269253
 40
0.6659989518
 40
0.7256746128
 40
0.7886271825
 40
0.855248702
 40
0.9257370534
 40
1.0
 40
1.0
 40
1.0
 40
1.0
 10
29.4123843552
 20
44.461442888
 30
0.0
 10
29.4574974465
 20
44.4353960547
 30
0.0
 10
29.5475479157
 20
44.3882612673
 30
0.0
 10
29.6849006297
 20
44.3320285315
 30
0.0
 10
29.8198113088
 20
44.2927137922
 30
0.0
 10
29.9509979217
 20
44.2706823786
 30
0.0
 10
30.0772489164
 20
44.2663093075
 30
0.0
 10
30.1973342665
 20
44.279675863
 30
0.0
 10
30.310003531
 20
44.3108597424
 30
0.0
 10
30.4140370322
 20
44.3595395244
 30
0.0
 10
30.5082164633
 20
44.4252879607
 30
0.0
 10
30.5915588157
 20
44.5072694427
 30
0.0
 10
30.6631760789
 20
44.6045831616
 30
0.0
 10
30.7225196698
 20
44.7160960609
 30
0.0
 10
30.7690483666
 20
44.8407183544
 30
0.0
 10
30.8024585437
 20
44.9772435232
 30
0.0
 10
30.822422419
 20
45.1243221232
 30
0.0
 10
30.8266400195
 20
45.2258762012
 30
0.0
 10
30.8266400195
 20
45.2779421635
 30
0.0
  0
SPLINE
  5
26D
100
AcDbEntity
  8
0
100
AcDbSpline
 62
7
  6
BYLAYER
 70
0
 71
3
 72
11
 73
7
 74
0
 42
0.0000001
 43
0.0000001
 44
0.0000000001
 40
0.0
 40
0.0
 40
0.0
 40
0.0
 40
0.2563292043
 40
0.5072997767
 40
0.7545887273
 40
1.0
 40
1.0
 40
1.0
 40
1.0
 10
39.790223214
 20
39.7743995316
 30
0.0
 10
39.9268576898
 20
39.7894318172
 30
0.0
 10
40.1960682757
 20
39.8320259112
 30
0.0
 10
40.5880090672
 20
39.9354239352
 30
0.0
 10
40.961565402
 20
40.0770942428
 30
0.0
 10
41.197710878
 20
40.1969416137
 30
0.0
 10
41.311681338
 20
40.2627471059
 30
0.0
  0
SPLINE
  5
26E
100
AcDbEntity
  8
0
100
AcDbSpline
 62
7
  6
BYLAYER
 70
0
 71
3
 72
15
 73
11
 74
0
 42
0.0000001
 43
0.0000001
 44
0.0000000001
 40
0.0
 40
0.0
 40
0.0
 40
0.0
 40
0.1421173201
 40
0.2792408418
 40
0.4112181913
 40
0.5381061479
 40
0.6600881243
 40
0.7774465112
 40
0.8905723547
 40
1.0
 40
1.0
 40
1.0
 40
1.0
 10
42.1756978223
 20
46.1148664744
 30
0.0
 10
42.1756978223
 20
45.9502120807
 30
0.0
 10
42.1662633854
 20
45.6265898063
 30
0.0
 10
42.1222414194
 20
45.1518666789
 30
0.0
 10
42.0486482576
 20
44.6986278734
 30
0.0
 10
41.9458688823
 20
44.2690757706
 30
0.0
 10
41.8142825223
 20
43.8651785041
 30
0.0
 10
41.6545030244
 20
43.4887652662
 30
0.0
 10
41.4671665122
 20
43.1417013874
 30
0.0
 10
41.3222620965
 20
42.9277596654
 30
0.0
 10
41.2455896539
 20
42.8267908635
 30
0.0
  0
SPLINE
  5
26F
100
AcDbEntity
  8
0
100
AcDbSpline
 62
7
  6
BYLAYER
 70
0
 71
3
 72
18
 73
14
 74
0
 42
0.0000001
 43
0.0000001
 44
0.0000000001
 40
0.0
 40
0.0
 40
0.0
 40
0.0
 40
0.1485489897
 40
0.2894277981
 40
0.4226067827
 40
0.5484936906
 40
0.6678195943
 40
0.7254032608
 40
0.7818084155
 40
0.8372394677
 40
0.8919196632
 40
0.9460889225
 40
1.0
 40
1.0
 40
1.0
 40
1.0
 10
47.1254364587
 20
47.3396057348
 30
0.0
 10
47.1254364587
 20
47.0531217466
 30
0.0
 10
47.1023398522
 20
46.4945599815
 30
0.0
 10
46.992394672
 20
45.6857023637
 30
0.0
 10
46.808699657
 20
44.9349262287
 30
0.0
 10
46.552823499
 20
44.2495855541
 30
0.0
 10
46.2775675036
 20
43.7322087522
 30
0.0
 10
46.0235225566
 20
43.3603823929
 30
0.0
 10
45.8189949248
 20
43.105147036
 30
0.0
 10
45.5987788064
 20
42.8709416033
 30
0.0
 10
45.3633908053
 20
42.658333983
 30
0.0
 10
45.1134003881
 20
42.4679270652
 30
0.0
 10
44.9372398535
 20
42.3559554754
 30
0.0
 10
44.8472006629
 20
42.3039676316
 30
0.0
  0
SPLINE
  5
270
100
AcDbEntity
  8
0
100
AcDbSpline
 62
7
  6
BYLAYER
 70
0
 71
3
 72
28
 73
24
 74
0
 42
0.0000001
 43
0.0000001
 44
0.0000000001
 40
0.0
 40
0.0
 40
0.0
 40
0.0
 40
0.0220174398
 40
0.0447508349
 40
0.0683023082
 40
0.0927488316
 40
0.1181460361
 40
0.1445260861
 40
0.1719031596
 40
0.2002718079
 40
0.229612012
 40
0.259888467
 40
0.3230314828
 40
0.3892193787
 40
0.4578155571
 40
0.5280880419
 40
0.5992425637
 40
0.6704534729
 40
0.7408926608
 40
0.8097605325
 40
0.8763133371
 40
0.939903223
 40
1.0
 40
1.0
 40
1.0
 40
1.0
 10
32.4992145833
 20
57.9760464985
 30
0.0
 10
32.6208206885
 20
57.9914330237
 30
0.0
 10
32.8697810638
 20
58.009768839
 30
0.0
 10
33.2504552216
 20
58.0007250131
 30
0.0
 10
33.6421537436
 20
57.9556063761
 30
0.0
 10
34.0431349451
 20
57.8747458883
 30
0.0
 10
34.4516623611
 20
57.7584620865
 30
0.0
 10
34.8660027258
 20
57.6073828214
 30
0.0
 10
35.284343586
 20
57.4221109219
 30
0.0
 10
35.7049134426
 20
57.2035386408
 30
0.0
 10
36.1258778296
 20
56.95256855
 30
0.0
 10
36.6931701605
 20
56.5709408627
 30
0.0
 10
37.3907982802
 20
56.0180866981
 30
0.0
 10
38.1888096032
 20
55.2562643014
 30
0.0
 10
38.9456599574
 20
54.3998875404
 30
0.0
 10
39.6482536971
 20
53.4637922112
 30
0.0
 10
40.2844817143
 20
52.4641290149
 30
0.0
 10
40.8433326866
 20
51.418191219
 30
0.0
 10
41.315151665
 20
50.344062116
 30
0.0
 10
41.6917652638
 20
49.2603127957
 30
0.0
 10
41.9666997006
 20
48.1855513226
 30
0.0
 10
42.1351409634
 20
47.1384236466
 30
0.0
 10
42.1756978223
 20
46.4494376856
 30
0.0
 10
42.1756978223
 20
46.1148664744
 30
0.0
  0
SPLINE
  5
271
100
AcDbEntity
  8
0
100
AcDbSpline
 62
7
  6
BYLAYER
 70
0
 71
3
 72
33
 73
29
 74
0
 42
0.0000001
 43
0.0000001
 44
0.0000000001
 40
0.0
 40
0.0
 40
0.0
 40
0.0
 40
0.0213264315
 40
0.042881227
 40
0.0648808004
 40
0.0875194512
 40
0.1109628663
 40
0.135343141
 40
0.1607597132
 40
0.1872780612
 40
0.2149348121
 40
0.2437377549
 40
0.2736716383
 40
0.3046986619
 40
0.3367632071
 40
0.3697929486
 40
0.4383715232
 40
0.5096383936
 40
0.5826425501
 40
0.6563538327
 40
0.7297109958
 40
0.8016677024
 40
0.8368201281
 40
0.8712619352
 40
0.9048865281
 40
0.937604687
 40
0.9693381063
 40
1.0
 40
1.0
 40
1.0
 40
1.0
 10
33.8472583012
 20
61.3565404373
 30
0.0
 10
33.982399211
 20
61.4345696207
 30
0.0
 10
34.264521361
 20
61.5741824288
 30
0.0
 10
34.7143240938
 20
61.72967938
 30
0.0
 10
35.1891694248
 20
61.8309504756
 30
0.0
 10
35.6862110121
 20
61.8775844016
 30
0.0
 10
36.2026879944
 20
61.8694261719
 30
0.0
 10
36.7357763952
 20
61.8067659347
 30
0.0
 10
37.2826033474
 20
61.6899816078
 30
0.0
 10
37.840285289
 20
61.5198951903
 30
0.0
 10
38.4058396798
 20
61.2974063107
 30
0.0
 10
38.9762996056
 20
61.0238270383
 30
0.0
 10
39.548606852
 20
60.7005990976
 30
0.0
 10
40.1197312922
 20
60.3295162313
 30
0.0
 10
40.6866220853
 20
59.9125543193
 30
0.0
 10
41.4421347244
 20
59.2907109929
 30
0.0
 10
42.354866851
 20
58.4116392858
 30
0.0
 10
43.3721765625
 20
57.2296352849
 30
0.0
 10
44.3036357785
 20
55.9323869107
 30
0.0
 10
45.1293281566
 20
54.5476174865
 30
0.0
 10
45.8316124576
 20
53.1049310459
 30
0.0
 10
46.305333129
 20
51.87025187
 30
0.0
 10
46.6086703781
 20
50.8795702806
 30
0.0
 10
46.7952239139
 20
50.1473788753
 30
0.0
 10
46.9415581864
 20
49.4242592665
 30
0.0
 10
47.046907179
 20
48.714029914
 30
0.0
 10
47.1106111121
 20
48.020627401
 30
0.0
 10
47.1254364587
 20
47.5639653574
 30
0.0
 10
47.1254364587
 20
47.3396057348
 30
0.0
  0
SPLINE
  5
272
100
AcDbEntity
  8
0
100
AcDbSpline
 62
7
  6
BYLAYER
 70
0
 71
3
 72
18
 73
14
 74
0
 42
0.0000001
 43
0.0000001
 44
0.0000000001
 40
0.0
 40
0.0
 40
0.0
 40
0.0
 40
0.0539108665
 40
0.1080799297
 40
0.1627599598
 40
0.2181908539
 40
0.2745959069
 40
0.3321795181
 40
0.4515054571
 40
0.5773924411
 40
0.7105716448
 40
0.8514509545
 40
1.0
 40
1.0
 40
1.0
 40
1.0
 10
30.311739254
 20
59.3153194243
 30
0.0
 10
30.2217003988
 20
59.2633318199
 30
0.0
 10
30.04554033
 20
59.1513609788
 30
0.0
 10
29.7955508245
 20
58.9609546635
 30
0.0
 10
29.5601637399
 20
58.7483475864
 30
0.0
 10
29.3399473829
 20
58.5141435115
 30
0.0
 10
29.1354203596
 20
58.2589084415
 30
0.0
 10
28.8813749805
 20
57.8870826983
 30
0.0
 10
28.60611875
 20
57.369705912
 30
0.0
 10
28.3502410848
 20
56.6843651574
 30
0.0
 10
28.1665455704
 20
55.9335875323
 30
0.0
 10
28.0566002516
 20
55.1247284637
 30
0.0
 10
28.0335033194
 20
54.5661656517
 30
0.0
 10
28.0335033194
 20
54.2796815648
 30
0.0
  0
SPLINE
  5
273
100
AcDbEntity
  8
0
100
AcDbSpline
 62
7
  6
BYLAYER
 70
0
 71
3
 72
18
 73
14
 74
0
 42
0.0000001
 43
0.0000001
 44
0.0000000001
 40
0.0
 40
0.0
 40
0.0
 40
0.0
 40
0.0554336541
 40
0.1104344253
 40
0.1653556867
 40
0.2205527782
 40
0.2763726852
 40
0.3331417555
 40
0.4505841391
 40
0.5749690873
 40
0.7076109988
 40
0.8492522403
 40
1.0
 40
1.0
 40
1.0
 40
1.0
 10
33.193832608
 20
58.0137757276
 30
0.0
 10
33.1040728752
 20
57.985388604
 30
0.0
 10
32.9278195095
 20
57.9202775275
 30
0.0
 10
32.6748190412
 20
57.7974163571
 30
0.0
 10
32.4354961217
 20
57.6503834996
 30
0.0
 10
32.2107282415
 20
57.4796558833
 30
0.0
 10
32.0012572496
 20
57.2858218463
 30
0.0
 10
31.7403920243
 20
56.9943646812
 30
0.0
 10
31.455719235
 20
56.5713158151
 30
0.0
 10
31.1904703009
 20
55.9906782387
 30
0.0
 10
30.9997860131
 20
55.3388675643
 30
0.0
 10
30.8856665644
 20
54.6244969617
 30
0.0
 10
30.8619333881
 20
54.1274570558
 30
0.0
 10
30.8619333881
 20
53.8714459094
 30
0.0
  0
SPLINE
  5
274
100
AcDbEntity
  8
0
100
AcDbSpline
 62
7
  6
BYLAYER
 70
0
 71
3
 72
26
 73
22
 74
0
 42
0.0000001
 43
0.0000001
 44
0.0000000001
 40
0.0
 40
0.0
 40
0.0
 40
0.0
 40
0.0624288223
 40
0.1288259348
 40
0.1984805356
 40
0.2705199856
 40
0.3439552962
 40
0.4177346786
 40
0.4907898795
 40
0.5620857863
 40
0.6306677795
 40
0.6957144037
 40
0.7565970753
 40
0.8129509373
 40
0.8647598615
 40
0.8891028176
 40
0.9125130574
 40
0.9351256914
 40
0.9571094277
 40
0.9786611747
 40
1.0
 40
1.0
 40
1.0
 40
1.0
 10
39.3826170576
 20
47.359999246
 30
0.0
 10
39.3826170576
 20
47.5887099211
 30
0.0
 10
39.3515550385
 20
48.0609849918
 30
0.0
 10
39.2237815229
 20
48.7780487796
 30
0.0
 10
39.0160492212
 20
49.5127723194
 30
0.0
 10
38.7328457115
 20
50.249370937
 30
0.0
 10
38.380204923
 20
50.972164597
 30
0.0
 10
37.9656936819
 20
51.665662693
 30
0.0
 10
37.4981885817
 20
52.3150022563
 30
0.0
 10
36.9876998215
 20
52.906280642
 30
0.0
 10
36.445099379
 20
53.4268725912
 30
0.0
 10
35.8818742732
 20
53.8656932877
 30
0.0
 10
35.3097007176
 20
54.2134082313
 30
0.0
 10
34.7404608026
 20
54.4624696574
 30
0.0
 10
34.2680472409
 20
54.5854668323
 30
0.0
 10
33.9050141109
 20
54.6259729449
 30
0.0
 10
33.6467440074
 20
54.6283343895
 30
0.0
 10
33.3983380008
 20
54.6031661714
 30
0.0
 10
33.1611656546
 20
54.5505778601
 30
0.0
 10
32.9366739701
 20
54.4707471241
 30
0.0
 10
32.7960364214
 20
54.3995379208
 30
0.0
 10
32.7287037556
 20
54.3598169837
 30
0.0
  0
SPLINE
  5
275
100
AcDbEntity
  8
0
100
AcDbSpline
 62
7
  6
BYLAYER
 70
0
 71
3
 72
10
 73
6
 74
0
 42
0.0000001
 43
0.0000001
 44
0.0000000001
 40
0.0
 40
0.0
 40
0.0
 40
0.0
 40
0.4723389907
 40
0.7293290343
 40
1.0
 40
1.0
 40
1.0
 40
1.0
 10
39.0955379545
 20
45.832427226
 30
0.0
 10
39.1951883043
 20
46.0575271136
 30
0.0
 10
39.3023719407
 20
46.4268102663
 30
0.0
 10
39.3713703804
 20
46.9436512874
 30
0.0
 10
39.3826170576
 20
47.2189324734
 30
0.0
 10
39.3826170576
 20
47.359999246
 30
0.0
  0
SPLINE
  5
276
100
AcDbEntity
  8
0
100
AcDbSpline
 62
7
  6
BYLAYER
 70
0
 71
3
 72
32
 73
28
 74
0
 42
0.0000001
 43
0.0000001
 44
0.0000000001
 40
0.0
 40
0.0
 40
0.0
 40
0.0
 40
0.0222226888
 40
0.0440970035
 40
0.065889708
 40
0.0878732751
 40
0.1103086067
 40
0.1334301308
 40
0.1824109034
 40
0.208611957
 40
0.236038583
 40
0.2647253803
 40
0.294671633
 40
0.3258483384
 40
0.3581992382
 40
0.3916473604
 40
0.4260954595
 40
0.4975063523
 40
0.5714131459
 40
0.6466334759
 40
0.7219168697
 40
0.7960080223
 40
0.8677172674
 40
0.9023490932
 40
0.936007529
 40
0.9685938886
 40
1.0
 40
1.0
 40
1.0
 40
1.0
 10
33.3781602021
 20
55.1973887212
 30
0.0
 10
33.4410116675
 20
55.2664903747
 30
0.0
 10
33.5746947011
 20
55.3958018366
 30
0.0
 10
33.7985422884
 20
55.5602939404
 30
0.0
 10
34.0420663659
 20
55.6919610638
 30
0.0
 10
34.3034725438
 20
55.7899127736
 30
0.0
 10
34.5809995458
 20
55.8534943309
 30
0.0
 10
34.9772946064
 20
55.8928799178
 30
0.0
 10
35.3930385539
 20
55.859079654
 30
0.0
 10
35.8136110696
 20
55.7619562421
 30
0.0
 10
36.1428092208
 20
55.6538576827
 30
0.0
 10
36.4763076915
 20
55.5128164296
 30
0.0
 10
36.8121979191
 20
55.3397899196
 30
0.0
 10
37.1483521656
 20
55.1358230961
 30
0.0
 10
37.4827325323
 20
54.9022462581
 30
0.0
 10
37.8132398962
 20
54.6404712073
 30
0.0
 10
38.2512338173
 20
54.2514508834
 30
0.0
 10
38.7748439583
 20
53.7046516634
 30
0.0
 10
39.3485956455
 20
52.9748546445
 30
0.0
 10
39.8612081261
 20
52.181443565
 30
0.0
 10
40.2999805339
 20
51.3440614329
 30
0.0
 10
40.6540634608
 20
50.4834405807
 30
0.0
 10
40.8738676698
 20
49.7560732744
 30
0.0
 10
40.9986143649
 20
49.1807260398
 30
0.0
 10
41.0652652865
 20
48.7617297288
 30
0.0
 10
41.1055956374
 20
48.3530161577
 30
0.0
 10
41.1150244027
 20
48.0839655895
 30
0.0
 10
41.1150244027
 20
47.9519549688
 30
0.0
  0
SPLINE
  5
277
100
AcDbEntity
  8
0
100
AcDbSpline
 62
7
  6
BYLAYER
 70
0
 71
3
 72
18
 73
14
 74
0
 42
0.0000001
 43
0.0000001
 44
0.0000000001
 40
0.0
 40
0.0
 40
0.0
 40
0.0
 40
0.1513502373
 40
0.2929903671
 40
0.4250823069
 40
0.5485765681
 40
0.6651143117
 40
0.7215724933
 40
0.7772494623
 40
0.832531367
 40
0.887818913
 40
0.9435130061
 40
1.0
 40
1.0
 40
1.0
 40
1.0
 10
41.1150244027
 20
47.9519549688
 30
0.0
 10
41.1150244027
 20
47.7606075515
 30
0.0
 10
41.0962801967
 20
47.3897770772
 30
0.0
 10
41.0057954081
 20
46.8586306204
 30
0.0
 10
40.8545590991
 20
46.377849387
 30
0.0
 10
40.6443072875
 20
45.9546153854
 30
0.0
 10
40.4189740244
 20
45.6519767801
 30
0.0
 10
40.2133302864
 20
45.4481609588
 30
0.0
 10
40.0483066896
 20
45.3150023991
 30
0.0
 10
39.8715723372
 20
45.2005405245
 30
0.0
 10
39.683761731
 20
45.1052701108
 30
0.0
 10
39.485672214
 20
45.0295047404
 30
0.0
 10
39.3484612924
 20
44.9925218333
 30
0.0
 10
39.2786823864
 20
44.9773240778
 30
0.0
  0
SPLINE
  5
278
100
AcDbEntity
  8
0
100
AcDbSpline
 62
7
  6
BYLAYER
 70
0
 71
3
 72
33
 73
29
 74
0
 42
0.0000001
 43
0.0000001
 44
0.0000000001
 40
0.0
 40
0.0
 40
0.0
 40
0.0
 40
0.030661861
 40
0.0623951519
 40
0.0951131631
 40
0.1287376645
 40
0.1631793822
 40
0.1983317293
 40
0.2702884026
 40
0.3436457102
 40
0.4173572136
 40
0.4903615867
 40
0.5616286925
 40
0.6302075152
 40
0.6632373625
 40
0.695301976
 40
0.7263290321
 40
0.7562628954
 40
0.7850657866
 40
0.812722453
 40
0.8392407107
 40
0.8646571903
 40
0.8890373867
 40
0.9124807339
 40
0.935119334
 40
0.9571188597
 40
0.9786736128
 40
1.0
 40
1.0
 40
1.0
 40
1.0
 10
43.5899172726
 20
45.2983849654
 30
0.0
 10
43.5899172726
 20
45.5227443481
 30
0.0
 10
43.5750922102
 20
45.9794052227
 30
0.0
 10
43.5113883398
 20
46.6728054688
 30
0.0
 10
43.4060402151
 20
47.3830322283
 30
0.0
 10
43.2597064643
 20
48.1061494806
 30
0.0
 10
43.0731545124
 20
48.8383393291
 30
0.0
 10
42.7698177012
 20
49.8290195213
 30
0.0
 10
42.2960981642
 20
51.0636993557
 30
0.0
 10
41.5938135812
 20
52.5063883932
 30
0.0
 10
40.7681196139
 20
53.8911618379
 30
0.0
 10
39.8366576987
 20
55.1884143525
 30
0.0
 10
38.8193444974
 20
56.3704221524
 30
0.0
 10
37.9066086745
 20
57.2494962475
 30
0.0
 10
37.1510933533
 20
57.8713411997
 30
0.0
 10
36.584200675
 20
58.2883030928
 30
0.0
 10
36.0130755363
 20
58.6593859809
 30
0.0
 10
35.4407678516
 20
58.9826125577
 30
0.0
 10
34.8703087554
 20
59.2561909179
 30
0.0
 10
34.3047554298
 20
59.4786779747
 30
0.0
 10
33.7470752124
 20
59.6487633251
 30
0.0
 10
33.2002499213
 20
59.7655462404
 30
0.0
 10
32.6671632103
 20
59.8282059043
 30
0.0
 10
32.1506876734
 20
59.8363632277
 30
0.0
 10
31.653647286
 20
59.7897294206
 30
0.0
 10
31.1788031762
 20
59.6884576679
 30
0.0
 10
30.7290011887
 20
59.5329615489
 30
0.0
 10
30.4468799126
 20
59.393348394
 30
0.0
 10
30.311739254
 20
59.3153194243
 30
0.0
  0
SPLINE
  5
279
100
AcDbEntity
  8
0
100
AcDbSpline
 62
7
  6
BYLAYER
 70
0
 71
3
 72
11
 73
7
 74
0
 42
0.0000001
 43
0.0000001
 44
0.0000000001
 40
0.0
 40
0.0
 40
0.0
 40
0.0
 40
0.2552391079
 40
0.5039566794
 40
0.7506485108
 40
1.0
 40
1.0
 40
1.0
 40
1.0
 10
41.2455896539
 20
42.8267908635
 30
0.0
 10
41.139580593
 20
42.6871891042
 30
0.0
 10
40.9090614205
 20
42.4267552026
 30
0.0
 10
40.5070626311
 20
42.1002707293
 30
0.0
 10
40.0590697454
 20
41.8485078266
 30
0.0
 10
39.7364029082
 20
41.7336128835
 30
0.0
 10
39.5709947662
 20
41.6892786532
 30
0.0
  0
SPLINE
  5
27A
100
AcDbEntity
  8
0
100
AcDbSpline
 62
7
  6
BYLAYER
 70
0
 71
3
 72
22
 73
18
 74
0
 42
0.0000001
 43
0.0000001
 44
0.0000000001
 40
0.0
 40
0.0
 40
0.0
 40
0.0
 40
0.0771321092
 40
0.1517409245
 40
0.2930770967
 40
0.3599754457
 40
0.424478457
 40
0.4867511869
 40
0.5470165879
 40
0.6055602271
 40
0.6627198818
 40
0.7188830995
 40
0.7744727023
 40
0.8299357664
 40
0.8857237778
 40
0.9422756213
 40
1.0
 40
1.0
 40
1.0
 40
1.0
 10
29.4477227697
 20
53.4632000558
 30
0.0
 10
29.4477227697
 20
53.617268718
 30
0.0
 10
29.4559969065
 20
53.9204743278
 30
0.0
 10
29.5064197584
 20
54.5038997212
 30
0.0
 10
29.6075441233
 20
55.0618984946
 30
0.0
 10
29.7639262822
 20
55.5842264019
 30
0.0
 10
29.9039061084
 20
55.945346771
 30
0.0
 10
30.0681529125
 20
56.2814463514
 30
0.0
 10
30.2561067078
 20
56.5911042381
 30
0.0
 10
30.4669771315
 20
56.873040639
 30
0.0
 10
30.7000078793
 20
57.125981089
 30
0.0
 10
30.9541764209
 20
57.3488719311
 30
0.0
 10
31.2284810658
 20
57.5406381841
 30
0.0
 10
31.5216793619
 20
57.7004878069
 30
0.0
 10
31.8325262668
 20
57.827678154
 30
0.0
 10
32.1595944093
 20
57.92170346
 30
0.0
 10
32.3848241921
 20
57.96157296
 30
0.0
 10
32.4992145833
 20
57.9760464985
 30
0.0
  0
SPLINE
  5
27B
100
AcDbEntity
  8
0
100
AcDbSpline
 62
7
  6
BYLAYER
 70
0
 71
3
 72
18
 73
14
 74
0
 42
0.0000001
 43
0.0000001
 44
0.0000000001
 40
0.0
 40
0.0
 40
0.0
 40
0.0
 40
0.0539108665
 40
0.1080799297
 40
0.1627599598
 40
0.2181908539
 40
0.2745959069
 40
0.3321795181
 40
0.4515054571
 40
0.5773924411
 40
0.7105716448
 40
0.8514509545
 40
1.0
 40
1.0
 40
1.0
 40
1.0
 10
41.311681338
 20
40.2627471059
 30
0.0
 10
41.4017201932
 20
40.3147347103
 30
0.0
 10
41.577880262
 20
40.4267055514
 30
0.0
 10
41.8278697674
 20
40.6171118667
 30
0.0
 10
42.0632568521
 20
40.8297189439
 30
0.0
 10
42.2834732091
 20
41.0639230187
 30
0.0
 10
42.4880002324
 20
41.3191580887
 30
0.0
 10
42.7420456115
 20
41.690983832
 30
0.0
 10
43.017301842
 20
42.2083606182
 30
0.0
 10
43.2731795072
 20
42.8937013729
 30
0.0
 10
43.4568750215
 20
43.644478998
 30
0.0
 10
43.5668203404
 20
44.4533380666
 30
0.0
 10
43.5899172726
 20
45.0119008785
 30
0.0
 10
43.5899172726
 20
45.2983849654
 30
0.0
  0
SPLINE
  5
27C
100
AcDbEntity
  8
0
100
AcDbSpline
 62
7
  6
BYLAYER
 70
0
 71
3
 72
15
 73
11
 74
0
 42
0.0000001
 43
0.0000001
 44
0.0000000001
 40
0.0
 40
0.0
 40
0.0
 40
0.0
 40
0.1485639735
 40
0.2895079081
 40
0.4227268722
 40
0.5486379104
 40
0.6680003772
 40
0.7819371438
 40
0.8919854664
 40
1.0
 40
1.0
 40
1.0
 40
1.0
 10
43.8020410639
 20
21.9463918332
 30
0.0
 10
43.8020410639
 20
21.6925062067
 30
0.0
 10
43.7815367305
 20
21.1974181954
 30
0.0
 10
43.684132655
 20
20.4804574498
 30
0.0
 10
43.5213209387
 20
19.8149721621
 30
0.0
 10
43.2944228076
 20
19.2074864925
 30
0.0
 10
43.0052879621
 20
18.6637595637
 30
0.0
 10
42.6559883047
 20
18.1894295302
 30
0.0
 10
42.2499095716
 20
17.7897376005
 30
0.0
 10
41.9425439744
 20
17.5752986963
 30
0.0
 10
41.7826906142
 20
17.4829940012
 30
0.0
  0
SPLINE
  5
27D
100
AcDbEntity
  8
0
100
AcDbSpline
 62
7
  6
BYLAYER
 70
0
 71
3
 72
14
 73
10
 74
0
 42
0.0000001
 43
0.0000001
 44
0.0000000001
 40
0.0
 40
0.0
 40
0.0
 40
0.0
 40
0.1087929481
 40
0.2195132364
 40
0.3339172261
 40
0.4534766058
 40
0.5793164613
 40
0.7121765717
 40
1.0
 40
1.0
 40
1.0
 40
1.0
 10
29.7319746873
 20
25.5365897882
 30
0.0
 10
29.7835287877
 20
25.5663538126
 30
0.0
 10
29.8927293847
 20
25.6178998029
 30
0.0
 10
30.0691498018
 20
25.6681825519
 30
0.0
 10
30.2570071952
 20
25.6915567039
 30
0.0
 10
30.4544485046
 20
25.6878554449
 30
0.0
 10
30.6596920636
 20
25.6572843786
 30
0.0
 10
30.9488994368
 20
25.5792776754
 30
0.0
 10
31.1605172193
 20
25.4841410629
 30
0.0
 10
31.2986330915
 20
25.4084617112
 30
0.0
  0
SPLINE
  5
27E
100
AcDbEntity
  8
0
100
AcDbSpline
 62
7
  6
BYLAYER
 70
0
 71
3
 72
23
 73
19
 74
0
 42
0.0000001
 43
0.0000001
 44
0.0000000001
 40
0.0
 40
0.0
 40
0.0
 40
0.0
 40
0.0428124271
 40
0.087394387
 40
0.1351778957
 40
0.187085988
 40
0.2435330835
 40
0.3044905223
 40
0.3695868042
 40
0.438195048
 40
0.5094922771
 40
0.5825266224
 40
0.6562682289
 40
0.7296588569
 40
0.8016473236
 40
0.8712453108
 40
0.937626718
 40
1.0
 40
1.0
 40
1.0
 40
1.0
 10
8.5919039813
 20
37.248741281
 30
0.0
 10
8.65969932
 20
37.2878820178
 30
0.0
 10
8.8091406686
 20
37.350006838
 30
0.0
 10
9.0558406618
 20
37.386164595
 30
0.0
 10
9.3207532803
 20
37.3666446164
 30
0.0
 10
9.5980111234
 20
37.293007713
 30
0.0
 10
9.882152096
 20
37.1674222316
 30
0.0
 10
10.1675215629
 20
36.99282241
 30
0.0
 10
10.4483499668
 20
36.7729960865
 30
0.0
 10
10.7187671568
 20
36.5125513158
 30
0.0
 10
10.9730990666
 20
36.2170334969
 30
0.0
 10
11.2059744799
 20
35.8927439232
 30
0.0
 10
11.4123928852
 20
35.5465549936
 30
0.0
 10
11.5879568524
 20
35.1858612662
 30
0.0
 10
11.7289704212
 20
34.8183911663
 30
0.0
 10
11.8324012939
 20
34.4518471922
 30
0.0
 10
11.8959409988
 20
34.0941542499
 30
0.0
 10
11.911440152
 20
33.8585721324
 30
0.0
 10
11.911440152
 20
33.7445221041
 30
0.0
  0
SPLINE
  5
27F
100
AcDbEntity
  8
0
100
AcDbSpline
 62
7
  6
BYLAYER
 70
0
 71
3
 72
15
 73
11
 74
0
 42
0.0000001
 43
0.0000001
 44
0.0000000001
 40
0.0
 40
0.0
 40
0.0
 40
0.0
 40
0.1080099503
 40
0.2180566821
 40
0.3320004537
 40
0.4513514762
 40
0.5772562418
 40
0.7104987888
 40
0.8514748617
 40
1.0
 40
1.0
 40
1.0
 40
1.0
 10
7.2169039264
 20
39.6303254515
 30
0.0
 10
7.1267303697
 20
39.5782652395
 30
0.0
 10
6.9533807991
 20
39.4572627429
 30
0.0
 10
6.7242572021
 20
39.2318487016
 30
0.0
 10
6.5272964832
 20
38.9642264738
 30
0.0
 10
6.3641103805
 20
38.6575705116
 30
0.0
 10
6.236157955
 20
38.3148609991
 30
0.0
 10
6.1442825311
 20
37.9394205646
 30
0.0
 10
6.0893830221
 20
37.5349586511
 30
0.0
 10
6.0777849195
 20
37.2556880815
 30
0.0
 10
6.0777849195
 20
37.1125083289
 30
0.0
  0
SPLINE
  5
280
100
AcDbEntity
  8
0
100
AcDbSpline
 62
7
  6
BYLAYER
 70
0
 71
3
 72
23
 73
19
 74
0
 42
0.0000001
 43
0.0000001
 44
0.0000000001
 40
0.0
 40
0.0
 40
0.0
 40
0.0
 40
0.0428124271
 40
0.087394387
 40
0.1351778957
 40
0.187085988
 40
0.2435330835
 40
0.3044905223
 40
0.3695868042
 40
0.438195048
 40
0.5094922771
 40
0.5825266224
 40
0.6562682289
 40
0.7296588569
 40
0.8016473236
 40
0.8712453108
 40
0.937626718
 40
1.0
 40
1.0
 40
1.0
 40
1.0
 10
29.8051957357
 20
49.4965911593
 30
0.0
 10
29.8729910744
 20
49.5357318961
 30
0.0
 10
30.022432423
 20
49.5978567163
 30
0.0
 10
30.2691324162
 20
49.6340144733
 30
0.0
 10
30.5340450347
 20
49.6144944946
 30
0.0
 10
30.8113028778
 20
49.5408575912
 30
0.0
 10
31.0954438504
 20
49.4152721099
 30
0.0
 10
31.3808133173
 20
49.2406722883
 30
0.0
 10
31.6616417212
 20
49.0208459648
 30
0.0
 10
31.9320589112
 20
48.7604011941
 30
0.0
 10
32.186390821
 20
48.4648833752
 30
0.0
 10
32.4192662343
 20
48.1405938015
 30
0.0
 10
32.6256846396
 20
47.7944048719
 30
0.0
 10
32.8012486068
 20
47.4337111445
 30
0.0
 10
32.9422621756
 20
47.0662410446
 30
0.0
 10
33.0456930483
 20
46.6996970705
 30
0.0
 10
33.1092327532
 20
46.3420041282
 30
0.0
 10
33.1247319064
 20
46.1064220107
 30
0.0
 10
33.1247319064
 20
45.9923719823
 30
0.0
  0
SPLINE
  5
281
100
AcDbEntity
  8
0
100
AcDbSpline
 62
7
  6
BYLAYER
 70
0
 71
3
 72
25
 73
21
 74
0
 42
0.0000001
 43
0.0000001
 44
0.0000000001
 40
0.0
 40
0.0
 40
0.0
 40
0.0
 40
0.0213322451
 40
0.0428931654
 40
0.0648987179
 40
0.0875442887
 40
0.1353194831
 40
0.1872202642
 40
0.2436582607
 40
0.3046056757
 40
0.3696920876
 40
0.4382882603
 40
0.5095742522
 40
0.5825983122
 40
0.6563285518
 40
0.7297047051
 40
0.8016828597
 40
0.8712695705
 40
0.9376259717
 40
1.0
 40
1.0
 40
1.0
 40
1.0
 10
32.5313976056
 20
54.2459919886
 30
0.0
 10
32.5989702822
 20
54.2850027373
 30
0.0
 10
32.7400437336
 20
54.3547869233
 30
0.0
 10
32.964936705
 20
54.4325471262
 30
0.0
 10
33.2023720235
 20
54.4832026945
 30
0.0
 10
33.5396099629
 20
54.5148099806
 30
0.0
 10
33.9892448643
 20
54.4818290133
 30
0.0
 10
34.543631305
 20
54.3344836594
 30
0.0
 10
35.1119496618
 20
54.0833179696
 30
0.0
 10
35.6826881345
 20
53.7341251429
 30
0.0
 10
36.2443238013
 20
53.2944443125
 30
0.0
 10
36.7851749268
 20
52.7735747577
 30
0.0
 10
37.2938483786
 20
52.1825393432
 30
0.0
 10
37.7595606986
 20
51.5339212028
 30
0.0
 10
38.1724115376
 20
50.8415564827
 30
0.0
 10
38.5235831601
 20
50.1201896146
 30
0.0
 10
38.8055314456
 20
49.3852222751
 30
0.0
 10
39.012390462
 20
48.6521869628
 30
0.0
 10
39.139533704
 20
47.9368219068
 30
0.0
 10
39.1704859064
 20
47.4656658576
 30
0.0
 10
39.1704859064
 20
47.2375259999
 30
0.0
  0
SPLINE
  5
282
100
AcDbEntity
  8
0
100
AcDbSpline
 62
7
  6
BYLAYER
 70
0
 71
3
 72
15
 73
11
 74
0
 42
0.0000001
 43
0.0000001
 44
0.0000000001
 40
0.0
 40
0.0
 40
0.0
 40
0.0
 40
0.1080131067
 40
0.2180602996
 40
0.3319962974
 40
0.4513582379
 40
0.5772689405
 40
0.7104887362
 40
0.8514351018
 40
1.0
 40
1.0
 40
1.0
 40
1.0
 10
24.0071232957
 20
29.7369132648
 30
0.0
 10
23.8472719763
 20
29.6446099311
 30
0.0
 10
23.5399097611
 20
29.4301739525
 30
0.0
 10
23.1338342088
 20
29.0304869568
 30
0.0
 10
22.7845360009
 20
28.5561611787
 30
0.0
 10
22.4953989285
 20
28.0124386258
 30
0.0
 10
22.2684993176
 20
27.4049535883
 30
0.0
 10
22.1056829322
 20
26.7394642518
 30
0.0
 10
22.0082795536
 20
26.0224961748
 30
0.0
 10
21.9877728711
 20
25.5274025931
 30
0.0
 10
21.9877728711
 20
25.2735153999
 30
0.0
  0
SPLINE
  5
283
100
AcDbEntity
  8
0
100
AcDbSpline
 62
7
  6
BYLAYER
 70
0
 71
3
 72
14
 73
10
 74
0
 42
0.0000001
 43
0.0000001
 44
0.0000000001
 40
0.0
 40
0.0
 40
0.0
 40
0.0
 40
0.2892456809
 40
0.4225677902
 40
0.548515718
 40
0.6678917673
 40
0.7818656847
 40
0.8919553443
 40
1.0
 40
1.0
 40
1.0
 40
1.0
 10
33.1247319064
 20
45.9923719823
 30
0.0
 10
33.1247319064
 20
45.8529991728
 30
0.0
 10
33.1084344935
 20
45.6483885365
 30
0.0
 10
33.0455631677
 20
45.3912086274
 30
0.0
 10
32.981558649
 20
45.2198339677
 30
0.0
 10
32.8999901233
 20
45.0665041681
 30
0.0
 10
32.8014646209
 20
44.9327371509
 30
0.0
 10
32.6869580205
 20
44.819973234
 30
0.0
 10
32.6002512053
 20
44.7595071135
 30
0.0
 10
32.5551645887
 20
44.7334769553
 30
0.0
  0
SPLINE
  5
284
100
AcDbEntity
  8
0
100
AcDbSpline
 62
7
  6
BYLAYER
 70
0
 71
3
 72
14
 73
10
 74
0
 42
0.0000001
 43
0.0000001
 44
0.0000000001
 40
0.0
 40
0.0
 40
0.0
 40
0.0
 40
0.28521525
 40
0.4173484702
 40
0.5429417605
 40
0.6627900872
 40
0.7779809162
 40
0.8898552738
 40
1.0
 40
1.0
 40
1.0
 40
1.0
 10
33.6492154324
 20
21.2098324432
 30
0.0
 10
33.6399357448
 20
21.0653173849
 30
0.0
 10
33.6097598871
 20
20.8539359328
 30
0.0
 10
33.5288095903
 20
20.5899663187
 30
0.0
 10
33.4522338432
 20
20.4137119272
 30
0.0
 10
33.3587020584
 20
20.2557035658
 30
0.0
 10
33.2489316697
 20
20.1171971636
 30
0.0
 10
33.1237748223
 20
19.9994696921
 30
0.0
 10
33.0303693933
 20
19.9354168058
 30
0.0
 10
32.9819375558
 20
19.9074553755
 30
0.0
  0
SPLINE
  5
285
100
AcDbEntity
  8
0
100
AcDbSpline
 62
7
  6
BYLAYER
 70
0
 71
3
 72
15
 73
11
 74
0
 42
0.0000001
 43
0.0000001
 44
0.0000000001
 40
0.0
 40
0.0
 40
0.0
 40
0.0
 40
0.1485541119
 40
0.2895076663
 40
0.4227309912
 40
0.5486390237
 40
0.6680003354
 40
0.7819387324
 40
0.8919869439
 40
1.0
 40
1.0
 40
1.0
 40
1.0
 10
34.2207711162
 20
18.2109503467
 30
0.0
 10
34.2207711162
 20
18.014364902
 30
0.0
 10
34.2048817092
 20
17.6309906438
 30
0.0
 10
34.1294752301
 20
17.0757976465
 30
0.0
 10
34.0033868272
 20
16.5604619366
 30
0.0
 10
33.8276968139
 20
16.0900453999
 30
0.0
 10
33.6037826874
 20
15.6690204038
 30
0.0
 10
33.3333122805
 20
15.3017106704
 30
0.0
 10
33.0188665932
 20
14.992199072
 30
0.0
 10
32.7808498426
 20
14.8261563257
 30
0.0
 10
32.6570631285
 20
14.7546883405
 30
0.0
  0
SPLINE
  5
286
100
AcDbEntity
  8
0
100
AcDbSpline
 62
7
  6
BYLAYER
 70
0
 71
3
 72
26
 73
22
 74
0
 42
0.0000001
 43
0.0000001
 44
0.0000000001
 40
0.0
 40
0.0
 40
0.0
 40
0.0
 40
0.0623771765
 40
0.1287158565
 40
0.1983024904
 40
0.2702746889
 40
0.3436469124
 40
0.4173749632
 40
0.4903954833
 40
0.5616780994
 40
0.630271294
 40
0.6953547061
 40
0.7562982036
 40
0.8127316938
 40
0.8646288778
 40
0.8890144817
 40
0.9124622053
 40
0.9351058175
 40
0.95710971
 40
0.9786690842
 40
1.0
 40
1.0
 40
1.0
 40
1.0
 10
21.9877728711
 20
25.2735153999
 30
0.0
 10
21.9877728711
 20
24.8690398474
 30
0.0
 10
22.0425845086
 20
24.0338452917
 30
0.0
 10
22.2680504847
 20
22.7657254579
 30
0.0
 10
22.6346881139
 20
21.4663089492
 30
0.0
 10
23.1345428188
 20
20.1634001997
 30
0.0
 10
23.7570627457
 20
18.8845979769
 30
0.0
 10
24.4889218075
 20
17.6571839165
 30
0.0
 10
25.3145347763
 20
16.5073456317
 30
0.0
 10
26.2162964439
 20
15.4595936222
 30
0.0
 10
27.175087798
 20
14.5362042516
 30
0.0
 10
28.1706963602
 20
13.756753505
 30
0.0
 10
29.1825613565
 20
13.137749811
 30
0.0
 10
30.1897489092
 20
12.6925368591
 30
0.0
 10
31.0260997542
 20
12.4704737079
 30
0.0
 10
31.6692885602
 20
12.3947869099
 30
0.0
 10
32.1270891423
 20
12.3876214201
 30
0.0
 10
32.567645973
 20
12.4288940759
 30
0.0
 10
32.9885231197
 20
12.5187061566
 30
0.0
 10
33.3872195022
 20
12.6564998291
 30
0.0
 10
33.6372801726
 20
12.7802568615
 30
0.0
 10
33.7570620869
 20
12.8494228218
 30
0.0
  0
SPLINE
  5
287
100
AcDbEntity
  8
0
100
AcDbSpline
 62
7
  6
BYLAYER
 70
0
 71
3
 72
14
 73
10
 74
0
 42
0.0000001
 43
0.0000001
 44
0.0000000001
 40
0.0
 40
0.0
 40
0.0
 40
0.0
 40
0.2892456809
 40
0.4225677902
 40
0.548515718
 40
0.6678917673
 40
0.7818656847
 40
0.8919553443
 40
1.0
 40
1.0
 40
1.0
 40
1.0
 10
11.911440152
 20
33.7445221041
 30
0.0
 10
11.911440152
 20
33.6051492945
 30
0.0
 10
11.8951427391
 20
33.4005386582
 30
0.0
 10
11.8322714133
 20
33.1433587491
 30
0.0
 10
11.7682668946
 20
32.9719840894
 30
0.0
 10
11.6866983689
 20
32.8186542898
 30
0.0
 10
11.5881728665
 20
32.6848872727
 30
0.0
 10
11.4736662661
 20
32.5721233557
 30
0.0
 10
11.3869594509
 20
32.5116572353
 30
0.0
 10
11.3418728343
 20
32.485627077
 30
0.0
  0
SPLINE
  5
288
100
AcDbEntity
  8
0
100
AcDbSpline
 62
7
  6
BYLAYER
 70
0
 71
3
 72
18
 73
14
 74
0
 42
0.0000001
 43
0.0000001
 44
0.0000000001
 40
0.0
 40
0.0
 40
0.0
 40
0.0
 40
0.0551863548
 40
0.1126754418
 40
0.172230687
 40
0.2336304042
 40
0.3608318521
 40
0.4918669361
 40
0.6240155182
 40
0.7544856565
 40
0.8805855184
 40
0.9412838671
 40
1.0
 40
1.0
 40
1.0
 40
1.0
 10
31.4630216971
 20
30.7441577719
 30
0.0
 10
31.6726230627
 20
30.6231471047
 30
0.0
 10
32.0909421259
 20
30.3590902742
 30
0.0
 10
32.7000607291
 20
29.9115165003
 30
0.0
 10
33.299330596
 20
29.4073543553
 30
0.0
 10
34.0879346037
 20
28.6565213531
 30
0.0
 10
35.016654006
 20
27.6022444261
 30
0.0
 10
36.0071664437
 20
26.2021640531
 30
0.0
 10
36.8562940908
 20
24.6954691173
 30
0.0
 10
37.5373408854
 20
23.1293961841
 30
0.0
 10
37.9527942704
 20
21.7979817847
 30
0.0
 10
38.1800729212
 20
20.7449532876
 30
0.0
 10
38.2582222552
 20
20.2266502908
 30
0.0
 10
38.2878082915
 20
19.9708499305
 30
0.0
  0
SPLINE
  5
289
100
AcDbEntity
  8
0
100
AcDbSpline
 62
7
  6
BYLAYER
 70
0
 71
3
 72
11
 73
7
 74
0
 42
0.0000001
 43
0.0000001
 44
0.0000000001
 40
0.0
 40
0.0
 40
0.0
 40
0.0
 40
0.2403142579
 40
0.484698841
 40
0.7368799871
 40
1.0
 40
1.0
 40
1.0
 40
1.0
 10
32.5551645887
 20
44.7334769553
 30
0.0
 10
32.5125322751
 20
44.7088637562
 30
0.0
 10
32.4223679126
 20
44.666094032
 30
0.0
 10
32.2768696249
 20
44.6237557867
 30
0.0
 10
32.1220797282
 20
44.6031523555
 30
0.0
 10
32.0161587856
 20
44.6039698402
 30
0.0
 10
31.9623918514
 20
44.6077395012
 30
0.0
  0
SPLINE
  5
28A
100
AcDbEntity
  8
0
100
AcDbSpline
 62
7
  6
BYLAYER
 70
0
 71
3
 72
15
 73
11
 74
0
 42
0.0000001
 43
0.0000001
 44
0.0000000001
 40
0.0
 40
0.0
 40
0.0
 40
0.0
 40
0.1080099503
 40
0.2180566821
 40
0.3320004537
 40
0.4513514762
 40
0.5772562418
 40
0.7104987888
 40
0.8514748617
 40
1.0
 40
1.0
 40
1.0
 40
1.0
 10
33.9301646436
 20
42.3518927847
 30
0.0
 10
34.0203382004
 20
42.4039529968
 30
0.0
 10
34.193687771
 20
42.5249554933
 30
0.0
 10
34.422811368
 20
42.7503695346
 30
0.0
 10
34.6197720869
 20
43.0179917625
 30
0.0
 10
34.7829581896
 20
43.3246477246
 30
0.0
 10
34.9109106151
 20
43.6673572371
 30
0.0
 10
35.002786039
 20
44.0427976717
 30
0.0
 10
35.057685548
 20
44.4472595851
 30
0.0
 10
35.0692836506
 20
44.7265301548
 30
0.0
 10
35.0692836506
 20
44.8697099074
 30
0.0
  0
SPLINE
  5
28B
100
AcDbEntity
  8
0
100
AcDbSpline
 62
7
  6
BYLAYER
 70
0
 71
3
 72
19
 73
15
 74
0
 42
0.0000001
 43
0.0000001
 44
0.0000000001
 40
0.0
 40
0.0
 40
0.0
 40
0.0
 40
0.0527506838
 40
0.108541834
 40
0.167135167
 40
0.2282742153
 40
0.3566910239
 40
0.4904358412
 40
0.6255444465
 40
0.757925566
 40
0.8219037258
 40
0.8838136786
 40
0.943301588
 40
1.0
 40
1.0
 40
1.0
 40
1.0
 10
9.6987736152
 20
39.7940407625
 30
0.0
 10
9.8401439602
 20
39.7357838099
 30
0.0
 10
10.1245288734
 20
39.5996978056
 30
0.0
 10
10.5401647217
 20
39.3496227651
 30
0.0
 10
10.9523697231
 20
39.0503743143
 30
0.0
 10
11.4999294243
 20
38.583023738
 30
0.0
 10
12.1438322126
 20
37.8976939869
 30
0.0
 10
12.8198127577
 20
36.9618994898
 30
0.0
 10
13.3819718703
 20
35.9405343623
 30
0.0
 10
13.7389508785
 20
35.0453756792
 30
0.0
 10
13.9448023241
 20
34.3250822207
 30
0.0
 10
14.0554890867
 20
33.7987509028
 30
0.0
 10
14.1228127798
 20
33.2864209333
 30
0.0
 10
14.138833431
 20
32.9495039859
 30
0.0
 10
14.138833431
 20
32.7851576907
 30
0.0
  0
SPLINE
  5
28C
100
AcDbEntity
  8
0
100
AcDbSpline
 62
7
  6
BYLAYER
 70
0
 71
3
 72
25
 73
21
 74
0
 42
0.0000001
 43
0.0000001
 44
0.0000000001
 40
0.0
 40
0.0
 40
0.0
 40
0.0
 40
0.0623734683
 40
0.1287285069
 40
0.1983146199
 40
0.2702924125
 40
0.3436686806
 40
0.4173997349
 40
0.4904250045
 40
0.5617123476
 40
0.6303095889
 40
0.6953965811
 40
0.7563441041
 40
0.812781803
 40
0.8646820157
 40
0.9124565551
 40
0.9351018234
 40
0.9571071201
 40
0.9786678749
 40
1.0
 40
1.0
 40
1.0
 40
1.0
 10
35.0692836506
 20
44.8697099074
 30
0.0
 10
35.0692836506
 20
45.0978477208
 30
0.0
 10
35.0383337364
 20
45.5689968565
 30
0.0
 10
34.9111919388
 20
46.2843528419
 30
0.0
 10
34.7043374185
 20
47.0173804978
 30
0.0
 10
34.4223935877
 20
47.7523462462
 30
0.0
 10
34.0712236648
 20
48.473716313
 30
0.0
 10
33.6583698554
 20
49.1660884449
 30
0.0
 10
33.1926509425
 20
49.8147170709
 30
0.0
 10
32.6839694164
 20
50.4057631518
 30
0.0
 10
32.1431091838
 20
50.9266392071
 30
0.0
 10
31.5814670632
 20
51.3663222614
 30
0.0
 10
31.0107258676
 20
51.7155135454
 30
0.0
 10
30.4424084873
 20
51.9666745293
 30
0.0
 10
29.8880266718
 20
52.1140157868
 30
0.0
 10
29.4383973207
 20
52.146993529
 30
0.0
 10
29.1011637547
 20
52.1153861851
 30
0.0
 10
28.8637316989
 20
52.0647283038
 30
0.0
 10
28.6388400786
 20
51.9869706607
 30
0.0
 10
28.4977674506
 20
51.9171867738
 30
0.0
 10
28.4301956808
 20
51.8781753298
 30
0.0
  0
SPLINE
  5
28D
100
AcDbEntity
  8
0
100
AcDbSpline
 62
7
  6
BYLAYER
 70
0
 71
3
 72
11
 73
7
 74
0
 42
0.0000001
 43
0.0000001
 44
0.0000000001
 40
0.0
 40
0.0
 40
0.0
 40
0.0
 40
0.2649406866
 40
0.5174868783
 40
0.7611001395
 40
1.0
 40
1.0
 40
1.0
 40
1.0
 10
29.3774506426
 20
48.9975989887
 30
0.0
 10
29.4011565127
 20
49.0516065682
 30
0.0
 10
29.4543894049
 20
49.15427142
 30
0.0
 10
29.5541292001
 20
49.2920590261
 30
0.0
 10
29.6706190992
 20
49.408025573
 30
0.0
 10
29.7591367535
 20
49.4699996186
 30
0.0
 10
29.8051957357
 20
49.4965911593
 30
0.0
  0
SPLINE
  5
28E
100
AcDbEntity
  8
0
100
AcDbSpline
 62
7
  6
BYLAYER
 70
0
 71
3
 72
15
 73
11
 74
0
 42
0.0000001
 43
0.0000001
 44
0.0000000001
 40
0.0
 40
0.0
 40
0.0
 40
0.0
 40
0.1080099503
 40
0.2180566821
 40
0.3320004537
 40
0.4513514762
 40
0.5772562418
 40
0.7104987888
 40
0.8514748617
 40
1.0
 40
1.0
 40
1.0
 40
1.0
 10
12.7168728892
 20
30.1040429065
 30
0.0
 10
12.807046446
 20
30.1561031185
 30
0.0
 10
12.9803960166
 20
30.277105615
 30
0.0
 10
13.2095196136
 20
30.5025196563
 30
0.0
 10
13.4064803324
 20
30.7701418842
 30
0.0
 10
13.5696664352
 20
31.0767978463
 30
0.0
 10
13.6976188607
 20
31.4195073588
 30
0.0
 10
13.7894942846
 20
31.7949477934
 30
0.0
 10
13.8443937936
 20
32.1994097068
 30
0.0
 10
13.8559918961
 20
32.4786802765
 30
0.0
 10
13.8559918961
 20
32.6218600291
 30
0.0
  0
SPLINE
  5
28F
100
AcDbEntity
  8
0
100
AcDbSpline
 62
7
  6
BYLAYER
 70
0
 71
3
 72
11
 73
7
 74
0
 42
0.0000001
 43
0.0000001
 44
0.0000000001
 40
0.0
 40
0.0
 40
0.0
 40
0.0
 40
0.2403142579
 40
0.484698841
 40
0.7368799871
 40
1.0
 40
1.0
 40
1.0
 40
1.0
 10
11.3418728343
 20
32.485627077
 30
0.0
 10
11.2992405207
 20
32.4610138779
 30
0.0
 10
11.2090761582
 20
32.4182441537
 30
0.0
 10
11.0635778705
 20
32.3759059084
 30
0.0
 10
10.9087879738
 20
32.3553024772
 30
0.0
 10
10.8028670311
 20
32.3561199619
 30
0.0
 10
10.7491000969
 20
32.3598896229
 30
0.0
  0
SPLINE
  5
290
100
AcDbEntity
  8
0
100
AcDbSpline
 62
7
  6
BYLAYER
 70
0
 71
3
 72
24
 73
20
 74
0
 42
0.0000001
 43
0.0000001
 44
0.0000000001
 40
0.0
 40
0.0
 40
0.0
 40
0.0
 40
0.0213329623
 40
0.0428944886
 40
0.0874730604
 40
0.1352526096
 40
0.1871562256
 40
0.2435984281
 40
0.3045505101
 40
0.3696410459
 40
0.4382432172
 40
0.5095343917
 40
0.5825627264
 40
0.6562981404
 40
0.7296822559
 40
0.8016642724
 40
0.8712563701
 40
0.9376321054
 40
1.0
 40
1.0
 40
1.0
 40
1.0
 10
32.9819375558
 20
19.9074553755
 30
0.0
 10
32.9420103386
 20
19.8844039662
 30
0.0
 10
32.8586594752
 20
19.8431395726
 30
0.0
 10
32.6796028489
 20
19.7812198383
 30
0.0
 10
32.4335580997
 20
19.7449873008
 30
0.0
 10
32.1205904623
 20
19.7681333673
 30
0.0
 10
31.7928885637
 20
19.8551367125
 30
0.0
 10
31.4570969448
 20
20.0035638017
 30
0.0
 10
31.1198399179
 20
20.2099065408
 30
0.0
 10
30.7879539847
 20
20.469701542
 30
0.0
 10
30.4683705492
 20
20.7774993137
 30
0.0
 10
30.1677967499
 20
21.1267479292
 30
0.0
 10
29.8925798523
 20
21.5099998138
 30
0.0
 10
29.6486313847
 20
21.9191326645
 30
0.0
 10
29.441146751
 20
22.3454059701
 30
0.0
 10
29.2744953479
 20
22.7796880234
 30
0.0
 10
29.152259188
 20
23.2128757988
 30
0.0
 10
29.0771664004
 20
23.6356036963
 30
0.0
 10
29.0588495148
 20
23.9140187826
 30
0.0
 10
29.0588495148
 20
24.048805034
 30
0.0
  0
SPLINE
  5
291
100
AcDbEntity
  8
0
100
AcDbSpline
 62
7
  6
BYLAYER
 70
0
 71
3
 72
15
 73
11
 74
0
 42
0.0000001
 43
0.0000001
 44
0.0000000001
 40
0.0
 40
0.0
 40
0.0
 40
0.0
 40
0.1484797216
 40
0.289471962
 40
0.4227512701
 40
0.5486593504
 40
0.6679974781
 40
0.7819348394
 40
0.8919893536
 40
1.0
 40
1.0
 40
1.0
 40
1.0
 10
29.0588495148
 20
24.048805034
 30
0.0
 10
29.0588495148
 20
24.1333850723
 30
0.0
 10
29.0657164564
 20
24.2983909689
 30
0.0
 10
29.0981522223
 20
24.5373934365
 30
0.0
 10
29.1524206543
 20
24.75928388
 30
0.0
 10
29.2280518805
 20
24.9617995082
 30
0.0
 10
29.324453225
 20
25.1430125715
 30
0.0
 10
29.4408917601
 20
25.3010999328
 30
0.0
 10
29.5762181826
 20
25.4343668061
 30
0.0
 10
29.6786902157
 20
25.5058267588
 30
0.0
 10
29.7319746873
 20
25.5365897882
 30
0.0
  0
SPLINE
  5
292
100
AcDbEntity
  8
0
100
AcDbSpline
 62
7
  6
BYLAYER
 70
0
 71
3
 72
15
 73
11
 74
0
 42
0.0000001
 43
0.0000001
 44
0.0000000001
 40
0.0
 40
0.0
 40
0.0
 40
0.0
 40
0.1080133794
 40
0.2180618555
 40
0.3319995742
 40
0.4513613272
 40
0.5772747894
 40
0.7104908742
 40
0.8514274915
 40
1.0
 40
1.0
 40
1.0
 40
1.0
 10
26.588047097
 20
31.2270133001
 30
0.0
 10
26.747900463
 20
31.3193041264
 30
0.0
 10
27.0873052231
 20
31.4782173577
 30
0.0
 10
27.6364569099
 20
31.6300876369
 30
0.0
 10
28.2218787512
 20
31.6954014063
 30
0.0
 10
28.837314243
 20
31.6739553116
 30
0.0
 10
29.4768433476
 20
31.566713795
 30
0.0
 10
30.1345457065
 20
31.374982439
 30
0.0
 10
30.8041435044
 20
31.1008888939
 30
0.0
 10
31.2431423252
 20
30.8711023146
 30
0.0
 10
31.4630216971
 20
30.7441577719
 30
0.0
  0
SPLINE
  5
293
100
AcDbEntity
  8
0
100
AcDbSpline
 62
7
  6
BYLAYER
 70
0
 71
3
 72
15
 73
11
 74
0
 42
0.0000001
 43
0.0000001
 44
0.0000000001
 40
0.0
 40
0.0
 40
0.0
 40
0.0
 40
0.1485342508
 40
0.2895040119
 40
0.422738673
 40
0.5486424771
 40
0.6679963905
 40
0.7819394371
 40
0.891988129
 40
1.0
 40
1.0
 40
1.0
 40
1.0
 10
14.138833431
 20
32.7851576907
 30
0.0
 10
14.138833431
 20
32.6419691843
 30
0.0
 10
14.1272416921
 20
32.362695481
 30
0.0
 10
14.0723343155
 20
31.9582396903
 30
0.0
 10
13.9804632431
 20
31.5828130417
 30
0.0
 10
13.8525047735
 20
31.2401130081
 30
0.0
 10
13.6893371341
 20
30.9334455075
 30
0.0
 10
13.492362284
 20
30.6658281031
 30
0.0
 10
13.2632436739
 20
30.4404066495
 30
0.0
 10
13.0898906469
 20
30.319399835
 30
0.0
 10
12.9997111935
 20
30.2673461787
 30
0.0
  0
SPLINE
  5
294
100
AcDbEntity
  8
0
100
AcDbSpline
 62
7
  6
BYLAYER
 70
0
 71
3
 72
23
 73
19
 74
0
 42
0.0000001
 43
0.0000001
 44
0.0000000001
 40
0.0
 40
0.0
 40
0.0
 40
0.0
 40
0.0591362054
 40
0.1215889692
 40
0.1868579833
 40
0.254398763
 40
0.3235531028
 40
0.3936162012
 40
0.4638554705
 40
0.5335285619
 40
0.6019127283
 40
0.6683288506
 40
0.7321653101
 40
0.7929067158
 40
0.8501686128
 40
0.90373325
 40
0.9535927522
 40
1.0
 40
1.0
 40
1.0
 40
1.0
 10
26.0182776967
 20
25.8042402785
 30
0.0
 10
26.0182776967
 20
25.5376126651
 30
0.0
 10
26.0489989564
 20
24.9891127859
 30
0.0
 10
26.1769246709
 20
24.1552925598
 30
0.0
 10
26.386167542
 20
23.2990520681
 30
0.0
 10
26.6732772972
 20
22.4339297139
 30
0.0
 10
27.0338491654
 20
21.5733304654
 30
0.0
 10
27.4621998222
 20
20.7307495649
 30
0.0
 10
27.9516041209
 20
19.9193750837
 30
0.0
 10
28.4944316032
 20
19.1519550743
 30
0.0
 10
29.082150722
 20
18.440506414
 30
0.0
 10
29.7055634311
 20
17.7961468651
 30
0.0
 10
30.354977906
 20
17.2289515018
 30
0.0
 10
31.0203728771
 20
16.7477839444
 30
0.0
 10
31.6915194504
 20
16.3601322788
 30
0.0
 10
32.3583855387
 20
16.0721397863
 30
0.0
 10
33.0107641433
 20
15.8886524874
 30
0.0
 10
33.4441244795
 20
15.8367861132
 30
0.0
 10
33.6532837348
 20
15.8311004752
 30
0.0
  0
SPLINE
  5
295
100
AcDbEntity
  8
0
100
AcDbSpline
 62
7
  6
BYLAYER
 70
0
 71
3
 72
15
 73
11
 74
0
 42
0.0000001
 43
0.0000001
 44
0.0000000001
 40
0.0
 40
0.0
 40
0.0
 40
0.0
 40
0.1485541119
 40
0.2895076663
 40
0.4227309912
 40
0.5486390237
 40
0.6680003354
 40
0.7819387324
 40
0.8919869439
 40
1.0
 40
1.0
 40
1.0
 40
1.0
 10
23.5434142664
 20
24.3753857399
 30
0.0
 10
23.5434142664
 20
24.5719711846
 30
0.0
 10
23.5593036734
 20
24.9553454428
 30
0.0
 10
23.6347101525
 20
25.5105384401
 30
0.0
 10
23.7607985554
 20
26.02587415
 30
0.0
 10
23.9364885687
 20
26.4962906867
 30
0.0
 10
24.1604026952
 20
26.9173156828
 30
0.0
 10
24.4308731021
 20
27.2846254162
 30
0.0
 10
24.7453187894
 20
27.5941370146
 30
0.0
 10
24.98333554
 20
27.7601797609
 30
0.0
 10
25.1071222541
 20
27.8316477461
 30
0.0
  0
SPLINE
  5
296
100
AcDbEntity
  8
0
100
AcDbSpline
 62
7
  6
BYLAYER
 70
0
 71
3
 72
26
 73
22
 74
0
 42
0.0000001
 43
0.0000001
 44
0.0000000001
 40
0.0
 40
0.0
 40
0.0
 40
0.0
 40
0.0623771765
 40
0.1287158565
 40
0.1983024904
 40
0.2702746889
 40
0.3436469124
 40
0.4173749632
 40
0.4903954833
 40
0.5616780994
 40
0.630271294
 40
0.6953547061
 40
0.7562982036
 40
0.8127316938
 40
0.8646288778
 40
0.8890144817
 40
0.9124622053
 40
0.9351058175
 40
0.95710971
 40
0.9786690842
 40
1.0
 40
1.0
 40
1.0
 40
1.0
 10
35.7764125115
 20
17.3128206867
 30
0.0
 10
35.7764125115
 20
17.7172962392
 30
0.0
 10
35.721600874
 20
18.5524907949
 30
0.0
 10
35.4961348979
 20
19.8206106287
 30
0.0
 10
35.1294972687
 20
21.1200271374
 30
0.0
 10
34.6296425638
 20
22.4229358869
 30
0.0
 10
34.0071226369
 20
23.7017381097
 30
0.0
 10
33.2752635751
 20
24.92915217
 30
0.0
 10
32.4496506063
 20
26.0789904549
 30
0.0
 10
31.5478889387
 20
27.1267424644
 30
0.0
 10
30.5890975846
 20
28.050131835
 30
0.0
 10
29.5934890224
 20
28.8295825816
 30
0.0
 10
28.5816240261
 20
29.4485862756
 30
0.0
 10
27.5744364734
 20
29.8937992275
 30
0.0
 10
26.7380856284
 20
30.1158623786
 30
0.0
 10
26.0948968224
 20
30.1915491767
 30
0.0
 10
25.6370962403
 20
30.1987146665
 30
0.0
 10
25.1965394096
 20
30.1574420107
 30
0.0
 10
24.7756622629
 20
30.06762993
 30
0.0
 10
24.3769658804
 20
29.9298362575
 30
0.0
 10
24.12690521
 20
29.8060792251
 30
0.0
 10
24.0071232957
 20
29.7369132648
 30
0.0
  0
SPLINE
  5
297
100
AcDbEntity
  8
0
100
AcDbSpline
 62
7
  6
BYLAYER
 70
0
 71
3
 72
15
 73
11
 74
0
 42
0.0000001
 43
0.0000001
 44
0.0000000001
 40
0.0
 40
0.0
 40
0.0
 40
0.0
 40
0.1080131067
 40
0.2180602996
 40
0.3319962974
 40
0.4513582379
 40
0.5772689405
 40
0.7104887362
 40
0.8514351018
 40
1.0
 40
1.0
 40
1.0
 40
1.0
 10
33.7570620869
 20
12.8494228218
 30
0.0
 10
33.9169134063
 20
12.9417261555
 30
0.0
 10
34.2242756215
 20
13.1561621341
 30
0.0
 10
34.6303511738
 20
13.5558491298
 30
0.0
 10
34.9796493817
 20
14.0301749079
 30
0.0
 10
35.2687864541
 20
14.5738974608
 30
0.0
 10
35.495686065
 20
15.1813824983
 30
0.0
 10
35.6585024504
 20
15.8468718348
 30
0.0
 10
35.755905829
 20
16.5638399118
 30
0.0
 10
35.7764125115
 20
17.0589334935
 30
0.0
 10
35.7764125115
 20
17.3128206867
 30
0.0
  0
SPLINE
  5
298
100
AcDbEntity
  8
0
100
AcDbSpline
 62
7
  6
BYLAYER
 70
0
 71
3
 72
26
 73
22
 74
0
 42
0.0000001
 43
0.0000001
 44
0.0000000001
 40
0.0
 40
0.0
 40
0.0
 40
0.0
 40
0.0213314585
 40
0.0428914106
 40
0.0648961329
 40
0.087540046
 40
0.1353134181
 40
0.1607359906
 40
0.1872600808
 40
0.2436951855
 40
0.3046397888
 40
0.3697236504
 40
0.4383167793
 40
0.5095991847
 40
0.5826197216
 40
0.6563477003
 40
0.7297196591
 40
0.8016932019
 40
0.8712795276
 40
0.9376231229
 40
1.0
 40
1.0
 40
1.0
 40
1.0
 10
32.6570631285
 20
14.7546883405
 30
0.0
 10
32.5643044512
 20
14.7011343235
 30
0.0
 10
32.3706789335
 20
14.6052722992
 30
0.0
 10
32.0619367408
 20
14.4985857034
 30
0.0
 10
31.7359996787
 20
14.4290547321
 30
0.0
 10
31.2731059428
 20
14.3856165674
 30
0.0
 10
30.7892201444
 20
14.421104596
 30
0.0
 10
30.2991959453
 20
14.5258318692
 30
0.0
 10
29.7780525681
 20
14.6847612678
 30
0.0
 10
29.1146024842
 20
14.9780219879
 30
0.0
 10
28.3312134142
 20
15.4573067486
 30
0.0
 10
27.5602182295
 20
16.0608995787
 30
0.0
 10
26.8177909686
 20
16.7759183236
 30
0.0
 10
26.11950536
 20
17.5872393103
 30
0.0
 10
25.4801932045
 20
18.4776119922
 30
0.0
 10
24.9134832968
 20
19.4280585865
 30
0.0
 10
24.4314341841
 20
20.4183018477
 30
0.0
 10
24.0443802848
 20
21.4272135027
 30
0.0
 10
23.7604486836
 20
22.4334383361
 30
0.0
 10
23.5858700539
 20
23.4154287579
 30
0.0
 10
23.5434142664
 20
24.0621822974
 30
0.0
 10
23.5434142664
 20
24.3753857399
 30
0.0
  0
SPLINE
  5
299
100
AcDbEntity
  8
0
100
AcDbSpline
 62
7
  6
BYLAYER
 70
0
 71
3
 72
25
 73
21
 74
0
 42
0.0000001
 43
0.0000001
 44
0.0000000001
 40
0.0
 40
0.0
 40
0.0
 40
0.0
 40
0.0623734683
 40
0.1287285069
 40
0.1983146199
 40
0.2702924125
 40
0.3436686806
 40
0.4173997349
 40
0.4904250045
 40
0.5617123476
 40
0.6303095889
 40
0.6953965811
 40
0.7563441041
 40
0.812781803
 40
0.8646820157
 40
0.9124565551
 40
0.9351018234
 40
0.9571071201
 40
0.9786678749
 40
1.0
 40
1.0
 40
1.0
 40
1.0
 10
13.8559918961
 20
32.6218600291
 30
0.0
 10
13.8559918961
 20
32.8499978426
 30
0.0
 10
13.825041982
 20
33.3211469782
 30
0.0
 10
13.6979001844
 20
34.0365029637
 30
0.0
 10
13.4910456641
 20
34.7695306195
 30
0.0
 10
13.2091018333
 20
35.5044963679
 30
0.0
 10
12.8579319104
 20
36.2258664347
 30
0.0
 10
12.445078101
 20
36.9182385666
 30
0.0
 10
11.9793591881
 20
37.5668671927
 30
0.0
 10
11.470677662
 20
38.1579132735
 30
0.0
 10
10.9298174294
 20
38.6787893288
 30
0.0
 10
10.3681753088
 20
39.1184723832
 30
0.0
 10
9.7974341132
 20
39.4676636671
 30
0.0
 10
9.2291167329
 20
39.718824651
 30
0.0
 10
8.6747349174
 20
39.8661659085
 30
0.0
 10
8.2251055663
 20
39.8991436507
 30
0.0
 10
7.8878720003
 20
39.8675363068
 30
0.0
 10
7.6504399445
 20
39.8168784255
 30
0.0
 10
7.4255483242
 20
39.7391207824
 30
0.0
 10
7.2844756962
 20
39.6693368955
 30
0.0
 10
7.2169039264
 20
39.6303254515
 30
0.0
  0
SPLINE
  5
29A
100
AcDbEntity
  8
0
100
AcDbSpline
 62
7
  6
BYLAYER
 70
0
 71
3
 72
11
 73
7
 74
0
 42
0.0000001
 43
0.0000001
 44
0.0000000001
 40
0.0
 40
0.0
 40
0.0
 40
0.0
 40
0.2649406866
 40
0.5174868783
 40
0.7611001395
 40
1.0
 40
1.0
 40
1.0
 40
1.0
 10
8.1641588882
 20
36.7497491104
 30
0.0
 10
8.1878647583
 20
36.8037566899
 30
0.0
 10
8.2410976505
 20
36.9064215418
 30
0.0
 10
8.3408374457
 20
37.0442091478
 30
0.0
 10
8.4573273448
 20
37.1601756948
 30
0.0
 10
8.5458449991
 20
37.2221497403
 30
0.0
 10
8.5919039813
 20
37.248741281
 30
0.0
  0
SPLINE
  5
29B
100
AcDbEntity
  8
0
100
AcDbSpline
 62
7
  6
BYLAYER
 70
0
 71
3
 72
15
 73
11
 74
0
 42
0.0000001
 43
0.0000001
 44
0.0000000001
 40
0.0
 40
0.0
 40
0.0
 40
0.0
 40
0.148525705
 40
0.2895006365
 40
0.4227411389
 40
0.5486444378
 40
0.6679950214
 40
0.7819390827
 40
0.8919879708
 40
1.0
 40
1.0
 40
1.0
 40
1.0
 10
35.3521251854
 20
45.033007569
 30
0.0
 10
35.3521251854
 20
44.8898273984
 30
0.0
 10
35.340527471
 20
44.6105575908
 30
0.0
 10
35.2856273198
 20
44.2060986954
 30
0.0
 10
35.193752994
 20
43.8306629415
 30
0.0
 10
35.0658012339
 20
43.4879577367
 30
0.0
 10
34.902619743
 20
43.1813015888
 30
0.0
 10
34.7056587059
 20
42.9136770713
 30
0.0
 10
34.4765296527
 20
42.6882630663
 30
0.0
 10
34.3031793809
 20
42.5672550925
 30
0.0
 10
34.2130046909
 20
42.5151930217
 30
0.0
  0
SPLINE
  5
29C
100
AcDbEntity
  8
0
100
AcDbSpline
 62
7
  6
BYLAYER
 70
0
 71
3
 72
9
 73
5
 74
0
 42
0.0000001
 43
0.0000001
 44
0.0000000001
 40
0.0
 40
0.0
 40
0.0
 40
0.0
 40
0.256149695
 40
1.0
 40
1.0
 40
1.0
 40
1.0
 10
35.3129013145
 20
45.6918444358
 30
0.0
 10
35.3193779767
 20
45.6358473259
 30
0.0
 10
35.3417322757
 20
45.4169145156
 30
0.0
 10
35.3521251854
 20
45.1967053977
 30
0.0
 10
35.3521251854
 20
45.033007569
 30
0.0
  0
ENDSEC
  0
SECTION
  2
OBJECTS
  0
DICTIONARY
  5
C
100
AcDbDictionary
280
0
281
1
  3
ACAD_GROUP
350
D
  3
ACAD_MLINESTYLE
350
17
  3
ACAD_LAYOUT
350
1A
  3
ACAD_PLOTSETTINGS
350
19
  3
ACAD_PLOTSTYLENAME
350
E
  0
DICTIONARY
  5
D
102
{ACAD_REACTORS
330
C
102
}
100
AcDbDictionary
280
0
281
1
  0
ACDBDICTIONARYWDFLT
  5
E
102
{ACAD_REACTORS
330
C
102
}
100
AcDbDictionary
281
1
  3
Normal
350
F
100
AcDbDictionaryWithDefault
340
F
  0
DICTIONARY
  5
17
102
{ACAD_REACTORS
330
C
102
}
100
AcDbDictionary
280
0
281
1
  3
Standard
350
18
  0
DICTIONARY
  5
19
102
{ACAD_REACTORS
330
C
102
}
100
AcDbDictionary
281
1
  0
DICTIONARY
  5
1A
102
{ACAD_REACTORS
330
C
102
}
100
AcDbDictionary
281
1
  3
Model
350
29D
  3
Layout1
350
29E
  0
ACDBPLACEHOLDER
  5
F
102
{ACAD_REACTORS
330
E
102
}
  0
MLINESTYLE
  5
18
102
{ACAD_REACTORS
330
17
102
}
100
AcDbMlineStyle
  2
STANDARD
 70
0
  3

 62
256
 51
90.0
 52
90.0
 71
2
 49
0.5
 62
256
  6
BYLAYER
 49
-0.5
 62
256
  6
BYLAYER
  0
LAYOUT
  5
29D
102
{ACAD_REACTORS
330
1A
102
}
100
AcDbPlotSettings
  1

  2
none_device
  4

  6

 40
0.0
 41
0.0
 42
0.0
 43
0.0
 44
210.0
 45
297.0
 46
0.0
 47
0.0
 48
0.0
 49
0.0
140
0.0
141
0.0
142
1.0
143
1.0
 70
1024
 72
1
 73
0
 74
0
  7

 75
0
147
1.0
148
0.0
149
0.0
100
AcDbLayout
  1
Model
 70
0
 71
0
 10
0.0
 20
0.0
 11
210.0
 21
297.0
 12
0.0
 22
0.0
 32
0.0
 14
0.0
 24
0.0
 34
0.0
 15
0.0
 25
0.0
 35
0.0
146
0.0
 13
0.0
 23
0.0
 33
0.0
 16
1.0
 26
0.0
 36
0.0
 17
0.0
 27
1.0
 37
0.0
 76
0
330
210
345
0
346
0
  0
LAYOUT
  5
29E
102
{ACAD_REACTORS
330
1A
102
}
100
AcDbPlotSettings
  1

  2
none_device
  4

  6

 40
0.0
 41
0.0
 42
0.0
 43
0.0
 44
210.0
 45
297.0
 46
0.0
 47
0.0
 48
0.0
 49
0.0
140
0.0
141
0.0
142
1.0
143
1.0
 70
0
 72
1
 73
0
 74
0
  7

 75
0
147
1.0
148
0.0
149
0.0
100
AcDbLayout
  1
Layout1
 70
0
 71
1
 10
0.0
 20
0.0
 11
210.0
 21
297.0
 12
0.0
 22
0.0
 32
0.0
 14
0.0
 24
0.0
 34
0.0
 15
0.0
 25
0.0
 35
0.0
146
0.0
 13
0.0
 23
0.0
 33
0.0
 16
1.0
 26
0.0
 36
0.0
 17
0.0
 27
1.0
 37
0.0
 76
0
330
211
345
0
346
0
  0
ENDSEC
  0
EOF
