999
DXF file: C:\Users\sesa63760\Dev\_Creo\CAD\MCADID0001923_3D-CAD\drw0001_1.dxf
999
Pro/ENGINEER 2019471 by Parametric Technology Corporation
  0
SECTION
  2
HEADER
  9
$ACADVER
  1
AC1024
  9
$DWGCODEPAGE
  3
ANSI_1252
  9
$EXTMAX
 10
95.5894219472
 20
135.1907538968
 30
0.0
  9
$EXTMIN
 10
0.0
 20
0.0
 30
0.0
  9
$LIMMIN
 10
0.0
 20
0.0
  9
$LIMMAX
 10
95.5894219472
 20
135.1907538968
  9
$VIEWCTR
 10
47.7947109736
 20
67.5953769484
  9
$VIEWSIZE
 40
135.1907538968
  9
$CLAYER
  8
0
  9
$LTSCALE
 40
8.8124343281
  9
$CELTYPE
  6
BYLAYER
  9
$DIMSCALE
 40
1.0
  9
$DIMASZ
 40
1.1379693089
  9
$DIMEXO
 40
1.0
  9
$DIMDLI
 40
6.0885909903
  9
$DIMEXE
 40
1.0
  9
$DIMCEN
 40
1.4420347082
  9
$DIMLFAC
 40
1.0
  9
$DIMBLK
  1
_FILLED
  9
$DIMALT
 70
0
  9
$DIMALTF
 40
0.0393700787
  9
$DIMTXT
 40
1.5931570325
  9
$DIMTOL
 70
1
  9
$DIMLIM
 70
0
  9
$DIMTFAC
 40
1.0
  9
$DIMTP
 40
0.01
  9
$DIMTM
 40
0.01
  9
$DIMGAP
 40
0.625
  9
$DIMDSEP
 70
46
  9
$AUNITS
 70
0
  9
$PDMODE
 70
3
  9
$PDSIZE
 40
0.3125
  9
$HANDSEED
  5
2E2
  9
$TILEMODE
 70
1
  9
$MEASUREMENT
 70
1
  9
$INSUNITS
 70
4
  0
ENDSEC
  0
SECTION
  2
CLASSES
  0
CLASS
  1
ACDBDICTIONARYWDFLT
  2
AcDbDictionaryWithDefault
  3
AutoCAD 2000
 90
0
 91
1
280
0
281
0
  0
CLASS
  1
ACDBPLACEHOLDER
  2
AcDbPlaceHolder
  3
AutoCAD 2000
 90
0
 91
1
280
0
281
0
  0
CLASS
  1
LAYOUT
  2
AcDbLayout
  3
AutoCAD 2000
 90
0
 91
0
280
0
281
0
  0
ENDSEC
  0
SECTION
  2
TABLES
  0
TABLE
  2
VPORT
  5
8
100
AcDbSymbolTable
 70
2
  0
VPORT
  5
1F4
100
AcDbSymbolTableRecord
100
AcDbViewportTableRecord
  2
*ACTIVE
 70
0
 10
0.0
 20
0.0
 11
1.0
 21
1.0
 12
47.7947109736
 22
67.5953769484
 13
0.0
 23
0.0
 14
1.0
 24
1.0
 15
0.0
 25
0.0
 16
0.0
 26
0.0
 36
1.0
 17
0.0
 27
0.0
 37
0.0
 40
135.1907538968
 41
0.7070707071
 42
50.0
 43
0.0
 44
0.0
 50
0.0
 51
0.0
 71
0
 72
100
 73
1
 74
1
 75
0
 76
0
 77
0
 78
0
  0
ENDTAB
  0
TABLE
  2
LTYPE
  5
5
100
AcDbSymbolTable
 70
6
  0
LTYPE
  5
14
100
AcDbSymbolTableRecord
100
AcDbLinetypeTableRecord
  2
BYBLOCK
 70
0
  3

 72
65
 73
0
 40
0.0
  0
LTYPE
  5
15
100
AcDbSymbolTableRecord
100
AcDbLinetypeTableRecord
  2
BYLAYER
 70
0
  3

 72
65
 73
0
 40
0.0
  0
LTYPE
  5
16
100
AcDbSymbolTableRecord
100
AcDbLinetypeTableRecord
  2
CONTINUOUS
 70
64
  3
Solid line
 72
65
 73
0
 40
0.0
  0
LTYPE
  5
1F5
100
AcDbSymbolTableRecord
100
AcDbLinetypeTableRecord
  2
CENTER
 70
64
  3
____ _ ____ _ ____ _ ____ _ ____ _ ____ _ ____
 72
65
 73
4
 40
0.6
 49
0.375
 74
0
 49
-0.075
 74
0
 49
0.075
 74
0
 49
-0.075
 74
0
  0
LTYPE
  5
1F6
100
AcDbSymbolTableRecord
100
AcDbLinetypeTableRecord
  2
HIDDEN
 70
64
  3
- - - - - - - - - - - - - - - - - - - -
 72
65
 73
2
 40
0.2
 49
0.1
 74
0
 49
-0.1
 74
0
  0
LTYPE
  5
1F7
100
AcDbSymbolTableRecord
100
AcDbLinetypeTableRecord
  2
PHANTOM
 70
64
  3
_____ _ _ _____ _ _ _____ _ _ _____
 72
65
 73
6
 40
0.8
 49
0.45
 74
0
 49
-0.05
 74
0
 49
0.1
 74
0
 49
-0.05
 74
0
 49
0.1
 74
0
 49
-0.05
 74
0
  0
LTYPE
  5
1F8
100
AcDbSymbolTableRecord
100
AcDbLinetypeTableRecord
  2
DOT
 70
64
  3
. . . . . . . . . . . . . . . . . . . .
 72
65
 73
2
 40
0.2
 49
0.1
 74
0
 49
-0.1
 74
0
  0
LTYPE
  5
1F9
100
AcDbSymbolTableRecord
100
AcDbLinetypeTableRecord
  2
DASHED
 70
64
  3
- - - - - - - - - - - - - - - - - - - -
 72
65
 73
2
 40
0.2
 49
0.1
 74
0
 49
-0.1
 74
0
  0
ENDTAB
  0
TABLE
  2
LAYER
  5
2
100
AcDbSymbolTable
 70
36
  0
LAYER
  5
10
100
AcDbSymbolTableRecord
100
AcDbLayerTableRecord
  2
0
 70
0
 62
7
  6
CONTINUOUS
370
-3
390
F
  0
LAYER
  5
1FA
100
AcDbSymbolTableRecord
100
AcDbLayerTableRecord
  2
DEFAULT_1
 70
0
 62
7
  6
CENTER
370
-3
390
F
  0
LAYER
  5
1FB
100
AcDbSymbolTableRecord
100
AcDbLayerTableRecord
  2
DEFAULT_2
 70
0
 62
8
  6
HIDDEN
370
-3
390
F
  0
LAYER
  5
1FC
100
AcDbSymbolTableRecord
100
AcDbLayerTableRecord
  2
DEFAULT_3
 70
0
 62
7
  6
PHANTOM
370
-3
390
F
  0
LAYER
  5
1FD
100
AcDbSymbolTableRecord
100
AcDbLayerTableRecord
  2
00_COMPONENTS
 70
0
 62
7
  6
CONTINUOUS
370
-3
390
F
  0
LAYER
  5
1FE
100
AcDbSymbolTableRecord
100
AcDbLayerTableRecord
  2
01_1_DEFAULT_DATUMS
 70
0
 62
7
  6
CONTINUOUS
370
-3
390
F
  0
LAYER
  5
1FF
100
AcDbSymbolTableRecord
100
AcDbLayerTableRecord
  2
01_PLANES
 70
0
 62
7
  6
CONTINUOUS
370
-3
390
F
  0
LAYER
  5
200
100
AcDbSymbolTableRecord
100
AcDbLayerTableRecord
  2
02_COORD_SYS
 70
0
 62
7
  6
CONTINUOUS
370
-3
390
F
  0
LAYER
  5
201
100
AcDbSymbolTableRecord
100
AcDbLayerTableRecord
  2
03_AXES
 70
0
 62
7
  6
CONTINUOUS
370
-3
390
F
  0
LAYER
  5
202
100
AcDbSymbolTableRecord
100
AcDbLayerTableRecord
  2
04_POINTS
 70
0
 62
7
  6
CONTINUOUS
370
-3
390
F
  0
LAYER
  5
203
100
AcDbSymbolTableRecord
100
AcDbLayerTableRecord
  2
05_CURVES
 70
0
 62
7
  6
CONTINUOUS
370
-3
390
F
  0
LAYER
  5
204
100
AcDbSymbolTableRecord
100
AcDbLayerTableRecord
  2
06_SURFS
 70
0
 62
7
  6
CONTINUOUS
370
-3
390
F
  0
LAYER
  5
205
100
AcDbSymbolTableRecord
100
AcDbLayerTableRecord
  2
07_COSMETICS
 70
0
 62
7
  6
CONTINUOUS
370
-3
390
F
  0
LAYER
  5
206
100
AcDbSymbolTableRecord
100
AcDbLayerTableRecord
  2
10_NOTES
 70
0
 62
7
  6
CONTINUOUS
370
-3
390
F
  0
LAYER
  5
207
100
AcDbSymbolTableRecord
100
AcDbLayerTableRecord
  2
11_NOTES_PUB
 70
0
 62
7
  6
CONTINUOUS
370
-3
390
F
  0
LAYER
  5
208
100
AcDbSymbolTableRecord
100
AcDbLayerTableRecord
  2
13_REF_GTOL
 70
0
 62
7
  6
CONTINUOUS
370
-3
390
F
  0
LAYER
  5
209
100
AcDbSymbolTableRecord
100
AcDbLayerTableRecord
  2
16_MISC
 70
0
 62
7
  6
CONTINUOUS
370
-3
390
F
  0
LAYER
  5
20A
100
AcDbSymbolTableRecord
100
AcDbLayerTableRecord
  2
17_NO_PRINT
 70
0
 62
7
  6
CONTINUOUS
370
-3
390
F
  0
LAYER
  5
20B
100
AcDbSymbolTableRecord
100
AcDbLayerTableRecord
  2
18_DATUM_CAMS_JOINTS
 70
0
 62
7
  6
CONTINUOUS
370
-3
390
F
  0
LAYER
  5
20C
100
AcDbSymbolTableRecord
100
AcDbLayerTableRecord
  2
19_DATUM_FUNCTIONAL
 70
0
 62
7
  6
CONTINUOUS
370
-3
390
F
  0
LAYER
  5
20D
100
AcDbSymbolTableRecord
100
AcDbLayerTableRecord
  2
20_DATUM_KINEMATIC_SCHEME
 70
0
 62
7
  6
CONTINUOUS
370
-3
390
F
  0
ENDTAB
  0
TABLE
  2
STYLE
  5
3
100
AcDbSymbolTable
 70
1
  0
STYLE
  5
11
100
AcDbSymbolTableRecord
100
AcDbTextStyleTableRecord
  2
STANDARD
 70
0
 40
0.0
 41
0.8
 50
0.0
 71
0
 42
0.2
  3
txt
  4

  0
STYLE
  5
20E
100
AcDbSymbolTableRecord
100
AcDbTextStyleTableRecord
  2
TEXTSTYLE_1
 70
0
 40
0.0
 41
0.8
 50
0.0
 71
0
 42
0.2
  3
gdt
  4

  0
ENDTAB
  0
TABLE
  2
VIEW
  5
6
100
AcDbSymbolTable
 70
0
  0
ENDTAB
  0
TABLE
  2
UCS
  5
7
100
AcDbSymbolTable
 70
0
  0
ENDTAB
  0
TABLE
  2
APPID
  5
9
100
AcDbSymbolTable
 70
1
  0
APPID
  5
20F
100
AcDbSymbolTableRecord
100
AcDbRegAppTableRecord
  2
ACAD
 70
0
  0
ENDTAB
  0
TABLE
  2
BLOCK_RECORD
  5
1
100
AcDbSymbolTable
 70
0
  0
BLOCK_RECORD
  5
210
100
AcDbSymbolTableRecord
100
AcDbBlockTableRecord
  2
*Model_Space
  0
BLOCK_RECORD
  5
211
100
AcDbSymbolTableRecord
100
AcDbBlockTableRecord
  2
*Paper_Space
  0
BLOCK_RECORD
  5
212
100
AcDbSymbolTableRecord
100
AcDbBlockTableRecord
  2
_FILLED
  0
ENDTAB
  0
TABLE
  2
DIMSTYLE
  5
A
100
AcDbSymbolTable
 70
1
100
AcDbDimStyleTable
 71
0
  0
DIMSTYLE
105
213
100
AcDbSymbolTableRecord
100
AcDbDimStyleTableRecord
  2
STANDARD
 70
0
  3

  4

 40
1.0
 41
1.1379693089
 42
1.0
 43
0.38
 44
1.0
 45
0.0
 46
0.0
 47
0.01
 48
0.01
140
1.5931570325
141
0.09
142
0.0
143
25.4
144
1.0
145
0.0
146
1.0
147
0.625
 71
1
 72
0
 73
0
 74
0
 75
0
 76
0
 77
1
 78
8
 79
2
170
0
171
1
172
0
173
0
174
0
175
0
176
0
177
0
178
0
270
2
179
2
271
2
272
2
273
2
274
2
275
0
280
0
281
0
282
0
283
1
284
8
285
0
286
0
287
3
288
0
340
11
278
46
341
212
342
212
343
212
344
212
  0
ENDTAB
  0
ENDSEC
  0
SECTION
  2
BLOCKS
  0
BLOCK
  5
20
100
AcDbEntity
  8
0
100
AcDbBlockBegin
  2
*Model_Space
 70
0
 10
0.0
 20
0.0
 30
0.0
  3
*Model_Space
  1

  0
ENDBLK
  5
21
100
AcDbEntity
  8
0
100
AcDbBlockEnd
  0
BLOCK
  5
1C
100
AcDbEntity
  8
0
100
AcDbBlockBegin
  2
*Paper_Space
 70
0
 10
0.0
 20
0.0
 30
0.0
  3
*Paper_Space
  1

  0
ENDBLK
  5
1D
100
AcDbEntity
  8
0
100
AcDbBlockEnd
  0
BLOCK
  5
214
100
AcDbEntity
  8
0
100
AcDbBlockBegin
  2
_FILLED
 70
64
 10
0.0
 20
0.0
  3
_FILLED
  1

  0
SOLID
  5
215
100
AcDbEntity
  8
0
  6
BYBLOCK
 62
0
100
AcDbTrace
 10
0.0
 20
0.0
 11
-1.0
 21
0.25
 12
-1.0
 22
-0.25
 13
-1.0
 23
-0.25
  0
ENDBLK
  5
216
100
AcDbEntity
  8
0
  6
BYBLOCK
 62
0
100
AcDbBlockEnd
  0
ENDSEC
  0
SECTION
  2
ENTITIES
  0
LINE
  5
217
100
AcDbEntity
  8
0
100
AcDbLine
 62
7
  6
CONTINUOUS
 10
41.8379001955
 20
24.6336191461
 11
40.5447379301
 21
25.380209838
  0
LINE
  5
218
100
AcDbEntity
  8
0
100
AcDbLine
 62
7
  6
CONTINUOUS
 10
37.4555169629
 20
27.1637320463
 11
33.7556360371
 21
29.2998109703
  0
LINE
  5
219
100
AcDbEntity
  8
0
100
AcDbLine
 62
7
  6
CONTINUOUS
 10
30.6664150698
 20
31.0833331786
 11
26.966534144
 21
33.2194121026
  0
LINE
  5
21A
100
AcDbEntity
  8
0
100
AcDbLine
 62
7
  6
CONTINUOUS
 10
23.8773131768
 20
35.0029343109
 11
22.7996779556
 21
35.6250932208
  0
LINE
  5
21B
100
AcDbEntity
  8
0
100
AcDbLine
 62
7
  6
CONTINUOUS
 10
24.9549394247
 20
35.6250984014
 11
26.966534144
 21
34.4637299224
  0
LINE
  5
21C
100
AcDbEntity
  8
0
100
AcDbLine
 62
7
  6
CONTINUOUS
 10
31.7440413177
 20
31.7054972691
 11
33.7556360371
 21
30.5441287901
  0
LINE
  5
21D
100
AcDbEntity
  8
0
100
AcDbLine
 62
7
  6
CONTINUOUS
 10
38.5331432108
 20
27.7858961368
 11
40.5447379301
 21
26.6245276578
  0
LINE
  5
21E
100
AcDbEntity
  8
0
100
AcDbLine
 62
7
  6
CONTINUOUS
 10
11.0894727283
 20
59.5996806249
 11
11.0894727283
 21
78.6382307856
  0
LINE
  5
21F
100
AcDbEntity
  8
0
100
AcDbLine
 62
7
  6
CONTINUOUS
 10
12.1671079494
 20
73.9097179195
 11
12.1671079494
 21
58.977521715
  0
LINE
  5
220
100
AcDbEntity
  8
0
100
AcDbLine
 62
7
  6
CONTINUOUS
 10
13.2447341973
 20
59.5996858055
 11
13.2447341973
 21
73.2875641901
  0
LINE
  5
221
100
AcDbEntity
  8
0
100
AcDbLine
 62
7
  6
CONTINUOUS
 10
14.4236764067
 20
68.5552717627
 11
14.4236764067
 21
72.6069169865
  0
LINE
  5
222
100
AcDbEntity
  8
0
100
AcDbLine
 62
7
  6
CONTINUOUS
 10
15.2563289166
 20
57.1939995066
 11
15.2563289166
 21
72.1261957111
  0
LINE
  5
223
100
AcDbEntity
  8
0
100
AcDbLine
 62
7
  6
CONTINUOUS
 10
16.6392479051
 20
47.6227595497
 11
16.6392479051
 21
56.3955889189
  0
LINE
  5
224
100
AcDbEntity
  8
0
100
AcDbLine
 62
7
  6
CONTINUOUS
 10
17.7168831262
 20
55.773430009
 11
17.7168831262
 21
47.0006006399
  0
LINE
  5
225
100
AcDbEntity
  8
0
100
AcDbLine
 62
7
  6
CONTINUOUS
 10
35.6774701449
 20
36.631285475
 11
34.3843078796
 21
37.3778761669
  0
LINE
  5
226
100
AcDbEntity
  8
0
100
AcDbLine
 62
7
  6
CONTINUOUS
 10
31.2950869123
 20
39.1613983753
 11
27.5952059865
 21
41.2974772992
  0
LINE
  5
227
100
AcDbEntity
  8
0
100
AcDbLine
 62
7
  6
CONTINUOUS
 10
24.5059850193
 20
43.0809995076
 11
20.8061040934
 21
45.2170784315
  0
LINE
  5
228
100
AcDbEntity
  8
0
100
AcDbLine
 62
7
  6
CONTINUOUS
 10
17.7168831262
 20
47.0006006399
 11
16.6392479051
 21
47.6227595497
  0
LINE
  5
229
100
AcDbEntity
  8
0
100
AcDbLine
 62
7
  6
CONTINUOUS
 10
24.9549394247
 20
43.2985881176
 11
26.966534144
 21
42.1372196386
  0
LINE
  5
22A
100
AcDbEntity
  8
0
100
AcDbLine
 62
7
  6
CONTINUOUS
 10
31.7440413177
 20
39.3789869853
 11
33.7556360371
 21
38.2176185063
  0
LINE
  5
22B
100
AcDbEntity
  8
0
100
AcDbLine
 62
7
  6
CONTINUOUS
 10
38.5331432108
 20
35.459385853
 11
40.5447379301
 21
34.298017374
  0
LINE
  5
22C
100
AcDbEntity
  8
0
100
AcDbLine
 62
7
  6
CONTINUOUS
 10
18.7945093741
 20
47.6227647304
 11
20.8061040934
 21
46.4613962513
  0
LINE
  5
22D
100
AcDbEntity
  8
0
100
AcDbLine
 62
7
  6
CONTINUOUS
 10
25.5836112672
 20
43.7031635981
 11
27.5952059865
 21
42.541795119
  0
LINE
  5
22E
100
AcDbEntity
  8
0
100
AcDbLine
 62
7
  6
CONTINUOUS
 10
32.3727131603
 20
39.7835624658
 11
34.3843078796
 21
38.6221939867
  0
LINE
  5
22F
100
AcDbEntity
  8
0
100
AcDbLine
 62
7
  6
CONTINUOUS
 10
40.5447379301
 20
36.2607608186
 11
39.7120854202
 21
36.741482094
  0
LINE
  5
230
100
AcDbEntity
  8
0
100
AcDbLine
 62
7
  6
CONTINUOUS
 10
18.7945093741
 20
47.6227647304
 11
18.7945093741
 21
55.1512762797
  0
LINE
  5
231
100
AcDbEntity
  8
0
100
AcDbLine
 62
7
  6
CONTINUOUS
 10
18.9562098425
 20
69.9901167872
 11
18.9562098425
 21
55.0579205827
  0
LINE
  5
232
100
AcDbEntity
  8
0
100
AcDbLine
 62
7
  6
CONTINUOUS
 10
20.0338360904
 20
55.6800846732
 11
20.0338360904
 21
69.3679630578
  0
LINE
  5
233
100
AcDbEntity
  8
0
100
AcDbLine
 62
7
  6
CONTINUOUS
 10
20.8061040934
 20
45.2170784315
 11
20.8061040934
 21
55.2342256205
  0
LINE
  5
234
100
AcDbEntity
  8
0
100
AcDbLine
 62
7
  6
CONTINUOUS
 10
21.2127782998
 20
64.6356706304
 11
21.2127782998
 21
68.6873158542
  0
LINE
  5
235
100
AcDbEntity
  8
0
100
AcDbLine
 62
7
  6
CONTINUOUS
 10
22.0454308097
 20
53.2743983743
 11
22.0454308097
 21
68.2065945788
  0
LINE
  5
236
100
AcDbEntity
  8
0
100
AcDbLine
 62
7
  6
CONTINUOUS
 10
11.0894727283
 20
78.6382307856
 11
32.4085119995
 21
90.946710376
  0
LINE
  5
237
100
AcDbEntity
  8
0
100
AcDbLine
 62
7
  6
CONTINUOUS
 10
37.8146036766
 20
94.06790023
 11
38.9281507994
 21
94.7108031235
  0
LINE
  5
238
100
AcDbEntity
  8
0
100
AcDbLine
 62
7
  6
CONTINUOUS
 10
41.4426120445
 20
96.1625193347
 11
42.5561591674
 21
96.8054222282
  0
LINE
  5
239
100
AcDbEntity
  8
0
100
AcDbLine
 62
7
  6
CONTINUOUS
 10
57.5531244509
 20
105.4638724876
 11
66.9464332452
 21
110.8870694765
  0
LINE
  5
23A
100
AcDbEntity
  8
0
100
AcDbLine
 62
7
  6
CONTINUOUS
 10
22.7996779556
 20
35.6250932208
 11
22.7996779556
 21
44.0661140638
  0
LINE
  5
23B
100
AcDbEntity
  8
0
100
AcDbLine
 62
7
  6
CONTINUOUS
 10
23.8773131768
 20
43.4439551539
 11
23.8773131768
 21
35.0029343109
  0
LINE
  5
23C
100
AcDbEntity
  8
0
100
AcDbLine
 62
7
  6
CONTINUOUS
 10
24.5059850193
 20
51.8538288767
 11
24.5059850193
 21
43.0809995076
  0
LINE
  5
23D
100
AcDbEntity
  8
0
100
AcDbLine
 62
7
  6
CONTINUOUS
 10
24.9549394247
 20
35.6250984014
 11
24.9549394247
 21
43.3402019071
  0
LINE
  5
23E
100
AcDbEntity
  8
0
100
AcDbLine
 62
7
  6
CONTINUOUS
 10
25.5836112672
 20
43.7031635981
 11
25.5836112672
 21
51.2316751474
  0
LINE
  5
23F
100
AcDbEntity
  8
0
100
AcDbLine
 62
7
  6
CONTINUOUS
 10
25.7453117356
 20
66.0705156549
 11
25.7453117356
 21
51.1383194504
  0
LINE
  5
240
100
AcDbEntity
  8
0
100
AcDbLine
 62
7
  6
CONTINUOUS
 10
57.5531244509
 20
102.5603898923
 11
45.0706848016
 21
95.3536930189
  0
LINE
  5
241
100
AcDbEntity
  8
0
100
AcDbLine
 62
7
  6
CONTINUOUS
 10
37.8146036766
 20
91.1644176347
 11
34.9230376338
 21
89.4949811667
  0
LINE
  5
242
100
AcDbEntity
  8
0
100
AcDbLine
 62
7
  6
CONTINUOUS
 10
72.4243935917
 20
110.3167679354
 11
70.1793389085
 21
109.0205927468
  0
LINE
  5
243
100
AcDbEntity
  8
0
100
AcDbLine
 62
7
  6
CONTINUOUS
 10
38.2456938074
 20
88.8210059478
 11
37.1680675595
 21
88.1988418573
  0
LINE
  5
244
100
AcDbEntity
  8
0
100
AcDbLine
 62
7
  6
CONTINUOUS
 10
30.1276949682
 20
48.6082065502
 11
28.8345327028
 21
49.354797242
  0
LINE
  5
245
100
AcDbEntity
  8
0
100
AcDbLine
 62
7
  6
CONTINUOUS
 10
25.7453117356
 20
51.1383194504
 11
22.0454308097
 21
53.2743983743
  0
LINE
  5
246
100
AcDbEntity
  8
0
100
AcDbLine
 62
7
  6
CONTINUOUS
 10
18.9562098425
 20
55.0579205827
 11
15.2563289166
 21
57.1939995066
  0
LINE
  5
247
100
AcDbEntity
  8
0
100
AcDbLine
 62
7
  6
CONTINUOUS
 10
12.1671079494
 20
58.977521715
 11
11.0894727283
 21
59.5996806249
  0
LINE
  5
248
100
AcDbEntity
  8
0
100
AcDbLine
 62
7
  6
CONTINUOUS
 10
19.0817664129
 20
55.1304102697
 11
20.8061040934
 21
54.1348859675
  0
LINE
  5
249
100
AcDbEntity
  8
0
100
AcDbLine
 62
7
  6
CONTINUOUS
 10
25.870868306
 20
51.2108091374
 11
27.5952059865
 21
50.2152848352
  0
LINE
  5
24A
100
AcDbEntity
  8
0
100
AcDbLine
 62
7
  6
CONTINUOUS
 10
32.3727131603
 20
47.4570521819
 11
34.3843078796
 21
46.2956837029
  0
LINE
  5
24B
100
AcDbEntity
  8
0
100
AcDbLine
 62
7
  6
CONTINUOUS
 10
13.2447341973
 20
59.5996858055
 11
15.2563289166
 21
58.4383173265
  0
LINE
  5
24C
100
AcDbEntity
  8
0
100
AcDbLine
 62
7
  6
CONTINUOUS
 10
20.0338360904
 20
55.6800846732
 11
22.0454308097
 21
54.5187161942
  0
LINE
  5
24D
100
AcDbEntity
  8
0
100
AcDbLine
 62
7
  6
CONTINUOUS
 10
26.8229379835
 20
51.7604835409
 11
28.8345327028
 21
50.5991150619
  0
LINE
  5
24E
100
AcDbEntity
  8
0
100
AcDbLine
 62
7
  6
CONTINUOUS
 10
34.3843078796
 20
48.2584271476
 11
33.5516553696
 21
48.739148423
  0
LINE
  5
24F
100
AcDbEntity
  8
0
100
AcDbLine
 62
7
  6
CONTINUOUS
 10
26.8229379835
 20
51.7604835409
 11
26.8229379835
 21
65.4483619255
  0
LINE
  5
250
100
AcDbEntity
  8
0
100
AcDbLine
 62
7
  6
CONTINUOUS
 10
26.966534144
 20
33.2194121026
 11
26.966534144
 21
42.9047507654
  0
LINE
  5
251
100
AcDbEntity
  8
0
100
AcDbLine
 62
7
  6
CONTINUOUS
 10
27.5952059865
 20
41.2974772992
 11
27.5952059865
 21
51.3146244882
  0
LINE
  5
252
100
AcDbEntity
  8
0
100
AcDbLine
 62
7
  6
CONTINUOUS
 10
28.0018801929
 20
60.7160694981
 11
28.0018801929
 21
64.7677147219
  0
LINE
  5
253
100
AcDbEntity
  8
0
100
AcDbLine
 62
7
  6
CONTINUOUS
 10
28.8345327028
 20
49.354797242
 11
28.8345327028
 21
64.2869934465
  0
LINE
  5
254
100
AcDbEntity
  8
0
100
AcDbLine
 62
7
  6
CONTINUOUS
 10
73.4122445719
 20
107.1541160172
 11
75.3878926931
 21
108.2947501831
  0
LINE
  5
255
100
AcDbEntity
  8
0
100
AcDbLine
 62
7
  6
CONTINUOUS
 10
30.1276949682
 20
67.6467567109
 11
30.1276949682
 21
48.6082065502
  0
LINE
  5
256
100
AcDbEntity
  8
0
100
AcDbLine
 62
7
  6
CONTINUOUS
 10
30.6664150698
 20
39.5243540216
 11
30.6664150698
 21
31.0833331786
  0
LINE
  5
257
100
AcDbEntity
  8
0
100
AcDbLine
 62
7
  6
CONTINUOUS
 10
31.2950869123
 20
49.2821965802
 11
31.2950869123
 21
39.1613983753
  0
LINE
  5
258
100
AcDbEntity
  8
0
100
AcDbLine
 62
7
  6
CONTINUOUS
 10
31.7440413177
 20
31.7054972691
 11
31.7440413177
 21
39.4206007748
  0
LINE
  5
259
100
AcDbEntity
  8
0
100
AcDbLine
 62
7
  6
CONTINUOUS
 10
32.3727131603
 20
39.7835624658
 11
32.3727131603
 21
49.9043606707
  0
LINE
  5
25A
100
AcDbEntity
  8
0
100
AcDbLine
 62
7
  6
CONTINUOUS
 10
33.5516553696
 20
48.739148423
 11
33.5516553696
 21
50.5850192097
  0
LINE
  5
25B
100
AcDbEntity
  8
0
100
AcDbLine
 62
7
  6
CONTINUOUS
 10
33.7556360371
 20
29.2998109703
 11
33.7556360371
 21
38.9851496331
  0
LINE
  5
25C
100
AcDbEntity
  8
0
100
AcDbLine
 62
7
  6
CONTINUOUS
 10
14.4236764067
 20
68.5552717627
 11
13.2447341973
 21
67.8746046133
  0
LINE
  5
25D
100
AcDbEntity
  8
0
100
AcDbLine
 62
7
  6
CONTINUOUS
 10
81.4944922795
 20
104.769183027
 11
79.5188441583
 21
103.6285488611
  0
LINE
  5
25E
100
AcDbEntity
  8
0
100
AcDbLine
 62
7
  6
CONTINUOUS
 10
13.2447341973
 20
67.2731755217
 11
15.2563289166
 21
66.1118070426
  0
LINE
  5
25F
100
AcDbEntity
  8
0
100
AcDbLine
 62
7
  6
CONTINUOUS
 10
20.0338360904
 20
63.3535743894
 11
22.0454308097
 21
62.1922059103
  0
LINE
  5
260
100
AcDbEntity
  8
0
100
AcDbLine
 62
7
  6
CONTINUOUS
 10
26.8229379835
 20
59.4339732571
 11
28.8345327028
 21
58.272604778
  0
LINE
  5
261
100
AcDbEntity
  8
0
100
AcDbLine
 62
7
  6
CONTINUOUS
 10
28.8345327028
 20
60.2353482227
 11
28.0018801929
 21
60.7160694981
  0
LINE
  5
262
100
AcDbEntity
  8
0
100
AcDbLine
 62
7
  6
CONTINUOUS
 10
22.0454308097
 20
64.154949355
 11
21.2127782998
 21
64.6356706304
  0
LINE
  5
263
100
AcDbEntity
  8
0
100
AcDbLine
 62
7
  6
CONTINUOUS
 10
15.2563289166
 20
68.0745504873
 11
14.4236764067
 21
68.5552717627
  0
LINE
  5
264
100
AcDbEntity
  8
0
100
AcDbLine
 62
7
  6
CONTINUOUS
 10
34.3843078796
 20
37.3778761669
 11
34.3843078796
 21
51.0657484909
  0
LINE
  5
265
100
AcDbEntity
  8
0
100
AcDbLine
 62
7
  6
CONTINUOUS
 10
35.6774701449
 20
51.8123516163
 11
35.6774701449
 21
36.631285475
  0
LINE
  5
266
100
AcDbEntity
  8
0
100
AcDbLine
 62
7
  6
CONTINUOUS
 10
37.4555169629
 20
37.6578351564
 11
37.4555169629
 21
27.1637320463
  0
LINE
  5
267
100
AcDbEntity
  8
0
100
AcDbLine
 62
7
  6
CONTINUOUS
 10
47.7648049273
 20
83.3252689104
 11
46.6871786794
 21
82.7031048199
  0
LINE
  5
268
100
AcDbEntity
  8
0
100
AcDbLine
 62
7
  6
CONTINUOUS
 10
82.7517498217
 20
101.7620721315
 11
84.9968045048
 21
103.05824732
  0
LINE
  5
269
100
AcDbEntity
  8
0
100
AcDbLine
 62
7
  6
CONTINUOUS
 10
70.7541648828
 20
94.5241867016
 11
71.8317911307
 21
95.1463507921
  0
LINE
  5
26A
100
AcDbEntity
  8
0
100
AcDbLine
 62
7
  6
CONTINUOUS
 10
21.2127782998
 20
64.6356706304
 11
20.0338360904
 21
63.955003481
  0
LINE
  5
26B
100
AcDbEntity
  8
0
100
AcDbLine
 62
7
  6
CONTINUOUS
 10
28.8345327028
 20
64.2869934465
 11
25.7453117356
 21
66.0705156549
  0
LINE
  5
26C
100
AcDbEntity
  8
0
100
AcDbLine
 62
7
  6
CONTINUOUS
 10
22.0454308097
 20
68.2065945788
 11
18.9562098425
 21
69.9901167872
  0
LINE
  5
26D
100
AcDbEntity
  8
0
100
AcDbLine
 62
7
  6
CONTINUOUS
 10
15.2563289166
 20
72.1261957111
 11
12.1671079494
 21
73.9097179195
  0
LINE
  5
26E
100
AcDbEntity
  8
0
100
AcDbLine
 62
7
  6
CONTINUOUS
 10
37.8146036766
 20
94.06790023
 11
37.8146036766
 21
91.1644176347
  0
LINE
  5
26F
100
AcDbEntity
  8
0
100
AcDbLine
 62
7
  6
CONTINUOUS
 10
38.5331432108
 20
27.7858961368
 11
38.5331432108
 21
38.2799992469
  0
LINE
  5
270
100
AcDbEntity
  8
0
100
AcDbLine
 62
7
  6
CONTINUOUS
 10
39.7120854202
 20
36.741482094
 11
39.7120854202
 21
38.9606577858
  0
LINE
  5
271
100
AcDbEntity
  8
0
100
AcDbLine
 62
7
  6
CONTINUOUS
 10
40.5447379301
 20
25.380209838
 11
40.5447379301
 21
39.441387067
  0
LINE
  5
272
100
AcDbEntity
  8
0
100
AcDbLine
 62
7
  6
CONTINUOUS
 10
12.1671079494
 20
58.977521715
 11
13.2447341973
 21
59.5996858055
  0
LINE
  5
273
100
AcDbEntity
  8
0
100
AcDbLine
 62
7
  6
CONTINUOUS
 10
85.984655485
 20
99.8955954018
 11
76.5913466907
 21
94.4723984129
  0
LINE
  5
274
100
AcDbEntity
  8
0
100
AcDbLine
 62
7
  6
CONTINUOUS
 10
61.5943814072
 20
85.8139481535
 11
60.4808342844
 21
85.17104526
  0
LINE
  5
275
100
AcDbEntity
  8
0
100
AcDbLine
 62
7
  6
CONTINUOUS
 10
57.9663730393
 20
83.7193290488
 11
56.8528259164
 21
83.0764261553
  0
LINE
  5
276
100
AcDbEntity
  8
0
100
AcDbLine
 62
7
  6
CONTINUOUS
 10
51.4467342394
 20
79.9552363013
 11
30.1276949682
 21
67.6467567109
  0
LINE
  5
277
100
AcDbEntity
  8
0
100
AcDbLine
 62
7
  6
CONTINUOUS
 10
30.1276949682
 20
67.6467567109
 11
11.0894727283
 21
78.6382307856
  0
LINE
  5
278
100
AcDbEntity
  8
0
100
AcDbLine
 62
7
  6
CONTINUOUS
 10
41.4426120445
 20
96.1625193347
 11
41.4426120445
 21
93.7041732301
  0
LINE
  5
279
100
AcDbEntity
  8
0
100
AcDbLine
 62
7
  6
CONTINUOUS
 10
41.8379001955
 20
40.1879901924
 11
41.8379001955
 21
24.6336191461
  0
LINE
  5
27A
100
AcDbEntity
  8
0
100
AcDbLine
 62
7
  6
CONTINUOUS
 10
42.6998531358
 20
95.4366672731
 11
42.6998531358
 21
93.9997002206
  0
LINE
  5
27B
100
AcDbEntity
  8
0
100
AcDbLine
 62
7
  6
CONTINUOUS
 10
51.4467342394
 20
77.051753706
 11
56.8528259164
 21
80.17294356
  0
LINE
  5
27C
100
AcDbEntity
  8
0
100
AcDbLine
 62
7
  6
CONTINUOUS
 10
61.5943814072
 20
82.9104655582
 11
76.5913466907
 21
91.5689158176
  0
LINE
  5
27D
100
AcDbEntity
  8
0
100
AcDbLine
 62
7
  6
CONTINUOUS
 10
28.0018801929
 20
60.7160694981
 11
26.8229379835
 21
60.0354023487
  0
LINE
  5
27E
100
AcDbEntity
  8
0
100
AcDbLine
 62
7
  6
CONTINUOUS
 10
18.9562098425
 20
55.0579205827
 11
20.0338360904
 21
55.6800846732
  0
LINE
  5
27F
100
AcDbEntity
  8
0
100
AcDbLine
 62
7
  6
CONTINUOUS
 10
47.7648049273
 20
82.0809510906
 11
47.7648049273
 21
83.3252689104
  0
LINE
  5
280
100
AcDbEntity
  8
0
100
AcDbLine
 62
7
  6
CONTINUOUS
 10
61.2350537629
 20
100.4347069669
 11
62.3126800108
 21
102.716003969
  0
LINE
  5
281
100
AcDbEntity
  8
0
100
AcDbLine
 62
7
  6
CONTINUOUS
 10
49.3633234934
 20
28.9783983781
 11
49.3633234934
 21
61.1448377019
  0
LINE
  5
282
100
AcDbEntity
  8
0
100
AcDbLine
 62
7
  6
CONTINUOUS
 10
51.4467342394
 20
79.9552363013
 11
51.4467342394
 21
77.051753706
  0
LINE
  5
283
100
AcDbEntity
  8
0
100
AcDbLine
 62
7
  6
CONTINUOUS
 10
17.7168831262
 20
47.0006006399
 11
18.7945093741
 21
47.6227647304
  0
LINE
  5
284
100
AcDbEntity
  8
0
100
AcDbLine
 62
7
  6
CONTINUOUS
 10
25.7453117356
 20
51.1383194504
 11
26.8229379835
 21
51.7604835409
  0
LINE
  5
285
100
AcDbEntity
  8
0
100
AcDbLine
 62
7
  6
CONTINUOUS
 10
61.468658345
 20
70.3943829105
 11
60.4808342844
 21
69.8240658276
  0
LINE
  5
286
100
AcDbEntity
  8
0
100
AcDbLine
 62
7
  6
CONTINUOUS
 10
57.9663730393
 20
68.3723496164
 11
56.9785489787
 21
67.8020325335
  0
LINE
  5
287
100
AcDbEntity
  8
0
100
AcDbLine
 62
7
  6
CONTINUOUS
 10
55.0107066146
 20
64.4053364045
 11
55.0107066146
 21
60.8588968007
  0
LINE
  5
288
100
AcDbEntity
  8
0
100
AcDbLine
 62
7
  6
CONTINUOUS
 10
85.984655485
 20
82.4954389913
 11
84.4041369881
 21
81.5829316586
  0
LINE
  5
289
100
AcDbEntity
  8
0
100
AcDbLine
 62
7
  6
CONTINUOUS
 10
71.0954528263
 20
73.691813527
 11
61.468658345
 21
68.1338143185
  0
LINE
  5
28A
100
AcDbEntity
  8
0
100
AcDbLine
 62
7
  6
CONTINUOUS
 10
56.9785489787
 20
65.5414639414
 11
49.3633234934
 21
61.1448377019
  0
LINE
  5
28B
100
AcDbEntity
  8
0
100
AcDbLine
 62
7
  6
CONTINUOUS
 10
30.1276949682
 20
48.6082065502
 11
35.6774701449
 21
51.8123516163
  0
LINE
  5
28C
100
AcDbEntity
  8
0
100
AcDbLine
 62
7
  6
CONTINUOUS
 10
84.4041369881
 20
79.2601455823
 11
85.4997236735
 21
79.8926790743
  0
LINE
  5
28D
100
AcDbEntity
  8
0
100
AcDbLine
 62
7
  6
CONTINUOUS
 10
60.2114172537
 20
68.85966638
 11
61.468658345
 21
68.1338143185
  0
LINE
  5
28E
100
AcDbEntity
  8
0
100
AcDbLine
 62
7
  6
CONTINUOUS
 10
59.2235931931
 20
70.5499178891
 11
60.4808342844
 21
69.8240658276
  0
LINE
  5
28F
100
AcDbEntity
  8
0
100
AcDbLine
 62
7
  6
CONTINUOUS
 10
56.8528259164
 20
80.17294356
 11
56.8528259164
 21
83.0764261553
  0
LINE
  5
290
100
AcDbEntity
  8
0
100
AcDbLine
 62
7
  6
CONTINUOUS
 10
56.9785489787
 20
67.8020325335
 11
56.9785489787
 21
65.5414639414
  0
LINE
  5
291
100
AcDbEntity
  8
0
100
AcDbLine
 62
7
  6
CONTINUOUS
 10
57.5531244509
 20
105.4638724876
 11
57.5531244509
 21
102.5603898923
  0
LINE
  5
292
100
AcDbEntity
  8
0
100
AcDbLine
 62
7
  6
CONTINUOUS
 10
57.9663730393
 20
83.7193290488
 11
57.9663730393
 21
68.3723496164
  0
LINE
  5
293
100
AcDbEntity
  8
0
100
AcDbLine
 62
7
  6
CONTINUOUS
 10
59.1259598246
 20
63.2348251668
 11
59.1259598246
 21
69.2699211328
  0
LINE
  5
294
100
AcDbEntity
  8
0
100
AcDbLine
 62
7
  6
CONTINUOUS
 10
59.2235931931
 20
70.5499178891
 11
59.2235931931
 21
85.8968973215
  0
LINE
  5
295
100
AcDbEntity
  8
0
100
AcDbLine
 62
7
  6
CONTINUOUS
 10
60.2114172537
 20
68.85966638
 11
60.2114172537
 21
69.9796103039
  0
LINE
  5
296
100
AcDbEntity
  8
0
100
AcDbLine
 62
7
  6
CONTINUOUS
 10
71.8317911307
 20
97.2202669316
 11
70.7541648828
 21
94.9389699295
  0
LINE
  5
297
100
AcDbEntity
  8
0
100
AcDbLine
 62
7
  6
CONTINUOUS
 10
85.4997236735
 20
79.2497650711
 11
84.4041369881
 21
78.6172315791
  0
LINE
  5
298
100
AcDbEntity
  8
0
100
AcDbLine
 62
7
  6
CONTINUOUS
 10
33.5516553696
 20
48.739148423
 11
32.3727131603
 21
48.0584812736
  0
LINE
  5
299
100
AcDbEntity
  8
0
100
AcDbLine
 62
7
  6
CONTINUOUS
 10
49.3633234934
 20
57.598398098
 11
55.0107066146
 21
60.8588968007
  0
LINE
  5
29A
100
AcDbEntity
  8
0
100
AcDbLine
 62
7
  6
CONTINUOUS
 10
59.1259598246
 20
63.2348251668
 11
68.9401823841
 21
68.9010353808
  0
LINE
  5
29B
100
AcDbEntity
  8
0
100
AcDbLine
 62
7
  6
CONTINUOUS
 10
24.5059850193
 20
43.0809995076
 11
25.5836112672
 21
43.7031635981
  0
LINE
  5
29C
100
AcDbEntity
  8
0
100
AcDbLine
 62
7
  6
CONTINUOUS
 10
84.8351779158
 20
77.8705890061
 11
84.4041369881
 21
77.6217288959
  0
LINE
  5
29D
100
AcDbEntity
  8
0
100
AcDbLine
 62
7
  6
CONTINUOUS
 10
84.4041369881
 20
76.2944455028
 11
85.984655485
 21
77.2069528356
  0
LINE
  5
29E
100
AcDbEntity
  8
0
100
AcDbLine
 62
7
  6
CONTINUOUS
 10
71.0954528263
 20
67.656717561
 11
85.984655485
 21
76.2529514114
  0
LINE
  5
29F
100
AcDbEntity
  8
0
100
AcDbLine
 62
7
  6
CONTINUOUS
 10
68.9401823841
 20
68.9010353808
 11
71.0954528263
 21
67.656717561
  0
LINE
  5
2A0
100
AcDbEntity
  8
0
100
AcDbLine
 62
7
  6
CONTINUOUS
 10
60.4808342844
 20
69.8240658276
 11
60.4808342844
 21
85.17104526
  0
LINE
  5
2A1
100
AcDbEntity
  8
0
100
AcDbLine
 62
7
  6
CONTINUOUS
 10
61.2350537629
 20
100.4347069669
 11
61.2350537629
 21
100.019923739
  0
LINE
  5
2A2
100
AcDbEntity
  8
0
100
AcDbLine
 62
7
  6
CONTINUOUS
 10
61.468658345
 20
68.1338143185
 11
61.468658345
 21
70.3943829105
  0
LINE
  5
2A3
100
AcDbEntity
  8
0
100
AcDbLine
 62
7
  6
CONTINUOUS
 10
61.5943814072
 20
85.8139481535
 11
61.5943814072
 21
82.9104655582
  0
LINE
  5
2A4
100
AcDbEntity
  8
0
100
AcDbLine
 62
7
  6
CONTINUOUS
 10
32.4085119995
 20
90.946710376
 11
37.1680675595
 21
88.1988418573
  0
LINE
  5
2A5
100
AcDbEntity
  8
0
100
AcDbLine
 62
7
  6
CONTINUOUS
 10
46.6871786794
 20
82.7031048199
 11
51.4467342394
 21
79.9552363013
  0
LINE
  5
2A6
100
AcDbEntity
  8
0
100
AcDbLine
 62
7
  6
CONTINUOUS
 10
47.7648049273
 20
83.3252689104
 11
38.2456938074
 21
88.8210059478
  0
LINE
  5
2A7
100
AcDbEntity
  8
0
100
AcDbLine
 62
7
  6
CONTINUOUS
 10
56.8528259164
 20
80.17294356
 11
37.8146036766
 21
91.1644176347
  0
LINE
  5
2A8
100
AcDbEntity
  8
0
100
AcDbLine
 62
7
  6
CONTINUOUS
 10
23.8773131768
 20
35.0029343109
 11
24.9549394247
 21
35.6250984014
  0
LINE
  5
2A9
100
AcDbEntity
  8
0
100
AcDbLine
 62
7
  6
CONTINUOUS
 10
31.2950869123
 20
39.1613983753
 11
32.3727131603
 21
39.7835624658
  0
LINE
  5
2AA
100
AcDbEntity
  8
0
100
AcDbLine
 62
7
  6
CONTINUOUS
 10
56.8528259164
 20
83.0764261553
 11
37.8146036766
 21
94.06790023
  0
LINE
  5
2AB
100
AcDbEntity
  8
0
100
AcDbLine
 62
7
  6
CONTINUOUS
 10
38.9281507994
 20
94.7108031235
 11
40.1853918907
 21
93.984951062
  0
LINE
  5
2AC
100
AcDbEntity
  8
0
100
AcDbLine
 62
7
  6
CONTINUOUS
 10
56.709131948
 20
84.4451811103
 11
57.9663730393
 21
83.7193290488
  0
LINE
  5
2AD
100
AcDbEntity
  8
0
100
AcDbLine
 62
7
  6
CONTINUOUS
 10
68.9401823841
 20
72.4474749846
 11
68.9401823841
 21
68.9010353808
  0
LINE
  5
2AE
100
AcDbEntity
  8
0
100
AcDbLine
 62
7
  6
CONTINUOUS
 10
70.7541648828
 20
94.9389699295
 11
70.7541648828
 21
94.5241867016
  0
LINE
  5
2AF
100
AcDbEntity
  8
0
100
AcDbLine
 62
7
  6
CONTINUOUS
 10
71.0954528263
 20
67.656717561
 11
71.0954528263
 21
73.691813527
  0
LINE
  5
2B0
100
AcDbEntity
  8
0
100
AcDbLine
 62
7
  6
CONTINUOUS
 10
71.8317911307
 20
95.1463507921
 11
71.8317911307
 21
97.2202669316
  0
LINE
  5
2B1
100
AcDbEntity
  8
0
100
AcDbLine
 62
7
  6
CONTINUOUS
 10
35.6774701449
 20
36.631285475
 11
41.8379001955
 21
40.1879901924
  0
LINE
  5
2B2
100
AcDbEntity
  8
0
100
AcDbLine
 62
7
  6
CONTINUOUS
 10
39.7120854202
 20
36.741482094
 11
38.5331432108
 21
36.0608149446
  0
LINE
  5
2B3
100
AcDbEntity
  8
0
100
AcDbLine
 62
7
  6
CONTINUOUS
 10
30.6664150698
 20
31.0833331786
 11
31.7440413177
 21
31.7054972691
  0
LINE
  5
2B4
100
AcDbEntity
  8
0
100
AcDbLine
 62
7
  6
CONTINUOUS
 10
60.4808342844
 20
85.17104526
 11
59.2235931931
 21
85.8968973215
  0
LINE
  5
2B5
100
AcDbEntity
  8
0
100
AcDbLine
 62
7
  6
CONTINUOUS
 10
42.6998531358
 20
95.4366672731
 11
41.4426120445
 21
96.1625193347
  0
LINE
  5
2B6
100
AcDbEntity
  8
0
100
AcDbLine
 62
7
  6
CONTINUOUS
 10
42.5561591674
 20
96.8054222282
 11
61.5943814072
 21
85.8139481535
  0
LINE
  5
2B7
100
AcDbEntity
  8
0
100
AcDbLine
 62
7
  6
CONTINUOUS
 10
75.3878926931
 20
106.0135008467
 11
75.3878926931
 21
108.2947501831
  0
LINE
  5
2B8
100
AcDbEntity
  8
0
100
AcDbLine
 62
7
  6
CONTINUOUS
 10
80.6501544466
 20
105.7542614927
 11
80.5644195202
 21
105.3061486372
  0
LINE
  5
2B9
100
AcDbEntity
  8
0
100
AcDbLine
 62
7
  6
CONTINUOUS
 10
83.0470939943
 20
105.2208192592
 11
83.2905330349
 21
106.2208975113
  0
LINE
  5
2BA
100
AcDbEntity
  8
0
100
AcDbLine
 62
7
  6
CONTINUOUS
 10
85.984655485
 20
77.2069528356
 11
84.8351779158
 21
77.8705890061
  0
LINE
  5
2BB
100
AcDbEntity
  8
0
100
AcDbLine
 62
7
  6
CONTINUOUS
 10
76.3179654523
 20
107.757784573
 11
76.3179654523
 21
105.4765352366
  0
LINE
  5
2BC
100
AcDbEntity
  8
0
100
AcDbLine
 62
7
  6
CONTINUOUS
 10
76.5913466907
 20
91.5689158176
 11
76.5913466907
 21
94.4723984129
  0
LINE
  5
2BD
100
AcDbEntity
  8
0
100
AcDbLine
 62
7
  6
CONTINUOUS
 10
37.4555169629
 20
27.1637320463
 11
38.5331432108
 21
27.7858961368
  0
LINE
  5
2BE
100
AcDbEntity
  8
0
100
AcDbLine
 62
7
  6
CONTINUOUS
 10
84.4041369881
 20
80.5252020325
 11
85.4997236735
 21
79.8926790743
  0
LINE
  5
2BF
100
AcDbEntity
  8
0
100
AcDbLine
 62
7
  6
CONTINUOUS
 10
80.5644195202
 20
104.2322084744
 11
80.5644195202
 21
105.3061486372
  0
LINE
  5
2C0
100
AcDbEntity
  8
0
100
AcDbLine
 62
7
  6
CONTINUOUS
 10
83.2905330349
 20
105.0802728432
 11
83.2905330349
 21
106.2208975113
  0
LINE
  5
2C1
100
AcDbEntity
  8
0
100
AcDbLine
 62
7
  6
CONTINUOUS
 10
41.8379001955
 20
24.6336191461
 11
49.3633234934
 21
28.9783983781
  0
LINE
  5
2C2
100
AcDbEntity
  8
0
100
AcDbLine
 62
7
  6
CONTINUOUS
 10
70.7541648828
 20
94.5241867016
 11
61.2350537629
 21
100.019923739
  0
LINE
  5
2C3
100
AcDbEntity
  8
0
100
AcDbLine
 62
7
  6
CONTINUOUS
 10
76.5913466907
 20
91.5689158176
 11
71.1133552353
 21
94.7315641104
  0
LINE
  5
2C4
100
AcDbEntity
  8
0
100
AcDbLine
 62
7
  6
CONTINUOUS
 10
70.7541648828
 20
94.9389699295
 11
57.5531244509
 21
102.5603898923
  0
LINE
  5
2C5
100
AcDbEntity
  8
0
100
AcDbLine
 62
7
  6
CONTINUOUS
 10
84.4041369881
 20
81.5829316586
 11
84.4041369881
 21
79.2601455823
  0
LINE
  5
2C6
100
AcDbEntity
  8
0
100
AcDbLine
 62
7
  6
CONTINUOUS
 10
84.4041369881
 20
78.6172315791
 11
84.4041369881
 21
76.2944455028
  0
LINE
  5
2C7
100
AcDbEntity
  8
0
100
AcDbLine
 62
7
  6
CONTINUOUS
 10
84.9968045048
 20
100.4659185287
 11
84.9968045048
 21
103.05824732
  0
LINE
  5
2C8
100
AcDbEntity
  8
0
100
AcDbLine
 62
7
  6
CONTINUOUS
 10
85.4997236735
 20
79.8926790743
 11
85.4997236735
 21
79.2497650711
  0
LINE
  5
2C9
100
AcDbEntity
  8
0
100
AcDbLine
 62
7
  6
CONTINUOUS
 10
85.984655485
 20
99.8955954018
 11
85.984655485
 21
82.4954389913
  0
LINE
  5
2CA
100
AcDbEntity
  8
0
100
AcDbLine
 62
7
  6
CONTINUOUS
 10
85.984655485
 20
77.2069528356
 11
85.984655485
 21
76.2529514114
  0
LINE
  5
2CB
100
AcDbEntity
  8
0
100
AcDbLine
 62
7
  6
CONTINUOUS
 10
76.5913466907
 20
94.4723984129
 11
57.5531244509
 21
105.4638724876
  0
LINE
  5
2CC
100
AcDbEntity
  8
0
100
AcDbLine
 62
7
  6
CONTINUOUS
 10
77.9023569293
 20
109.3316920608
 11
76.1701478487
 21
109.191136147
  0
LINE
  5
2CD
100
AcDbEntity
  8
0
100
AcDbLine
 62
7
  6
CONTINUOUS
 10
74.6049342925
 20
110.0947921716
 11
72.4243935917
 21
110.3167679354
  0
LINE
  5
2CE
100
AcDbEntity
  8
0
100
AcDbLine
 62
7
  6
CONTINUOUS
 10
84.9968045048
 20
103.05824732
 11
84.6123075505
 21
104.3171632346
  0
LINE
  5
2CF
100
AcDbEntity
  8
0
100
AcDbLine
 62
7
  6
CONTINUOUS
 10
85.984655485
 20
99.8955954018
 11
82.7517498217
 21
101.7620721315
  0
LINE
  5
2D0
100
AcDbEntity
  8
0
100
AcDbLine
 62
7
  6
CONTINUOUS
 10
79.5188441583
 20
103.6285488611
 11
73.4122445719
 21
107.1541160172
  0
LINE
  5
2D1
100
AcDbEntity
  8
0
100
AcDbLine
 62
7
  6
CONTINUOUS
 10
70.1793389085
 20
109.0205927468
 11
66.9464332452
 21
110.8870694765
  0
LINE
  5
2D2
100
AcDbEntity
  8
0
100
AcDbLine
 62
7
  6
CONTINUOUS
 10
75.3878926931
 20
108.2947501831
 11
76.3179654523
 21
107.757784573
  0
LINE
  5
2D3
100
AcDbEntity
  8
0
100
AcDbLine
 62
7
  6
CONTINUOUS
 10
80.5644195202
 20
105.3061486372
 11
81.4944922795
 21
104.769183027
  0
LINE
  5
2D4
100
AcDbEntity
  8
0
100
AcDbLine
 62
7
  6
CONTINUOUS
 10
84.6123075505
 20
104.3171632346
 11
83.0470939943
 21
105.2208192592
  0
LINE
  5
2D5
100
AcDbEntity
  8
0
100
AcDbLine
 62
7
  6
CONTINUOUS
 10
76.1701478487
 20
109.191136147
 11
74.6049342925
 21
110.0947921716
  0
LINE
  5
2D6
100
AcDbEntity
  8
0
100
AcDbLine
 62
7
  6
CONTINUOUS
 10
83.2905330349
 20
106.2208975113
 11
77.9023569293
 21
109.3316920608
  0
SPLINE
  5
2D7
100
AcDbEntity
  8
0
100
AcDbSpline
 62
7
  6
CONTINUOUS
 70
0
 71
3
 72
17
 73
13
 74
0
 42
0.0000001
 43
0.0000001
 44
0.0000000001
 40
0.0
 40
0.0
 40
0.0
 40
0.0
 40
0.0428571277
 40
0.087483909
 40
0.1353159407
 40
0.187279013
 40
0.3045397097
 40
0.4382076182
 40
0.5825507004
 40
0.7297102646
 40
0.8713099941
 40
1.0
 40
1.0
 40
1.0
 40
1.0
 10
43.2205907125
 20
94.7108091106
 30
0.0
 10
43.2206110454
 20
94.6601973877
 30
0.0
 10
43.2070593667
 20
94.5564430498
 30
0.0
 10
43.1475734103
 20
94.4066297521
 30
0.0
 10
43.0510011294
 20
94.2646083502
 30
0.0
 10
42.8692514921
 20
94.082168127
 30
0.0
 10
42.5595179549
 20
93.8936291563
 30
0.0
 10
42.1141820474
 20
93.7448664138
 30
0.0
 10
41.614406437
 20
93.6746308687
 30
0.0
 10
41.1007036819
 20
93.6888401798
 30
0.0
 10
40.6150150922
 20
93.786011035
 30
0.0
 10
40.3170070773
 20
93.9089647176
 30
0.0
 10
40.1853918907
 20
93.984951062
 30
0.0
  0
SPLINE
  5
2D8
100
AcDbEntity
  8
0
100
AcDbSpline
 62
7
  6
CONTINUOUS
 70
0
 71
3
 72
9
 73
5
 74
0
 42
0.0000001
 43
0.0000001
 44
0.0000000001
 40
0.0
 40
0.0
 40
0.0
 40
0.0
 40
0.4786927343
 40
1.0
 40
1.0
 40
1.0
 40
1.0
 10
79.661053914
 20
103.8567670308
 30
0.0
 10
79.469518888
 20
103.9721014758
 30
0.0
 10
79.0444932089
 20
104.1724817031
 30
0.0
 10
78.5942600609
 20
104.3031776107
 30
0.0
 10
78.3564226119
 20
104.3553052002
 30
0.0
  0
SPLINE
  5
2D9
100
AcDbEntity
  8
0
100
AcDbSpline
 62
7
  6
CONTINUOUS
 70
0
 71
3
 72
9
 73
5
 74
0
 42
0.0000001
 43
0.0000001
 44
0.0000000001
 40
0.0
 40
0.0
 40
0.0
 40
0.0
 40
0.4803947909
 40
1.0
 40
1.0
 40
1.0
 40
1.0
 10
60.2114172537
 20
68.85966638
 30
0.0
 10
60.0500476551
 20
68.9528310535
 30
0.0
 10
59.6959470249
 20
69.1159042725
 30
0.0
 10
59.3225216691
 20
69.2253981489
 30
0.0
 10
59.1259598246
 20
69.2699211328
 30
0.0
  0
SPLINE
  5
2DA
100
AcDbEntity
  8
0
100
AcDbSpline
 62
7
  6
CONTINUOUS
 70
0
 71
3
 72
10
 73
6
 74
0
 42
0.0000001
 43
0.0000001
 44
0.0000000001
 40
0.0
 40
0.0
 40
0.0
 40
0.0
 40
0.2284136071
 40
0.4751389569
 40
1.0
 40
1.0
 40
1.0
 40
1.0
 10
59.2235931931
 20
70.5499178891
 30
0.0
 10
59.1375646719
 20
70.5995853554
 30
0.0
 10
58.9492775577
 20
70.6871921421
 30
0.0
 10
58.5323870448
 20
70.8139872799
 30
0.0
 10
58.1946416541
 20
70.8505236115
 30
0.0
 10
57.9663806452
 20
70.8505555226
 30
0.0
  0
SPLINE
  5
2DB
100
AcDbEntity
  8
0
100
AcDbSpline
 62
7
  6
CONTINUOUS
 70
0
 71
3
 72
11
 73
7
 74
0
 42
0.0000001
 43
0.0000001
 44
0.0000000001
 40
0.0
 40
0.0
 40
0.0
 40
0.0
 40
0.2896433527
 40
0.5491132405
 40
0.7822372579
 40
1.0
 40
1.0
 40
1.0
 40
1.0
 10
56.709131948
 20
84.4451811103
 30
0.0
 10
56.6311311434
 20
84.4902138771
 30
0.0
 10
56.4896003556
 20
84.5877325832
 30
0.0
 10
56.3204078695
 20
84.7654828697
 30
0.0
 10
56.2133472771
 20
84.9621694152
 30
0.0
 10
56.1884215754
 20
85.1033241033
 30
0.0
 10
56.1883943713
 20
85.1710392728
 30
0.0
  0
SPLINE
  5
2DC
100
AcDbEntity
  8
0
100
AcDbSpline
 62
7
  6
CONTINUOUS
 70
0
 71
3
 72
15
 73
11
 74
0
 42
0.0000001
 43
0.0000001
 44
0.0000000001
 40
0.0
 40
0.0
 40
0.0
 40
0.0
 40
0.1383981176
 40
0.2800534806
 40
0.4209411655
 40
0.5572046085
 40
0.6853430948
 40
0.7455415968
 40
0.8027993705
 40
1.0
 40
1.0
 40
1.0
 40
1.0
 10
59.1259598246
 20
63.2348251668
 30
0.0
 10
58.9189447708
 20
63.2817158944
 30
0.0
 10
58.4933855871
 20
63.34894694
 30
0.0
 10
57.8468363369
 20
63.3729272972
 30
0.0
 10
57.205054624
 20
63.3210910181
 30
0.0
 10
56.5945848568
 20
63.1956309475
 30
0.0
 10
56.1230104018
 20
63.0306457917
 30
0.0
 10
55.7842098375
 20
62.8642867827
 30
0.0
 10
55.3720112737
 20
62.6158980923
 30
0.0
 10
55.0726003307
 20
62.3327938685
 30
0.0
 10
54.9308083151
 20
62.065647344
 30
0.0
  0
SPLINE
  5
2DD
100
AcDbEntity
  8
0
100
AcDbSpline
 62
7
  6
CONTINUOUS
 70
0
 71
3
 72
17
 73
13
 74
0
 42
0.0000001
 43
0.0000001
 44
0.0000000001
 40
0.0
 40
0.0
 40
0.0
 40
0.0
 40
0.1505401211
 40
0.3009935026
 40
0.4464222043
 40
0.5824195896
 40
0.7056947484
 40
0.7621056404
 40
0.8150099997
 40
0.9112701546
 40
0.9561608128
 40
1.0
 40
1.0
 40
1.0
 40
1.0
 10
76.3179654523
 20
107.757784573
 30
0.0
 10
76.5795558565
 20
107.7915649267
 30
0.0
 10
77.1076865072
 20
107.8241223714
 30
0.0
 10
77.8901902067
 20
107.772455283
 30
0.0
 10
78.634570275
 20
107.6233239138
 30
0.0
 10
79.3048200745
 20
107.3838102523
 30
0.0
 10
79.7897487822
 20
107.1098401617
 30
0.0
 10
80.1071469032
 20
106.8526227567
 30
0.0
 10
80.3574493499
 20
106.592968791
 30
0.0
 10
80.5421132078
 20
106.2992224676
 30
0.0
 10
80.634821663
 20
105.986953688
 30
0.0
 10
80.650174555
 20
105.8310724638
 30
0.0
 10
80.650156052
 20
105.7542614926
 30
0.0
  0
SPLINE
  5
2DE
100
AcDbEntity
  8
0
100
AcDbSpline
 62
7
  6
CONTINUOUS
 70
0
 71
3
 72
17
 73
13
 74
0
 42
0.0000001
 43
0.0000001
 44
0.0000000001
 40
0.0
 40
0.0
 40
0.0
 40
0.0
 40
0.0428571277
 40
0.087483909
 40
0.1353159407
 40
0.187279013
 40
0.3045397097
 40
0.4382076182
 40
0.5825507004
 40
0.7297102646
 40
0.8713099941
 40
1.0
 40
1.0
 40
1.0
 40
1.0
 10
56.1883943713
 20
85.1710392728
 30
0.0
 10
56.1883740384
 20
85.2216509957
 30
0.0
 10
56.2019257171
 20
85.3254053336
 30
0.0
 10
56.2614116735
 20
85.4752186314
 30
0.0
 10
56.3579839544
 20
85.6172400333
 30
0.0
 10
56.5397335917
 20
85.7996802564
 30
0.0
 10
56.8494671289
 20
85.9882192272
 30
0.0
 10
57.2948030364
 20
86.1369819696
 30
0.0
 10
57.7945786468
 20
86.2072175147
 30
0.0
 10
58.3082814019
 20
86.1930082037
 30
0.0
 10
58.7939699916
 20
86.0958373485
 30
0.0
 10
59.0919780065
 20
85.9728836659
 30
0.0
 10
59.2235931931
 20
85.8968973215
 30
0.0
  0
SPLINE
  5
2DF
100
AcDbEntity
  8
0
100
AcDbSpline
 62
7
  6
CONTINUOUS
 70
0
 71
3
 72
11
 73
7
 74
0
 42
0.0000001
 43
0.0000001
 44
0.0000000001
 40
0.0
 40
0.0
 40
0.0
 40
0.0
 40
0.2896433527
 40
0.5491132405
 40
0.7822372579
 40
1.0
 40
1.0
 40
1.0
 40
1.0
 10
42.6998531358
 20
95.4366672731
 30
0.0
 10
42.7778539404
 20
95.3916345064
 30
0.0
 10
42.9193847282
 20
95.2941158003
 30
0.0
 10
43.0885772143
 20
95.1163655138
 30
0.0
 10
43.1956378067
 20
94.9196789682
 30
0.0
 10
43.2205635084
 20
94.7785242801
 30
0.0
 10
43.2205907125
 20
94.7108091106
 30
0.0
  0
ENDSEC
  0
SECTION
  2
OBJECTS
  0
DICTIONARY
  5
C
100
AcDbDictionary
280
0
281
1
  3
ACAD_GROUP
350
D
  3
ACAD_MLINESTYLE
350
17
  3
ACAD_LAYOUT
350
1A
  3
ACAD_PLOTSETTINGS
350
19
  3
ACAD_PLOTSTYLENAME
350
E
  0
DICTIONARY
  5
D
102
{ACAD_REACTORS
330
C
102
}
100
AcDbDictionary
280
0
281
1
  0
ACDBDICTIONARYWDFLT
  5
E
102
{ACAD_REACTORS
330
C
102
}
100
AcDbDictionary
281
1
  3
Normal
350
F
100
AcDbDictionaryWithDefault
340
F
  0
DICTIONARY
  5
17
102
{ACAD_REACTORS
330
C
102
}
100
AcDbDictionary
280
0
281
1
  3
Standard
350
18
  0
DICTIONARY
  5
19
102
{ACAD_REACTORS
330
C
102
}
100
AcDbDictionary
281
1
  0
DICTIONARY
  5
1A
102
{ACAD_REACTORS
330
C
102
}
100
AcDbDictionary
281
1
  3
Model
350
2E0
  3
Layout1
350
2E1
  0
ACDBPLACEHOLDER
  5
F
102
{ACAD_REACTORS
330
E
102
}
  0
MLINESTYLE
  5
18
102
{ACAD_REACTORS
330
17
102
}
100
AcDbMlineStyle
  2
STANDARD
 70
0
  3

 62
256
 51
90.0
 52
90.0
 71
2
 49
0.5
 62
256
  6
BYLAYER
 49
-0.5
 62
256
  6
BYLAYER
  0
LAYOUT
  5
2E0
102
{ACAD_REACTORS
330
1A
102
}
100
AcDbPlotSettings
  1

  2
none_device
  4

  6

 40
0.0
 41
0.0
 42
0.0
 43
0.0
 44
210.0
 45
297.0
 46
0.0
 47
0.0
 48
0.0
 49
0.0
140
0.0
141
0.0
142
1.0
143
1.0
 70
1024
 72
1
 73
0
 74
0
  7

 75
0
147
1.0
148
0.0
149
0.0
100
AcDbLayout
  1
Model
 70
0
 71
0
 10
0.0
 20
0.0
 11
210.0
 21
297.0
 12
0.0
 22
0.0
 32
0.0
 14
0.0
 24
0.0
 34
0.0
 15
0.0
 25
0.0
 35
0.0
146
0.0
 13
0.0
 23
0.0
 33
0.0
 16
1.0
 26
0.0
 36
0.0
 17
0.0
 27
1.0
 37
0.0
 76
0
330
210
345
0
346
0
  0
LAYOUT
  5
2E1
102
{ACAD_REACTORS
330
1A
102
}
100
AcDbPlotSettings
  1

  2
none_device
  4

  6

 40
0.0
 41
0.0
 42
0.0
 43
0.0
 44
210.0
 45
297.0
 46
0.0
 47
0.0
 48
0.0
 49
0.0
140
0.0
141
0.0
142
1.0
143
1.0
 70
0
 72
1
 73
0
 74
0
  7

 75
0
147
1.0
148
0.0
149
0.0
100
AcDbLayout
  1
Layout1
 70
0
 71
1
 10
0.0
 20
0.0
 11
210.0
 21
297.0
 12
0.0
 22
0.0
 32
0.0
 14
0.0
 24
0.0
 34
0.0
 15
0.0
 25
0.0
 35
0.0
146
0.0
 13
0.0
 23
0.0
 33
0.0
 16
1.0
 26
0.0
 36
0.0
 17
0.0
 27
1.0
 37
0.0
 76
0
330
211
345
0
346
0
  0
ENDSEC
  0
EOF
