999
DXF file: C:\Users\sesa63760\Dev\_Creo\CAD\MCADID0004120_3D-CAD\drw0001_2.dxf
999
Pro/ENGINEER 2019471 by Parametric Technology Corporation
  0
SECTION
  2
HEADER
  9
$ACADVER
  1
AC1024
  9
$DWGCODEPAGE
  3
ANSI_1252
  9
$EXTMAX
 10
75.4770101693
 20
106.7460572395
 30
0.0
  9
$EXTMIN
 10
0.0
 20
0.0
 30
0.0
  9
$LIMMIN
 10
0.0
 20
0.0
  9
$LIMMAX
 10
75.4770101693
 20
106.7460572395
  9
$VIEWCTR
 10
37.7385050847
 20
53.3730286197
  9
$VIEWSIZE
 40
106.7460572395
  9
$CLAYER
  8
0
  9
$LTSCALE
 40
6.9582615089
  9
$CELTYPE
  6
BYLAYER
  9
$DIMSCALE
 40
1.0
  9
$DIMASZ
 40
0.8985358353
  9
$DIMEXO
 40
1.0
  9
$DIMDLI
 40
4.8075261335
  9
$DIMEXE
 40
1.0
  9
$DIMCEN
 40
1.1386246106
  9
$DIMLFAC
 40
1.0
  9
$DIMBLK
  1
_FILLED
  9
$DIMALT
 70
0
  9
$DIMALTF
 40
0.0393700787
  9
$DIMTXT
 40
1.2579501695
  9
$DIMTOL
 70
1
  9
$DIMLIM
 70
0
  9
$DIMTFAC
 40
1.0
  9
$DIMTP
 40
0.01
  9
$DIMTM
 40
0.01
  9
$DIMGAP
 40
0.625
  9
$DIMDSEP
 70
46
  9
$AUNITS
 70
0
  9
$PDMODE
 70
3
  9
$PDSIZE
 40
0.3125
  9
$HANDSEED
  5
2A2
  9
$TILEMODE
 70
1
  9
$MEASUREMENT
 70
1
  9
$INSUNITS
 70
4
  0
ENDSEC
  0
SECTION
  2
CLASSES
  0
CLASS
  1
ACDBDICTIONARYWDFLT
  2
AcDbDictionaryWithDefault
  3
AutoCAD 2000
 90
0
 91
1
280
0
281
0
  0
CLASS
  1
ACDBPLACEHOLDER
  2
AcDbPlaceHolder
  3
AutoCAD 2000
 90
0
 91
1
280
0
281
0
  0
CLASS
  1
LAYOUT
  2
AcDbLayout
  3
AutoCAD 2000
 90
0
 91
0
280
0
281
0
  0
ENDSEC
  0
SECTION
  2
TABLES
  0
TABLE
  2
VPORT
  5
8
100
AcDbSymbolTable
 70
2
  0
VPORT
  5
1F4
100
AcDbSymbolTableRecord
100
AcDbViewportTableRecord
  2
*ACTIVE
 70
0
 10
0.0
 20
0.0
 11
1.0
 21
1.0
 12
37.7385050847
 22
53.3730286197
 13
0.0
 23
0.0
 14
1.0
 24
1.0
 15
0.0
 25
0.0
 16
0.0
 26
0.0
 36
1.0
 17
0.0
 27
0.0
 37
0.0
 40
106.7460572395
 41
0.7070707071
 42
50.0
 43
0.0
 44
0.0
 50
0.0
 51
0.0
 71
0
 72
100
 73
1
 74
1
 75
0
 76
0
 77
0
 78
0
  0
ENDTAB
  0
TABLE
  2
LTYPE
  5
5
100
AcDbSymbolTable
 70
6
  0
LTYPE
  5
14
100
AcDbSymbolTableRecord
100
AcDbLinetypeTableRecord
  2
BYBLOCK
 70
0
  3

 72
65
 73
0
 40
0.0
  0
LTYPE
  5
15
100
AcDbSymbolTableRecord
100
AcDbLinetypeTableRecord
  2
BYLAYER
 70
0
  3

 72
65
 73
0
 40
0.0
  0
LTYPE
  5
16
100
AcDbSymbolTableRecord
100
AcDbLinetypeTableRecord
  2
CONTINUOUS
 70
64
  3
Solid line
 72
65
 73
0
 40
0.0
  0
LTYPE
  5
1F5
100
AcDbSymbolTableRecord
100
AcDbLinetypeTableRecord
  2
CENTER
 70
64
  3
____ _ ____ _ ____ _ ____ _ ____ _ ____ _ ____
 72
65
 73
4
 40
0.6
 49
0.375
 74
0
 49
-0.075
 74
0
 49
0.075
 74
0
 49
-0.075
 74
0
  0
LTYPE
  5
1F6
100
AcDbSymbolTableRecord
100
AcDbLinetypeTableRecord
  2
HIDDEN
 70
64
  3
- - - - - - - - - - - - - - - - - - - -
 72
65
 73
2
 40
0.2
 49
0.1
 74
0
 49
-0.1
 74
0
  0
LTYPE
  5
1F7
100
AcDbSymbolTableRecord
100
AcDbLinetypeTableRecord
  2
PHANTOM
 70
64
  3
_____ _ _ _____ _ _ _____ _ _ _____
 72
65
 73
6
 40
0.8
 49
0.45
 74
0
 49
-0.05
 74
0
 49
0.1
 74
0
 49
-0.05
 74
0
 49
0.1
 74
0
 49
-0.05
 74
0
  0
LTYPE
  5
1F8
100
AcDbSymbolTableRecord
100
AcDbLinetypeTableRecord
  2
DOT
 70
64
  3
. . . . . . . . . . . . . . . . . . . .
 72
65
 73
2
 40
0.2
 49
0.1
 74
0
 49
-0.1
 74
0
  0
LTYPE
  5
1F9
100
AcDbSymbolTableRecord
100
AcDbLinetypeTableRecord
  2
DASHED
 70
64
  3
- - - - - - - - - - - - - - - - - - - -
 72
65
 73
2
 40
0.2
 49
0.1
 74
0
 49
-0.1
 74
0
  0
ENDTAB
  0
TABLE
  2
LAYER
  5
2
100
AcDbSymbolTable
 70
36
  0
LAYER
  5
10
100
AcDbSymbolTableRecord
100
AcDbLayerTableRecord
  2
0
 70
0
 62
7
  6
CONTINUOUS
370
-3
390
F
  0
LAYER
  5
1FA
100
AcDbSymbolTableRecord
100
AcDbLayerTableRecord
  2
DEFAULT_1
 70
0
 62
7
  6
CENTER
370
-3
390
F
  0
LAYER
  5
1FB
100
AcDbSymbolTableRecord
100
AcDbLayerTableRecord
  2
DEFAULT_2
 70
0
 62
7
  6
HIDDEN
370
-3
390
F
  0
LAYER
  5
1FC
100
AcDbSymbolTableRecord
100
AcDbLayerTableRecord
  2
DEFAULT_3
 70
0
 62
7
  6
PHANTOM
370
-3
390
F
  0
LAYER
  5
1FD
100
AcDbSymbolTableRecord
100
AcDbLayerTableRecord
  2
00_COMPONENTS
 70
0
 62
7
  6
CONTINUOUS
370
-3
390
F
  0
LAYER
  5
1FE
100
AcDbSymbolTableRecord
100
AcDbLayerTableRecord
  2
01_1_DEFAULT_DATUMS
 70
0
 62
7
  6
CONTINUOUS
370
-3
390
F
  0
LAYER
  5
1FF
100
AcDbSymbolTableRecord
100
AcDbLayerTableRecord
  2
01_PLANES
 70
0
 62
7
  6
CONTINUOUS
370
-3
390
F
  0
LAYER
  5
200
100
AcDbSymbolTableRecord
100
AcDbLayerTableRecord
  2
02_COORD_SYS
 70
0
 62
7
  6
CONTINUOUS
370
-3
390
F
  0
LAYER
  5
201
100
AcDbSymbolTableRecord
100
AcDbLayerTableRecord
  2
03_AXES
 70
0
 62
7
  6
CONTINUOUS
370
-3
390
F
  0
LAYER
  5
202
100
AcDbSymbolTableRecord
100
AcDbLayerTableRecord
  2
04_POINTS
 70
0
 62
7
  6
CONTINUOUS
370
-3
390
F
  0
LAYER
  5
203
100
AcDbSymbolTableRecord
100
AcDbLayerTableRecord
  2
05_CURVES
 70
0
 62
7
  6
CONTINUOUS
370
-3
390
F
  0
LAYER
  5
204
100
AcDbSymbolTableRecord
100
AcDbLayerTableRecord
  2
06_SURFS
 70
0
 62
7
  6
CONTINUOUS
370
-3
390
F
  0
LAYER
  5
205
100
AcDbSymbolTableRecord
100
AcDbLayerTableRecord
  2
07_COSMETICS
 70
0
 62
7
  6
CONTINUOUS
370
-3
390
F
  0
LAYER
  5
206
100
AcDbSymbolTableRecord
100
AcDbLayerTableRecord
  2
10_NOTES
 70
0
 62
7
  6
CONTINUOUS
370
-3
390
F
  0
LAYER
  5
207
100
AcDbSymbolTableRecord
100
AcDbLayerTableRecord
  2
11_NOTES_PUB
 70
0
 62
7
  6
CONTINUOUS
370
-3
390
F
  0
LAYER
  5
208
100
AcDbSymbolTableRecord
100
AcDbLayerTableRecord
  2
13_REF_GTOL
 70
0
 62
7
  6
CONTINUOUS
370
-3
390
F
  0
LAYER
  5
209
100
AcDbSymbolTableRecord
100
AcDbLayerTableRecord
  2
16_MISC
 70
0
 62
7
  6
CONTINUOUS
370
-3
390
F
  0
LAYER
  5
20A
100
AcDbSymbolTableRecord
100
AcDbLayerTableRecord
  2
17_NO_PRINT
 70
0
 62
7
  6
CONTINUOUS
370
-3
390
F
  0
LAYER
  5
20B
100
AcDbSymbolTableRecord
100
AcDbLayerTableRecord
  2
18_DATUM_CAMS_JOINTS
 70
0
 62
7
  6
CONTINUOUS
370
-3
390
F
  0
LAYER
  5
20C
100
AcDbSymbolTableRecord
100
AcDbLayerTableRecord
  2
19_DATUM_FUNCTIONAL
 70
0
 62
7
  6
CONTINUOUS
370
-3
390
F
  0
LAYER
  5
20D
100
AcDbSymbolTableRecord
100
AcDbLayerTableRecord
  2
20_DATUM_KINEMATIC_SCHEME
 70
0
 62
7
  6
CONTINUOUS
370
-3
390
F
  0
ENDTAB
  0
TABLE
  2
STYLE
  5
3
100
AcDbSymbolTable
 70
1
  0
STYLE
  5
11
100
AcDbSymbolTableRecord
100
AcDbTextStyleTableRecord
  2
STANDARD
 70
0
 40
0.0
 41
1.0
 50
0.0
 71
0
 42
0.2
  3
ARIAL.TTF
  4

  0
STYLE
  5
20E
100
AcDbSymbolTableRecord
100
AcDbTextStyleTableRecord
  2
TEXTSTYLE_1
 70
0
 40
0.0
 41
0.8
 50
0.0
 71
0
 42
0.2
  3
gdt
  4

  0
ENDTAB
  0
TABLE
  2
VIEW
  5
6
100
AcDbSymbolTable
 70
0
  0
ENDTAB
  0
TABLE
  2
UCS
  5
7
100
AcDbSymbolTable
 70
0
  0
ENDTAB
  0
TABLE
  2
APPID
  5
9
100
AcDbSymbolTable
 70
1
  0
APPID
  5
20F
100
AcDbSymbolTableRecord
100
AcDbRegAppTableRecord
  2
ACAD
 70
0
  0
ENDTAB
  0
TABLE
  2
BLOCK_RECORD
  5
1
100
AcDbSymbolTable
 70
0
  0
BLOCK_RECORD
  5
210
100
AcDbSymbolTableRecord
100
AcDbBlockTableRecord
  2
*Model_Space
  0
BLOCK_RECORD
  5
211
100
AcDbSymbolTableRecord
100
AcDbBlockTableRecord
  2
*Paper_Space
  0
BLOCK_RECORD
  5
212
100
AcDbSymbolTableRecord
100
AcDbBlockTableRecord
  2
_FILLED
  0
ENDTAB
  0
TABLE
  2
DIMSTYLE
  5
A
100
AcDbSymbolTable
 70
1
100
AcDbDimStyleTable
 71
0
  0
DIMSTYLE
105
213
100
AcDbSymbolTableRecord
100
AcDbDimStyleTableRecord
  2
STANDARD
 70
0
  3

  4

 40
1.0
 41
0.8985358353
 42
1.0
 43
0.38
 44
1.0
 45
0.0
 46
0.0
 47
0.01
 48
0.01
140
1.2579501695
141
0.09
142
0.0
143
25.4
144
1.0
145
0.0
146
1.0
147
0.625
 71
1
 72
0
 73
0
 74
0
 75
0
 76
0
 77
1
 78
8
 79
2
170
0
171
1
172
0
173
0
174
0
175
0
176
0
177
0
178
0
270
2
179
2
271
2
272
2
273
2
274
2
275
0
280
0
281
0
282
0
283
1
284
8
285
0
286
0
287
3
288
0
340
11
278
46
341
212
342
212
343
212
344
212
  0
ENDTAB
  0
ENDSEC
  0
SECTION
  2
BLOCKS
  0
BLOCK
  5
20
100
AcDbEntity
  8
0
100
AcDbBlockBegin
  2
*Model_Space
 70
0
 10
0.0
 20
0.0
 30
0.0
  3
*Model_Space
  1

  0
ENDBLK
  5
21
100
AcDbEntity
  8
0
100
AcDbBlockEnd
  0
BLOCK
  5
1C
100
AcDbEntity
  8
0
100
AcDbBlockBegin
  2
*Paper_Space
 70
0
 10
0.0
 20
0.0
 30
0.0
  3
*Paper_Space
  1

  0
ENDBLK
  5
1D
100
AcDbEntity
  8
0
100
AcDbBlockEnd
  0
BLOCK
  5
214
100
AcDbEntity
  8
0
100
AcDbBlockBegin
  2
_FILLED
 70
64
 10
0.0
 20
0.0
  3
_FILLED
  1

  0
SOLID
  5
215
100
AcDbEntity
  8
0
  6
BYBLOCK
 62
0
100
AcDbTrace
 10
0.0
 20
0.0
 11
-1.0
 21
0.25
 12
-1.0
 22
-0.25
 13
-1.0
 23
-0.25
  0
ENDBLK
  5
216
100
AcDbEntity
  8
0
  6
BYBLOCK
 62
0
100
AcDbBlockEnd
  0
ENDSEC
  0
SECTION
  2
ENTITIES
  0
LINE
  5
217
100
AcDbEntity
  8
0
100
AcDbLine
 62
7
  6
BYLAYER
 10
8.2755480375
 20
46.5710892851
 11
8.2755480375
 21
59.7831720988
  0
LINE
  5
218
100
AcDbEntity
  8
0
100
AcDbLine
 62
7
  6
BYLAYER
 10
8.4734904432
 20
46.3729743486
 11
8.4734904432
 21
59.9811145044
  0
LINE
  5
219
100
AcDbEntity
  8
0
100
AcDbLine
 62
7
  6
BYLAYER
 10
9.5740502186
 20
59.9811145044
 11
9.5740502186
 21
46.3729743486
  0
LINE
  5
21A
100
AcDbEntity
  8
0
100
AcDbLine
 62
7
  6
BYLAYER
 10
9.7759514724
 20
45.0813968243
 11
9.7759514724
 21
61.272703077
  0
LINE
  5
21B
100
AcDbEntity
  8
0
100
AcDbLine
 62
7
  6
BYLAYER
 10
9.971914454
 20
44.8834433703
 11
9.971914454
 21
61.4706454827
  0
LINE
  5
21C
100
AcDbEntity
  8
0
100
AcDbLine
 62
7
  6
BYLAYER
 10
10.9754824506
 20
44.7818660383
 11
10.9754824506
 21
61.5722228147
  0
LINE
  5
21D
100
AcDbEntity
  8
0
100
AcDbLine
 62
7
  6
BYLAYER
 10
11.5774221962
 20
44.1836884162
 11
11.5774221962
 21
62.1704004368
  0
LINE
  5
21E
100
AcDbEntity
  8
0
100
AcDbLine
 62
7
  6
BYLAYER
 10
11.5774221962
 20
62.1704004368
 11
10.9754824506
 21
61.5722228147
  0
LINE
  5
21F
100
AcDbEntity
  8
0
100
AcDbLine
 62
7
  6
BYLAYER
 10
10.9754824506
 20
44.7818660383
 11
11.5774221962
 21
44.1836884162
  0
LINE
  5
220
100
AcDbEntity
  8
0
100
AcDbLine
 62
7
  6
BYLAYER
 10
19.0755480375
 20
65.1820444265
 11
19.93868669
 21
66.6770444265
  0
LINE
  5
221
100
AcDbEntity
  8
0
100
AcDbLine
 62
7
  6
BYLAYER
 10
19.93868669
 20
39.6770444265
 11
19.0755480375
 21
41.1720444265
  0
LINE
  5
222
100
AcDbEntity
  8
0
100
AcDbLine
 62
7
  6
BYLAYER
 10
19.0755480375
 20
41.1720444265
 11
19.0755480375
 21
65.1820444265
  0
LINE
  5
223
100
AcDbEntity
  8
0
100
AcDbLine
 62
7
  6
BYLAYER
 10
19.93868669
 20
39.6770444265
 11
19.93868669
 21
39.69293577
  0
LINE
  5
224
100
AcDbEntity
  8
0
100
AcDbLine
 62
7
  6
BYLAYER
 10
19.93868669
 20
45.8678831382
 11
19.93868669
 21
47.0020970583
  0
LINE
  5
225
100
AcDbEntity
  8
0
100
AcDbLine
 62
7
  6
BYLAYER
 10
19.93868669
 20
59.3519917947
 11
19.93868669
 21
60.4862057148
  0
LINE
  5
226
100
AcDbEntity
  8
0
100
AcDbLine
 62
7
  6
BYLAYER
 10
19.93868669
 20
66.661153083
 11
19.93868669
 21
66.6770444265
  0
LINE
  5
227
100
AcDbEntity
  8
0
100
AcDbLine
 62
7
  6
BYLAYER
 10
21.2124093851
 20
66.6770444265
 11
21.2124093851
 21
66.661153083
  0
LINE
  5
228
100
AcDbEntity
  8
0
100
AcDbLine
 62
7
  6
BYLAYER
 10
21.2124093851
 20
60.4862057148
 11
21.2124093851
 21
59.3519917947
  0
LINE
  5
229
100
AcDbEntity
  8
0
100
AcDbLine
 62
7
  6
BYLAYER
 10
21.2124093851
 20
47.0020970583
 11
21.2124093851
 21
45.8678831382
  0
LINE
  5
22A
100
AcDbEntity
  8
0
100
AcDbLine
 62
7
  6
BYLAYER
 10
21.2124093851
 20
39.69293577
 11
21.2124093851
 21
39.6770444265
  0
LINE
  5
22B
100
AcDbEntity
  8
0
100
AcDbLine
 62
7
  6
BYLAYER
 10
22.0755480375
 20
65.1820444265
 11
22.0755480375
 21
41.1720444265
  0
LINE
  5
22C
100
AcDbEntity
  8
0
100
AcDbLine
 62
7
  6
BYLAYER
 10
22.7741900905
 20
64.225880155
 11
22.7741900905
 21
42.1282086981
  0
LINE
  5
22D
100
AcDbEntity
  8
0
100
AcDbLine
 62
7
  6
BYLAYER
 10
29.93868669
 20
66.6770444265
 11
29.0755480375
 21
65.1820444265
  0
LINE
  5
22E
100
AcDbEntity
  8
0
100
AcDbLine
 62
7
  6
BYLAYER
 10
28.3769059846
 20
64.225880155
 11
29.0755480375
 21
64.4774724798
  0
LINE
  5
22F
100
AcDbEntity
  8
0
100
AcDbLine
 62
7
  6
BYLAYER
 10
21.2124093851
 20
39.6770444265
 11
19.93868669
 21
39.6770444265
  0
LINE
  5
230
100
AcDbEntity
  8
0
100
AcDbLine
 62
7
  6
BYLAYER
 10
29.93868669
 20
39.6770444265
 11
31.2124093851
 21
39.6770444265
  0
LINE
  5
231
100
AcDbEntity
  8
0
100
AcDbLine
 62
7
  6
BYLAYER
 10
31.2124093851
 20
39.69293577
 11
29.93868669
 21
39.69293577
  0
LINE
  5
232
100
AcDbEntity
  8
0
100
AcDbLine
 62
7
  6
BYLAYER
 10
21.2124093851
 20
39.69293577
 11
19.93868669
 21
39.69293577
  0
LINE
  5
233
100
AcDbEntity
  8
0
100
AcDbLine
 62
7
  6
BYLAYER
 10
29.0755480375
 20
41.8766163732
 11
28.3769059846
 21
42.1282086981
  0
LINE
  5
234
100
AcDbEntity
  8
0
100
AcDbLine
 62
7
  6
BYLAYER
 10
29.0755480375
 20
41.1720444265
 11
29.93868669
 21
39.6770444265
  0
LINE
  5
235
100
AcDbEntity
  8
0
100
AcDbLine
 62
7
  6
BYLAYER
 10
28.3769059846
 20
42.1282086981
 11
28.3769059846
 21
64.225880155
  0
LINE
  5
236
100
AcDbEntity
  8
0
100
AcDbLine
 62
7
  6
BYLAYER
 10
29.0755480375
 20
41.1720444265
 11
29.0755480375
 21
65.1820444265
  0
LINE
  5
237
100
AcDbEntity
  8
0
100
AcDbLine
 62
7
  6
BYLAYER
 10
45.7558220504
 20
44.9323509747
 11
56.0485919227
 21
46.279537158
  0
LINE
  5
238
100
AcDbEntity
  8
0
100
AcDbLine
 62
7
  6
BYLAYER
 10
11.5774221962
 20
44.1836884162
 11
19.0755480375
 21
44.1836884162
  0
LINE
  5
239
100
AcDbEntity
  8
0
100
AcDbLine
 62
7
  6
BYLAYER
 10
22.7741900905
 20
44.1836884162
 11
28.3769059846
 21
44.1836884162
  0
LINE
  5
23A
100
AcDbEntity
  8
0
100
AcDbLine
 62
7
  6
BYLAYER
 10
32.0755480375
 20
44.1836884162
 11
37.7032589013
 21
44.1836884162
  0
LINE
  5
23B
100
AcDbEntity
  8
0
100
AcDbLine
 62
7
  6
BYLAYER
 10
29.93868669
 20
39.6770444265
 11
29.93868669
 21
39.69293577
  0
LINE
  5
23C
100
AcDbEntity
  8
0
100
AcDbLine
 62
7
  6
BYLAYER
 10
29.93868669
 20
45.8678831382
 11
29.93868669
 21
47.0020970583
  0
LINE
  5
23D
100
AcDbEntity
  8
0
100
AcDbLine
 62
7
  6
BYLAYER
 10
29.93868669
 20
59.3519917947
 11
29.93868669
 21
60.4862057148
  0
LINE
  5
23E
100
AcDbEntity
  8
0
100
AcDbLine
 62
7
  6
BYLAYER
 10
29.93868669
 20
66.661153083
 11
29.93868669
 21
66.6770444265
  0
LINE
  5
23F
100
AcDbEntity
  8
0
100
AcDbLine
 62
7
  6
BYLAYER
 10
31.2124093851
 20
66.6770444265
 11
31.2124093851
 21
66.661153083
  0
LINE
  5
240
100
AcDbEntity
  8
0
100
AcDbLine
 62
7
  6
BYLAYER
 10
31.2124093851
 20
60.4862057148
 11
31.2124093851
 21
59.3519917947
  0
LINE
  5
241
100
AcDbEntity
  8
0
100
AcDbLine
 62
7
  6
BYLAYER
 10
31.2124093851
 20
47.0020970583
 11
31.2124093851
 21
45.8678831382
  0
LINE
  5
242
100
AcDbEntity
  8
0
100
AcDbLine
 62
7
  6
BYLAYER
 10
31.2124093851
 20
39.69293577
 11
31.2124093851
 21
39.6770444265
  0
LINE
  5
243
100
AcDbEntity
  8
0
100
AcDbLine
 62
7
  6
BYLAYER
 10
22.0755480375
 20
41.1720444265
 11
21.2124093851
 21
39.6770444265
  0
LINE
  5
244
100
AcDbEntity
  8
0
100
AcDbLine
 62
7
  6
BYLAYER
 10
9.971914454
 20
44.8834433703
 11
10.9754824506
 21
44.8834433703
  0
LINE
  5
245
100
AcDbEntity
  8
0
100
AcDbLine
 62
7
  6
BYLAYER
 10
38.4519214598
 20
44.9323509747
 11
44.451984051
 21
44.9323509747
  0
LINE
  5
246
100
AcDbEntity
  8
0
100
AcDbLine
 62
7
  6
BYLAYER
 10
44.7529539238
 20
44.9323509747
 11
45.7558220504
 21
44.9323509747
  0
LINE
  5
247
100
AcDbEntity
  8
0
100
AcDbLine
 62
7
  6
BYLAYER
 10
44.451984051
 20
45.7336832609
 11
44.7529539238
 21
45.7336832609
  0
LINE
  5
248
100
AcDbEntity
  8
0
100
AcDbLine
 62
7
  6
BYLAYER
 10
19.93868669
 20
45.8678831382
 11
21.2124093851
 21
45.8678831382
  0
LINE
  5
249
100
AcDbEntity
  8
0
100
AcDbLine
 62
7
  6
BYLAYER
 10
29.93868669
 20
45.8678831382
 11
31.2124093851
 21
45.8678831382
  0
LINE
  5
24A
100
AcDbEntity
  8
0
100
AcDbLine
 62
7
  6
BYLAYER
 10
56.0485919227
 20
46.279537158
 11
58.5975707597
 21
46.2802197118
  0
LINE
  5
24B
100
AcDbEntity
  8
0
100
AcDbLine
 62
7
  6
BYLAYER
 10
59.3467111623
 20
46.2802197118
 11
66.9976861903
 21
46.2802197118
  0
LINE
  5
24C
100
AcDbEntity
  8
0
100
AcDbLine
 62
7
  6
BYLAYER
 10
8.4734904432
 20
46.3729743486
 11
9.5740502186
 21
46.3729743486
  0
LINE
  5
24D
100
AcDbEntity
  8
0
100
AcDbLine
 62
7
  6
BYLAYER
 10
21.2124093851
 20
66.6770444265
 11
22.0755480375
 21
65.1820444265
  0
LINE
  5
24E
100
AcDbEntity
  8
0
100
AcDbLine
 62
7
  6
BYLAYER
 10
32.0755480375
 20
65.1820444265
 11
32.0755480375
 21
41.1720444265
  0
LINE
  5
24F
100
AcDbEntity
  8
0
100
AcDbLine
 62
7
  6
BYLAYER
 10
31.2124093851
 20
47.0020970583
 11
29.93868669
 21
47.0020970583
  0
LINE
  5
250
100
AcDbEntity
  8
0
100
AcDbLine
 62
7
  6
BYLAYER
 10
21.2124093851
 20
47.0020970583
 11
19.93868669
 21
47.0020970583
  0
LINE
  5
251
100
AcDbEntity
  8
0
100
AcDbLine
 62
7
  6
BYLAYER
 10
67.7463487488
 20
47.0288822703
 11
68.1451338302
 21
47.0288822703
  0
LINE
  5
252
100
AcDbEntity
  8
0
100
AcDbLine
 62
7
  6
BYLAYER
 10
37.7032589013
 20
62.1704004368
 11
37.7032589013
 21
44.1836884162
  0
LINE
  5
253
100
AcDbEntity
  8
0
100
AcDbLine
 62
7
  6
BYLAYER
 10
38.4519214598
 20
44.9323509747
 11
38.4519214598
 21
61.4217378784
  0
LINE
  5
254
100
AcDbEntity
  8
0
100
AcDbLine
 62
7
  6
BYLAYER
 10
31.2124093851
 20
39.6770444265
 11
32.0755480375
 21
41.1720444265
  0
LINE
  5
255
100
AcDbEntity
  8
0
100
AcDbLine
 62
7
  6
BYLAYER
 10
32.0755480375
 20
65.1820444265
 11
31.2124093851
 21
66.6770444265
  0
LINE
  5
256
100
AcDbEntity
  8
0
100
AcDbLine
 62
7
  6
BYLAYER
 10
68.1451338302
 20
57.5252065827
 11
67.7463487488
 21
57.5252065827
  0
LINE
  5
257
100
AcDbEntity
  8
0
100
AcDbLine
 62
7
  6
BYLAYER
 10
44.451984051
 20
61.4217378784
 11
44.451984051
 21
44.9323509747
  0
LINE
  5
258
100
AcDbEntity
  8
0
100
AcDbLine
 62
7
  6
BYLAYER
 10
44.7529539238
 20
44.9323509747
 11
44.7529539238
 21
61.4217378784
  0
LINE
  5
259
100
AcDbEntity
  8
0
100
AcDbLine
 62
7
  6
BYLAYER
 10
37.7032589013
 20
44.1836884162
 11
38.4519214598
 21
44.9323509747
  0
LINE
  5
25A
100
AcDbEntity
  8
0
100
AcDbLine
 62
7
  6
BYLAYER
 10
22.0755480375
 20
41.8766163732
 11
22.7741900905
 21
42.1282086981
  0
LINE
  5
25B
100
AcDbEntity
  8
0
100
AcDbLine
 62
7
  6
BYLAYER
 10
66.9976861903
 20
58.2738691412
 11
59.3467111623
 21
58.2738691412
  0
LINE
  5
25C
100
AcDbEntity
  8
0
100
AcDbLine
 62
7
  6
BYLAYER
 10
58.5975707597
 20
58.2738691412
 11
58.3841347692
 21
58.2738691412
  0
LINE
  5
25D
100
AcDbEntity
  8
0
100
AcDbLine
 62
7
  6
BYLAYER
 10
19.93868669
 20
59.3519917947
 11
21.2124093851
 21
59.3519917947
  0
LINE
  5
25E
100
AcDbEntity
  8
0
100
AcDbLine
 62
7
  6
BYLAYER
 10
29.93868669
 20
59.3519917947
 11
31.2124093851
 21
59.3519917947
  0
LINE
  5
25F
100
AcDbEntity
  8
0
100
AcDbLine
 62
7
  6
BYLAYER
 10
9.5740502186
 20
59.9811145044
 11
8.4734904432
 21
59.9811145044
  0
LINE
  5
260
100
AcDbEntity
  8
0
100
AcDbLine
 62
7
  6
BYLAYER
 10
22.7741900905
 20
64.225880155
 11
22.0755480375
 21
64.4774724798
  0
LINE
  5
261
100
AcDbEntity
  8
0
100
AcDbLine
 62
7
  6
BYLAYER
 10
38.4519214598
 20
61.4217378784
 11
37.7032589013
 21
62.1704004368
  0
LINE
  5
262
100
AcDbEntity
  8
0
100
AcDbLine
 62
7
  6
BYLAYER
 10
45.7558220504
 20
61.4217378784
 11
45.7558220504
 21
44.9323509747
  0
LINE
  5
263
100
AcDbEntity
  8
0
100
AcDbLine
 62
7
  6
BYLAYER
 10
31.2124093851
 20
60.4862057148
 11
29.93868669
 21
60.4862057148
  0
LINE
  5
264
100
AcDbEntity
  8
0
100
AcDbLine
 62
7
  6
BYLAYER
 10
21.2124093851
 20
60.4862057148
 11
19.93868669
 21
60.4862057148
  0
LINE
  5
265
100
AcDbEntity
  8
0
100
AcDbLine
 62
7
  6
BYLAYER
 10
44.7529539238
 20
60.6204055921
 11
44.451984051
 21
60.6204055921
  0
LINE
  5
266
100
AcDbEntity
  8
0
100
AcDbLine
 62
7
  6
BYLAYER
 10
45.7558220504
 20
61.4217378784
 11
44.7529539238
 21
61.4217378784
  0
LINE
  5
267
100
AcDbEntity
  8
0
100
AcDbLine
 62
7
  6
BYLAYER
 10
44.451984051
 20
61.4217378784
 11
38.4519214598
 21
61.4217378784
  0
LINE
  5
268
100
AcDbEntity
  8
0
100
AcDbLine
 62
7
  6
BYLAYER
 10
10.9754824506
 20
61.4706454827
 11
9.971914454
 21
61.4706454827
  0
LINE
  5
269
100
AcDbEntity
  8
0
100
AcDbLine
 62
7
  6
BYLAYER
 10
37.7032589013
 20
62.1704004368
 11
32.0755480375
 21
62.1704004368
  0
LINE
  5
26A
100
AcDbEntity
  8
0
100
AcDbLine
 62
7
  6
BYLAYER
 10
28.3769059846
 20
62.1704004368
 11
22.7741900905
 21
62.1704004368
  0
LINE
  5
26B
100
AcDbEntity
  8
0
100
AcDbLine
 62
7
  6
BYLAYER
 10
19.0755480375
 20
62.1704004368
 11
11.5774221962
 21
62.1704004368
  0
LINE
  5
26C
100
AcDbEntity
  8
0
100
AcDbLine
 62
7
  6
BYLAYER
 10
54.1418578475
 20
58.7328481972
 11
58.3841347692
 21
58.2898493682
  0
LINE
  5
26D
100
AcDbEntity
  8
0
100
AcDbLine
 62
7
  6
BYLAYER
 10
46.1170339828
 20
61.374460058
 11
45.7558220504
 21
61.4217378784
  0
LINE
  5
26E
100
AcDbEntity
  8
0
100
AcDbLine
 62
7
  6
BYLAYER
 10
49.9997599736
 20
59.778718505
 11
54.1418578475
 21
58.7328481972
  0
LINE
  5
26F
100
AcDbEntity
  8
0
100
AcDbLine
 62
7
  6
BYLAYER
 10
46.1170339828
 20
61.374460058
 11
49.9997599736
 21
59.778718505
  0
LINE
  5
270
100
AcDbEntity
  8
0
100
AcDbLine
 62
7
  6
BYLAYER
 10
19.93868669
 20
66.661153083
 11
21.2124093851
 21
66.661153083
  0
LINE
  5
271
100
AcDbEntity
  8
0
100
AcDbLine
 62
7
  6
BYLAYER
 10
29.93868669
 20
66.661153083
 11
31.2124093851
 21
66.661153083
  0
LINE
  5
272
100
AcDbEntity
  8
0
100
AcDbLine
 62
7
  6
BYLAYER
 10
31.2124093851
 20
66.6770444265
 11
29.93868669
 21
66.6770444265
  0
LINE
  5
273
100
AcDbEntity
  8
0
100
AcDbLine
 62
7
  6
BYLAYER
 10
19.93868669
 20
66.6770444265
 11
21.2124093851
 21
66.6770444265
  0
LINE
  5
274
100
AcDbEntity
  8
0
100
AcDbLine
 62
7
  6
BYLAYER
 10
56.0485919227
 20
46.279537158
 11
56.0485919227
 21
58.5337379132
  0
LINE
  5
275
100
AcDbEntity
  8
0
100
AcDbLine
 62
7
  6
BYLAYER
 10
58.5975707597
 20
46.2802197118
 11
59.3467111623
 21
47.0293601144
  0
LINE
  5
276
100
AcDbEntity
  8
0
100
AcDbLine
 62
7
  6
BYLAYER
 10
59.3467111623
 20
57.5247287386
 11
58.5975707597
 21
58.2738691412
  0
LINE
  5
277
100
AcDbEntity
  8
0
100
AcDbLine
 62
7
  6
BYLAYER
 10
58.3841347692
 20
58.2898493682
 11
58.3841347692
 21
46.279537158
  0
LINE
  5
278
100
AcDbEntity
  8
0
100
AcDbLine
 62
7
  6
BYLAYER
 10
58.5975707597
 20
58.2738691412
 11
58.5975707597
 21
46.2802197118
  0
LINE
  5
279
100
AcDbEntity
  8
0
100
AcDbLine
 62
7
  6
BYLAYER
 10
59.3467111623
 20
46.2802197118
 11
59.3467111623
 21
58.2738691412
  0
LINE
  5
27A
100
AcDbEntity
  8
0
100
AcDbLine
 62
7
  6
BYLAYER
 10
67.7463487488
 20
57.5252065827
 11
66.9976861903
 21
58.2738691412
  0
LINE
  5
27B
100
AcDbEntity
  8
0
100
AcDbLine
 62
7
  6
BYLAYER
 10
66.9976861903
 20
46.2802197118
 11
67.7463487488
 21
47.0288822703
  0
LINE
  5
27C
100
AcDbEntity
  8
0
100
AcDbLine
 62
7
  6
BYLAYER
 10
66.9976861903
 20
58.2738691412
 11
66.9976861903
 21
46.2802197118
  0
LINE
  5
27D
100
AcDbEntity
  8
0
100
AcDbLine
 62
7
  6
BYLAYER
 10
67.7463487488
 20
47.0288822703
 11
67.7463487488
 21
57.5252065827
  0
LINE
  5
27E
100
AcDbEntity
  8
0
100
AcDbLine
 62
7
  6
BYLAYER
 10
68.1451338302
 20
57.5252065827
 11
68.1451338302
 21
47.0288822703
  0
LINE
  5
27F
100
AcDbEntity
  8
0
100
AcDbLine
 62
7
  6
BYLAYER
 10
68.2467111623
 20
57.4236292507
 11
68.2467111623
 21
47.1304596024
  0
ARC
  5
280
100
AcDbEntity
  8
0
100
AcDbCircle
 62
7
  6
BYLAYER
 10
8.4784390033
 20
59.7782235386
 40
0.2029513051
100
AcDbArc
 50
91.3971810273
 51
178.6028189727
  0
ARC
  5
281
100
AcDbEntity
  8
0
100
AcDbCircle
 62
7
  6
BYLAYER
 10
8.4784390033
 20
46.5758653144
 40
0.2029513051
100
AcDbArc
 50
181.3971810273
 51
268.6028189727
  0
ARC
  5
282
100
AcDbEntity
  8
0
100
AcDbCircle
 62
7
  6
BYLAYER
 10
9.573201894
 20
46.1702247702
 40
0.2027513531
100
AcDbArc
 50
0.2397298961
 51
89.7602701039
  0
ARC
  5
283
100
AcDbEntity
  8
0
100
AcDbCircle
 62
7
  6
BYLAYER
 10
9.573201894
 20
60.1838640828
 40
0.2027513531
100
AcDbArc
 50
270.2397298961
 51
359.7602701039
  0
ARC
  5
284
100
AcDbEntity
  8
0
100
AcDbCircle
 62
7
  6
BYLAYER
 10
9.971914454
 20
61.2746825011
 40
0.1959729784
100
AcDbArc
 50
90.0
 51
180.5787255656
  0
ARC
  5
285
100
AcDbEntity
  8
0
100
AcDbCircle
 62
7
  6
BYLAYER
 10
9.971914454
 20
45.0794063519
 40
0.1959729784
100
AcDbArc
 50
179.4212744344
 51
270.0
  0
ARC
  5
286
100
AcDbEntity
  8
0
100
AcDbCircle
 62
7
  6
BYLAYER
 10
68.143936791
 20
57.4224322114
 40
0.1027813422
100
AcDbArc
 50
0.6673083558
 51
89.3326916441
  0
ARC
  5
287
100
AcDbEntity
  8
0
100
AcDbCircle
 62
7
  6
BYLAYER
 10
68.143936791
 20
47.1316566416
 40
0.1027813422
100
AcDbArc
 50
270.6673083559
 51
359.3326916442
  0
SPLINE
  5
288
100
AcDbEntity
  8
0
100
AcDbSpline
 62
7
  6
BYLAYER
 70
0
 71
3
 72
11
 73
7
 74
0
 42
0.0000001
 43
0.0000001
 44
0.0000000001
 40
0.0
 40
0.0
 40
0.0
 40
0.0
 40
0.2600148887
 40
0.5122835388
 40
0.7580440966
 40
1.0
 40
1.0
 40
1.0
 40
1.0
 10
29.93868669
 20
39.69293577
 30
0.0
 10
29.8076821022
 20
39.9409734411
 30
0.0
 10
29.5684851782
 20
40.4401246047
 30
0.0
 10
29.2909751697
 20
41.2112210209
 30
0.0
 10
29.1156387054
 20
41.9924269529
 30
0.0
 10
29.0755480375
 20
42.5193835118
 30
0.0
 10
29.0755480375
 20
42.7804094541
 30
0.0
  0
SPLINE
  5
289
100
AcDbEntity
  8
0
100
AcDbSpline
 62
7
  6
BYLAYER
 70
0
 71
3
 72
13
 73
9
 74
0
 42
0.0000001
 43
0.0000001
 44
0.0000000001
 40
0.0
 40
0.0
 40
0.0
 40
0.0
 40
0.1207682708
 40
0.2420450309
 40
0.3642814212
 40
0.4878672634
 40
0.7400558312
 40
1.0
 40
1.0
 40
1.0
 40
1.0
 10
32.0755480375
 20
42.7804094541
 30
0.0
 10
32.0755480375
 20
42.6500828755
 30
0.0
 10
32.0657175051
 20
42.3887758375
 30
0.0
 10
32.0217166509
 20
41.9977969291
 30
0.0
 10
31.9491952418
 20
41.607999116
 30
0.0
 10
31.81538427
 20
41.0871410553
 30
0.0
 10
31.5826857877
 20
40.4400592969
 30
0.0
 10
31.3434183647
 20
39.9409817564
 30
0.0
 10
31.2124093851
 20
39.69293577
 30
0.0
  0
SPLINE
  5
28A
100
AcDbEntity
  8
0
100
AcDbSpline
 62
7
  6
BYLAYER
 70
0
 71
3
 72
13
 73
9
 74
0
 42
0.0000001
 43
0.0000001
 44
0.0000000001
 40
0.0
 40
0.0
 40
0.0
 40
0.0
 40
0.1207682708
 40
0.2420450309
 40
0.3642814212
 40
0.4878672634
 40
0.7400558312
 40
1.0
 40
1.0
 40
1.0
 40
1.0
 10
29.0755480375
 20
63.5736793989
 30
0.0
 10
29.0755480375
 20
63.7040059775
 30
0.0
 10
29.0853785699
 20
63.9653130155
 30
0.0
 10
29.1293794242
 20
64.3562919239
 30
0.0
 10
29.2019008333
 20
64.746089737
 30
0.0
 10
29.3357118051
 20
65.2669477977
 30
0.0
 10
29.5684102874
 20
65.9140295561
 30
0.0
 10
29.8076777103
 20
66.4131070967
 30
0.0
 10
29.93868669
 20
66.661153083
 30
0.0
  0
SPLINE
  5
28B
100
AcDbEntity
  8
0
100
AcDbSpline
 62
7
  6
BYLAYER
 70
0
 71
3
 72
11
 73
7
 74
0
 42
0.0000001
 43
0.0000001
 44
0.0000000001
 40
0.0
 40
0.0
 40
0.0
 40
0.0
 40
0.2500036864
 40
0.5000032576
 40
0.7500026356
 40
1.0
 40
1.0
 40
1.0
 40
1.0
 10
29.93868669
 20
47.0020970583
 30
0.0
 10
29.8056662694
 20
47.5058057586
 30
0.0
 10
29.5635825644
 20
48.519798621
 30
0.0
 10
29.28802862
 20
50.0592275613
 30
0.0
 10
29.1148730033
 20
51.6137377912
 30
0.0
 10
29.0755480375
 20
52.6560807424
 30
0.0
 10
29.0755480375
 20
53.1770444265
 30
0.0
  0
SPLINE
  5
28C
100
AcDbEntity
  8
0
100
AcDbSpline
 62
7
  6
BYLAYER
 70
0
 71
3
 72
11
 73
7
 74
0
 42
0.0000001
 43
0.0000001
 44
0.0000000001
 40
0.0
 40
0.0
 40
0.0
 40
0.0
 40
0.2600148887
 40
0.5122835388
 40
0.7580440966
 40
1.0
 40
1.0
 40
1.0
 40
1.0
 10
31.2124093851
 20
66.661153083
 30
0.0
 10
31.3434139729
 20
66.413115412
 30
0.0
 10
31.5826108969
 20
65.9139642483
 30
0.0
 10
31.8601209053
 20
65.1428678321
 30
0.0
 10
32.0354573697
 20
64.3616619001
 30
0.0
 10
32.0755480375
 20
63.8347053413
 30
0.0
 10
32.0755480375
 20
63.5736793989
 30
0.0
  0
SPLINE
  5
28D
100
AcDbEntity
  8
0
100
AcDbSpline
 62
7
  6
BYLAYER
 70
0
 71
3
 72
13
 73
9
 74
0
 42
0.0000001
 43
0.0000001
 44
0.0000000001
 40
0.0
 40
0.0
 40
0.0
 40
0.0
 40
0.1207682708
 40
0.2420450309
 40
0.3642814212
 40
0.4878672634
 40
0.7400558312
 40
1.0
 40
1.0
 40
1.0
 40
1.0
 10
29.0755480375
 20
42.7804094541
 30
0.0
 10
29.0755480375
 20
42.9107360327
 30
0.0
 10
29.0853785699
 20
43.1720430707
 30
0.0
 10
29.1293794242
 20
43.563021979
 30
0.0
 10
29.2019008333
 20
43.9528197921
 30
0.0
 10
29.3357118051
 20
44.4736778529
 30
0.0
 10
29.5684102874
 20
45.1207596112
 30
0.0
 10
29.8076777103
 20
45.6198371518
 30
0.0
 10
29.93868669
 20
45.8678831382
 30
0.0
  0
SPLINE
  5
28E
100
AcDbEntity
  8
0
100
AcDbSpline
 62
7
  6
BYLAYER
 70
0
 71
3
 72
11
 73
7
 74
0
 42
0.0000001
 43
0.0000001
 44
0.0000000001
 40
0.0
 40
0.0
 40
0.0
 40
0.0
 40
0.2499941551
 40
0.4999898041
 40
0.7499912837
 40
1.0
 40
1.0
 40
1.0
 40
1.0
 10
29.0755480375
 20
53.1770444265
 30
0.0
 10
29.0755480375
 20
53.6980014511
 30
0.0
 10
29.114855532
 20
54.740332493
 30
0.0
 10
29.2880868034
 20
56.2948211199
 30
0.0
 10
29.5634977146
 20
57.8342828203
 30
0.0
 10
29.8056635859
 20
58.8482729329
 30
0.0
 10
29.93868669
 20
59.3519917947
 30
0.0
  0
SPLINE
  5
28F
100
AcDbEntity
  8
0
100
AcDbSpline
 62
7
  6
BYLAYER
 70
0
 71
3
 72
11
 73
7
 74
0
 42
0.0000001
 43
0.0000001
 44
0.0000000001
 40
0.0
 40
0.0
 40
0.0
 40
0.0
 40
0.2600148887
 40
0.5122835388
 40
0.7580440966
 40
1.0
 40
1.0
 40
1.0
 40
1.0
 10
29.93868669
 20
60.4862057148
 30
0.0
 10
29.8076821022
 20
60.7342433859
 30
0.0
 10
29.5684851782
 20
61.2333945496
 30
0.0
 10
29.2909751697
 20
62.0044909658
 30
0.0
 10
29.1156387054
 20
62.7856968977
 30
0.0
 10
29.0755480375
 20
63.3126534566
 30
0.0
 10
29.0755480375
 20
63.5736793989
 30
0.0
  0
SPLINE
  5
290
100
AcDbEntity
  8
0
100
AcDbSpline
 62
7
  6
BYLAYER
 70
0
 71
3
 72
13
 73
9
 74
0
 42
0.0000001
 43
0.0000001
 44
0.0000000001
 40
0.0
 40
0.0
 40
0.0
 40
0.0
 40
0.1207682708
 40
0.2420450309
 40
0.3642814212
 40
0.4878672634
 40
0.7400558312
 40
1.0
 40
1.0
 40
1.0
 40
1.0
 10
32.0755480375
 20
63.5736793989
 30
0.0
 10
32.0755480375
 20
63.4433528204
 30
0.0
 10
32.0657175051
 20
63.1820457824
 30
0.0
 10
32.0217166509
 20
62.791066874
 30
0.0
 10
31.9491952418
 20
62.4012690609
 30
0.0
 10
31.81538427
 20
61.8804110002
 30
0.0
 10
31.5826857877
 20
61.2333292418
 30
0.0
 10
31.3434183647
 20
60.7342517012
 30
0.0
 10
31.2124093851
 20
60.4862057148
 30
0.0
  0
SPLINE
  5
291
100
AcDbEntity
  8
0
100
AcDbSpline
 62
7
  6
BYLAYER
 70
0
 71
3
 72
11
 73
7
 74
0
 42
0.0000001
 43
0.0000001
 44
0.0000000001
 40
0.0
 40
0.0
 40
0.0
 40
0.0
 40
0.2500036864
 40
0.5000032576
 40
0.7500026356
 40
1.0
 40
1.0
 40
1.0
 40
1.0
 10
31.2124093851
 20
59.3519917947
 30
0.0
 10
31.3454298057
 20
58.8482830944
 30
0.0
 10
31.5875135107
 20
57.834290232
 30
0.0
 10
31.8630674551
 20
56.2948612918
 30
0.0
 10
32.0362230718
 20
54.7403510619
 30
0.0
 10
32.0755480375
 20
53.6980081107
 30
0.0
 10
32.0755480375
 20
53.1770444265
 30
0.0
  0
SPLINE
  5
292
100
AcDbEntity
  8
0
100
AcDbSpline
 62
7
  6
BYLAYER
 70
0
 71
3
 72
11
 73
7
 74
0
 42
0.0000001
 43
0.0000001
 44
0.0000000001
 40
0.0
 40
0.0
 40
0.0
 40
0.0
 40
0.2499941551
 40
0.4999898041
 40
0.7499912837
 40
1.0
 40
1.0
 40
1.0
 40
1.0
 10
32.0755480375
 20
53.1770444265
 30
0.0
 10
32.0755480375
 20
52.6560874019
 30
0.0
 10
32.0362405431
 20
51.61375636
 30
0.0
 10
31.8630092716
 20
50.0592677331
 30
0.0
 10
31.5875983605
 20
48.5198060328
 30
0.0
 10
31.3454324892
 20
47.5058159201
 30
0.0
 10
31.2124093851
 20
47.0020970583
 30
0.0
  0
SPLINE
  5
293
100
AcDbEntity
  8
0
100
AcDbSpline
 62
7
  6
BYLAYER
 70
0
 71
3
 72
11
 73
7
 74
0
 42
0.0000001
 43
0.0000001
 44
0.0000000001
 40
0.0
 40
0.0
 40
0.0
 40
0.0
 40
0.2600148887
 40
0.5122835388
 40
0.7580440966
 40
1.0
 40
1.0
 40
1.0
 40
1.0
 10
31.2124093851
 20
45.8678831382
 30
0.0
 10
31.3434139729
 20
45.6198454671
 30
0.0
 10
31.5826108969
 20
45.1206943035
 30
0.0
 10
31.8601209053
 20
44.3495978872
 30
0.0
 10
32.0354573697
 20
43.5683919553
 30
0.0
 10
32.0755480375
 20
43.0414353964
 30
0.0
 10
32.0755480375
 20
42.7804094541
 30
0.0
  0
SPLINE
  5
294
100
AcDbEntity
  8
0
100
AcDbSpline
 62
7
  6
BYLAYER
 70
0
 71
3
 72
11
 73
7
 74
0
 42
0.0000001
 43
0.0000001
 44
0.0000000001
 40
0.0
 40
0.0
 40
0.0
 40
0.0
 40
0.2499941551
 40
0.4999898041
 40
0.7499912837
 40
1.0
 40
1.0
 40
1.0
 40
1.0
 10
22.0755480375
 20
53.1770444265
 30
0.0
 10
22.0755480375
 20
52.6560874019
 30
0.0
 10
22.0362405431
 20
51.61375636
 30
0.0
 10
21.8630092716
 20
50.0592677331
 30
0.0
 10
21.5875983605
 20
48.5198060328
 30
0.0
 10
21.3454324892
 20
47.5058159201
 30
0.0
 10
21.2124093851
 20
47.0020970583
 30
0.0
  0
SPLINE
  5
295
100
AcDbEntity
  8
0
100
AcDbSpline
 62
7
  6
BYLAYER
 70
0
 71
3
 72
11
 73
7
 74
0
 42
0.0000001
 43
0.0000001
 44
0.0000000001
 40
0.0
 40
0.0
 40
0.0
 40
0.0
 40
0.2600148887
 40
0.5122835388
 40
0.7580440966
 40
1.0
 40
1.0
 40
1.0
 40
1.0
 10
21.2124093851
 20
45.8678831382
 30
0.0
 10
21.3434139729
 20
45.6198454671
 30
0.0
 10
21.5826108969
 20
45.1206943035
 30
0.0
 10
21.8601209053
 20
44.3495978872
 30
0.0
 10
22.0354573697
 20
43.5683919553
 30
0.0
 10
22.0755480375
 20
43.0414353964
 30
0.0
 10
22.0755480375
 20
42.7804094541
 30
0.0
  0
SPLINE
  5
296
100
AcDbEntity
  8
0
100
AcDbSpline
 62
7
  6
BYLAYER
 70
0
 71
3
 72
13
 73
9
 74
0
 42
0.0000001
 43
0.0000001
 44
0.0000000001
 40
0.0
 40
0.0
 40
0.0
 40
0.0
 40
0.1207682708
 40
0.2420450309
 40
0.3642814212
 40
0.4878672634
 40
0.7400558312
 40
1.0
 40
1.0
 40
1.0
 40
1.0
 10
22.0755480375
 20
63.5736793989
 30
0.0
 10
22.0755480375
 20
63.4433528204
 30
0.0
 10
22.0657175051
 20
63.1820457824
 30
0.0
 10
22.0217166509
 20
62.791066874
 30
0.0
 10
21.9491952418
 20
62.4012690609
 30
0.0
 10
21.81538427
 20
61.8804110002
 30
0.0
 10
21.5826857877
 20
61.2333292418
 30
0.0
 10
21.3434183647
 20
60.7342517012
 30
0.0
 10
21.2124093851
 20
60.4862057148
 30
0.0
  0
SPLINE
  5
297
100
AcDbEntity
  8
0
100
AcDbSpline
 62
7
  6
BYLAYER
 70
0
 71
3
 72
11
 73
7
 74
0
 42
0.0000001
 43
0.0000001
 44
0.0000000001
 40
0.0
 40
0.0
 40
0.0
 40
0.0
 40
0.2500036864
 40
0.5000032576
 40
0.7500026356
 40
1.0
 40
1.0
 40
1.0
 40
1.0
 10
21.2124093851
 20
59.3519917947
 30
0.0
 10
21.3454298057
 20
58.8482830944
 30
0.0
 10
21.5875135107
 20
57.834290232
 30
0.0
 10
21.8630674551
 20
56.2948612918
 30
0.0
 10
22.0362230718
 20
54.7403510619
 30
0.0
 10
22.0755480375
 20
53.6980081107
 30
0.0
 10
22.0755480375
 20
53.1770444265
 30
0.0
  0
SPLINE
  5
298
100
AcDbEntity
  8
0
100
AcDbSpline
 62
7
  6
BYLAYER
 70
0
 71
3
 72
11
 73
7
 74
0
 42
0.0000001
 43
0.0000001
 44
0.0000000001
 40
0.0
 40
0.0
 40
0.0
 40
0.0
 40
0.2600148887
 40
0.5122835388
 40
0.7580440966
 40
1.0
 40
1.0
 40
1.0
 40
1.0
 10
19.93868669
 20
60.4862057148
 30
0.0
 10
19.8076821022
 20
60.7342433859
 30
0.0
 10
19.5684851782
 20
61.2333945496
 30
0.0
 10
19.2909751697
 20
62.0044909658
 30
0.0
 10
19.1156387054
 20
62.7856968977
 30
0.0
 10
19.0755480375
 20
63.3126534566
 30
0.0
 10
19.0755480375
 20
63.5736793989
 30
0.0
  0
SPLINE
  5
299
100
AcDbEntity
  8
0
100
AcDbSpline
 62
7
  6
BYLAYER
 70
0
 71
3
 72
11
 73
7
 74
0
 42
0.0000001
 43
0.0000001
 44
0.0000000001
 40
0.0
 40
0.0
 40
0.0
 40
0.0
 40
0.2499941551
 40
0.4999898041
 40
0.7499912837
 40
1.0
 40
1.0
 40
1.0
 40
1.0
 10
19.0755480375
 20
53.1770444265
 30
0.0
 10
19.0755480375
 20
53.6980014511
 30
0.0
 10
19.114855532
 20
54.740332493
 30
0.0
 10
19.2880868034
 20
56.2948211199
 30
0.0
 10
19.5634977146
 20
57.8342828203
 30
0.0
 10
19.8056635859
 20
58.8482729329
 30
0.0
 10
19.93868669
 20
59.3519917947
 30
0.0
  0
SPLINE
  5
29A
100
AcDbEntity
  8
0
100
AcDbSpline
 62
7
  6
BYLAYER
 70
0
 71
3
 72
13
 73
9
 74
0
 42
0.0000001
 43
0.0000001
 44
0.0000000001
 40
0.0
 40
0.0
 40
0.0
 40
0.0
 40
0.1207682708
 40
0.2420450309
 40
0.3642814212
 40
0.4878672634
 40
0.7400558312
 40
1.0
 40
1.0
 40
1.0
 40
1.0
 10
19.0755480375
 20
63.5736793989
 30
0.0
 10
19.0755480375
 20
63.7040059775
 30
0.0
 10
19.0853785699
 20
63.9653130155
 30
0.0
 10
19.1293794242
 20
64.3562919239
 30
0.0
 10
19.2019008333
 20
64.746089737
 30
0.0
 10
19.3357118051
 20
65.2669477977
 30
0.0
 10
19.5684102874
 20
65.9140295561
 30
0.0
 10
19.8076777103
 20
66.4131070967
 30
0.0
 10
19.93868669
 20
66.661153083
 30
0.0
  0
SPLINE
  5
29B
100
AcDbEntity
  8
0
100
AcDbSpline
 62
7
  6
BYLAYER
 70
0
 71
3
 72
11
 73
7
 74
0
 42
0.0000001
 43
0.0000001
 44
0.0000000001
 40
0.0
 40
0.0
 40
0.0
 40
0.0
 40
0.2600148887
 40
0.5122835388
 40
0.7580440966
 40
1.0
 40
1.0
 40
1.0
 40
1.0
 10
21.2124093851
 20
66.661153083
 30
0.0
 10
21.3434139729
 20
66.413115412
 30
0.0
 10
21.5826108969
 20
65.9139642483
 30
0.0
 10
21.8601209053
 20
65.1428678321
 30
0.0
 10
22.0354573697
 20
64.3616619001
 30
0.0
 10
22.0755480375
 20
63.8347053413
 30
0.0
 10
22.0755480375
 20
63.5736793989
 30
0.0
  0
SPLINE
  5
29C
100
AcDbEntity
  8
0
100
AcDbSpline
 62
7
  6
BYLAYER
 70
0
 71
3
 72
13
 73
9
 74
0
 42
0.0000001
 43
0.0000001
 44
0.0000000001
 40
0.0
 40
0.0
 40
0.0
 40
0.0
 40
0.1207682708
 40
0.2420450309
 40
0.3642814212
 40
0.4878672634
 40
0.7400558312
 40
1.0
 40
1.0
 40
1.0
 40
1.0
 10
19.0755480375
 20
42.7804094541
 30
0.0
 10
19.0755480375
 20
42.9107360327
 30
0.0
 10
19.0853785699
 20
43.1720430707
 30
0.0
 10
19.1293794242
 20
43.563021979
 30
0.0
 10
19.2019008333
 20
43.9528197921
 30
0.0
 10
19.3357118051
 20
44.4736778529
 30
0.0
 10
19.5684102874
 20
45.1207596112
 30
0.0
 10
19.8076777103
 20
45.6198371518
 30
0.0
 10
19.93868669
 20
45.8678831382
 30
0.0
  0
SPLINE
  5
29D
100
AcDbEntity
  8
0
100
AcDbSpline
 62
7
  6
BYLAYER
 70
0
 71
3
 72
11
 73
7
 74
0
 42
0.0000001
 43
0.0000001
 44
0.0000000001
 40
0.0
 40
0.0
 40
0.0
 40
0.0
 40
0.2500036864
 40
0.5000032576
 40
0.7500026356
 40
1.0
 40
1.0
 40
1.0
 40
1.0
 10
19.93868669
 20
47.0020970583
 30
0.0
 10
19.8056662694
 20
47.5058057586
 30
0.0
 10
19.5635825644
 20
48.519798621
 30
0.0
 10
19.28802862
 20
50.0592275613
 30
0.0
 10
19.1148730033
 20
51.6137377912
 30
0.0
 10
19.0755480375
 20
52.6560807424
 30
0.0
 10
19.0755480375
 20
53.1770444265
 30
0.0
  0
SPLINE
  5
29E
100
AcDbEntity
  8
0
100
AcDbSpline
 62
7
  6
BYLAYER
 70
0
 71
3
 72
13
 73
9
 74
0
 42
0.0000001
 43
0.0000001
 44
0.0000000001
 40
0.0
 40
0.0
 40
0.0
 40
0.0
 40
0.1207682708
 40
0.2420450309
 40
0.3642814212
 40
0.4878672634
 40
0.7400558312
 40
1.0
 40
1.0
 40
1.0
 40
1.0
 10
22.0755480375
 20
42.7804094541
 30
0.0
 10
22.0755480375
 20
42.6500828755
 30
0.0
 10
22.0657175051
 20
42.3887758375
 30
0.0
 10
22.0217166509
 20
41.9977969291
 30
0.0
 10
21.9491952418
 20
41.607999116
 30
0.0
 10
21.81538427
 20
41.0871410553
 30
0.0
 10
21.5826857877
 20
40.4400592969
 30
0.0
 10
21.3434183647
 20
39.9409817564
 30
0.0
 10
21.2124093851
 20
39.69293577
 30
0.0
  0
SPLINE
  5
29F
100
AcDbEntity
  8
0
100
AcDbSpline
 62
7
  6
BYLAYER
 70
0
 71
3
 72
11
 73
7
 74
0
 42
0.0000001
 43
0.0000001
 44
0.0000000001
 40
0.0
 40
0.0
 40
0.0
 40
0.0
 40
0.2600148887
 40
0.5122835388
 40
0.7580440966
 40
1.0
 40
1.0
 40
1.0
 40
1.0
 10
19.93868669
 20
39.69293577
 30
0.0
 10
19.8076821022
 20
39.9409734411
 30
0.0
 10
19.5684851782
 20
40.4401246047
 30
0.0
 10
19.2909751697
 20
41.2112210209
 30
0.0
 10
19.1156387054
 20
41.9924269529
 30
0.0
 10
19.0755480375
 20
42.5193835118
 30
0.0
 10
19.0755480375
 20
42.7804094541
 30
0.0
  0
ENDSEC
  0
SECTION
  2
OBJECTS
  0
DICTIONARY
  5
C
100
AcDbDictionary
280
0
281
1
  3
ACAD_GROUP
350
D
  3
ACAD_MLINESTYLE
350
17
  3
ACAD_LAYOUT
350
1A
  3
ACAD_PLOTSETTINGS
350
19
  3
ACAD_PLOTSTYLENAME
350
E
  0
DICTIONARY
  5
D
102
{ACAD_REACTORS
330
C
102
}
100
AcDbDictionary
280
0
281
1
  0
ACDBDICTIONARYWDFLT
  5
E
102
{ACAD_REACTORS
330
C
102
}
100
AcDbDictionary
281
1
  3
Normal
350
F
100
AcDbDictionaryWithDefault
340
F
  0
DICTIONARY
  5
17
102
{ACAD_REACTORS
330
C
102
}
100
AcDbDictionary
280
0
281
1
  3
Standard
350
18
  0
DICTIONARY
  5
19
102
{ACAD_REACTORS
330
C
102
}
100
AcDbDictionary
281
1
  0
DICTIONARY
  5
1A
102
{ACAD_REACTORS
330
C
102
}
100
AcDbDictionary
281
1
  3
Model
350
2A0
  3
Layout1
350
2A1
  0
ACDBPLACEHOLDER
  5
F
102
{ACAD_REACTORS
330
E
102
}
  0
MLINESTYLE
  5
18
102
{ACAD_REACTORS
330
17
102
}
100
AcDbMlineStyle
  2
STANDARD
 70
0
  3

 62
256
 51
90.0
 52
90.0
 71
2
 49
0.5
 62
256
  6
BYLAYER
 49
-0.5
 62
256
  6
BYLAYER
  0
LAYOUT
  5
2A0
102
{ACAD_REACTORS
330
1A
102
}
100
AcDbPlotSettings
  1

  2
none_device
  4

  6

 40
0.0
 41
0.0
 42
0.0
 43
0.0
 44
210.0
 45
297.0
 46
0.0
 47
0.0
 48
0.0
 49
0.0
140
0.0
141
0.0
142
1.0
143
1.0
 70
1024
 72
1
 73
0
 74
0
  7

 75
0
147
1.0
148
0.0
149
0.0
100
AcDbLayout
  1
Model
 70
0
 71
0
 10
0.0
 20
0.0
 11
210.0
 21
297.0
 12
0.0
 22
0.0
 32
0.0
 14
0.0
 24
0.0
 34
0.0
 15
0.0
 25
0.0
 35
0.0
146
0.0
 13
0.0
 23
0.0
 33
0.0
 16
1.0
 26
0.0
 36
0.0
 17
0.0
 27
1.0
 37
0.0
 76
0
330
210
345
0
346
0
  0
LAYOUT
  5
2A1
102
{ACAD_REACTORS
330
1A
102
}
100
AcDbPlotSettings
  1

  2
none_device
  4

  6

 40
0.0
 41
0.0
 42
0.0
 43
0.0
 44
210.0
 45
297.0
 46
0.0
 47
0.0
 48
0.0
 49
0.0
140
0.0
141
0.0
142
1.0
143
1.0
 70
0
 72
1
 73
0
 74
0
  7

 75
0
147
1.0
148
0.0
149
0.0
100
AcDbLayout
  1
Layout1
 70
0
 71
1
 10
0.0
 20
0.0
 11
210.0
 21
297.0
 12
0.0
 22
0.0
 32
0.0
 14
0.0
 24
0.0
 34
0.0
 15
0.0
 25
0.0
 35
0.0
146
0.0
 13
0.0
 23
0.0
 33
0.0
 16
1.0
 26
0.0
 36
0.0
 17
0.0
 27
1.0
 37
0.0
 76
0
330
211
345
0
346
0
  0
ENDSEC
  0
EOF
