999
DXF file: C:\Users\sesa63760\Dev\_Creo\CAD\MCADID0001186_3D-CAD\drw0001_4.dxf
999
Pro/ENGINEER 2019471 by Parametric Technology Corporation
  0
SECTION
  2
HEADER
  9
$ACADVER
  1
AC1024
  9
$DWGCODEPAGE
  3
ANSI_1252
  9
$EXTMAX
 10
69.9861637962
 20
98.9804316547
 30
0.0
  9
$EXTMIN
 10
0.0
 20
0.0
 30
0.0
  9
$LIMMIN
 10
0.0
 20
0.0
  9
$LIMMAX
 10
69.9861637962
 20
98.9804316547
  9
$VIEWCTR
 10
34.9930818981
 20
49.4902158273
  9
$VIEWSIZE
 40
98.9804316547
  9
$CLAYER
  8
0
  9
$LTSCALE
 40
6.4520577671
  9
$CELTYPE
  6
BYLAYER
  9
$DIMSCALE
 40
1.0
  9
$DIMASZ
 40
0.8331686166
  9
$DIMEXO
 40
1.0
  9
$DIMDLI
 40
4.4577853664
  9
$DIMEXE
 40
1.0
  9
$DIMCEN
 40
1.055791271
  9
$DIMLFAC
 40
1.0
  9
$DIMBLK
  1
_FILLED
  9
$DIMALT
 70
0
  9
$DIMALTF
 40
0.0393700787
  9
$DIMTXT
 40
1.1664360633
  9
$DIMTOL
 70
1
  9
$DIMLIM
 70
0
  9
$DIMTFAC
 40
1.0
  9
$DIMTP
 40
0.01
  9
$DIMTM
 40
0.01
  9
$DIMGAP
 40
0.625
  9
$DIMDSEP
 70
46
  9
$AUNITS
 70
0
  9
$PDMODE
 70
3
  9
$PDSIZE
 40
0.3125
  9
$HANDSEED
  5
5CB
  9
$TILEMODE
 70
1
  9
$MEASUREMENT
 70
1
  9
$INSUNITS
 70
4
  0
ENDSEC
  0
SECTION
  2
CLASSES
  0
CLASS
  1
ACDBDICTIONARYWDFLT
  2
AcDbDictionaryWithDefault
  3
AutoCAD 2000
 90
0
 91
1
280
0
281
0
  0
CLASS
  1
ACDBPLACEHOLDER
  2
AcDbPlaceHolder
  3
AutoCAD 2000
 90
0
 91
1
280
0
281
0
  0
CLASS
  1
LAYOUT
  2
AcDbLayout
  3
AutoCAD 2000
 90
0
 91
0
280
0
281
0
  0
ENDSEC
  0
SECTION
  2
TABLES
  0
TABLE
  2
VPORT
  5
8
100
AcDbSymbolTable
 70
2
  0
VPORT
  5
1F4
100
AcDbSymbolTableRecord
100
AcDbViewportTableRecord
  2
*ACTIVE
 70
0
 10
0.0
 20
0.0
 11
1.0
 21
1.0
 12
34.9930818981
 22
49.4902158273
 13
0.0
 23
0.0
 14
1.0
 24
1.0
 15
0.0
 25
0.0
 16
0.0
 26
0.0
 36
1.0
 17
0.0
 27
0.0
 37
0.0
 40
98.9804316547
 41
0.7070707071
 42
50.0
 43
0.0
 44
0.0
 50
0.0
 51
0.0
 71
0
 72
100
 73
1
 74
1
 75
0
 76
0
 77
0
 78
0
  0
ENDTAB
  0
TABLE
  2
LTYPE
  5
5
100
AcDbSymbolTable
 70
6
  0
LTYPE
  5
14
100
AcDbSymbolTableRecord
100
AcDbLinetypeTableRecord
  2
BYBLOCK
 70
0
  3

 72
65
 73
0
 40
0.0
  0
LTYPE
  5
15
100
AcDbSymbolTableRecord
100
AcDbLinetypeTableRecord
  2
BYLAYER
 70
0
  3

 72
65
 73
0
 40
0.0
  0
LTYPE
  5
16
100
AcDbSymbolTableRecord
100
AcDbLinetypeTableRecord
  2
CONTINUOUS
 70
64
  3
Solid line
 72
65
 73
0
 40
0.0
  0
LTYPE
  5
1F5
100
AcDbSymbolTableRecord
100
AcDbLinetypeTableRecord
  2
CENTER
 70
64
  3
____ _ ____ _ ____ _ ____ _ ____ _ ____ _ ____
 72
65
 73
4
 40
0.6
 49
0.375
 74
0
 49
-0.075
 74
0
 49
0.075
 74
0
 49
-0.075
 74
0
  0
LTYPE
  5
1F6
100
AcDbSymbolTableRecord
100
AcDbLinetypeTableRecord
  2
HIDDEN
 70
64
  3
- - - - - - - - - - - - - - - - - - - -
 72
65
 73
2
 40
0.2
 49
0.1
 74
0
 49
-0.1
 74
0
  0
LTYPE
  5
1F7
100
AcDbSymbolTableRecord
100
AcDbLinetypeTableRecord
  2
PHANTOM
 70
64
  3
_____ _ _ _____ _ _ _____ _ _ _____
 72
65
 73
6
 40
0.8
 49
0.45
 74
0
 49
-0.05
 74
0
 49
0.1
 74
0
 49
-0.05
 74
0
 49
0.1
 74
0
 49
-0.05
 74
0
  0
LTYPE
  5
1F8
100
AcDbSymbolTableRecord
100
AcDbLinetypeTableRecord
  2
DOT
 70
64
  3
. . . . . . . . . . . . . . . . . . . .
 72
65
 73
2
 40
0.2
 49
0.1
 74
0
 49
-0.1
 74
0
  0
LTYPE
  5
1F9
100
AcDbSymbolTableRecord
100
AcDbLinetypeTableRecord
  2
DASHED
 70
64
  3
- - - - - - - - - - - - - - - - - - - -
 72
65
 73
2
 40
0.2
 49
0.1
 74
0
 49
-0.1
 74
0
  0
ENDTAB
  0
TABLE
  2
LAYER
  5
2
100
AcDbSymbolTable
 70
36
  0
LAYER
  5
10
100
AcDbSymbolTableRecord
100
AcDbLayerTableRecord
  2
0
 70
0
 62
7
  6
CONTINUOUS
370
-3
390
F
  0
LAYER
  5
1FA
100
AcDbSymbolTableRecord
100
AcDbLayerTableRecord
  2
DEFAULT_1
 70
0
 62
7
  6
CENTER
370
-3
390
F
  0
LAYER
  5
1FB
100
AcDbSymbolTableRecord
100
AcDbLayerTableRecord
  2
DEFAULT_2
 70
0
 62
8
  6
HIDDEN
370
-3
390
F
  0
LAYER
  5
1FC
100
AcDbSymbolTableRecord
100
AcDbLayerTableRecord
  2
DEFAULT_3
 70
0
 62
7
  6
PHANTOM
370
-3
390
F
  0
LAYER
  5
1FD
100
AcDbSymbolTableRecord
100
AcDbLayerTableRecord
  2
00_COMPONENTS
 70
0
 62
7
  6
CONTINUOUS
370
-3
390
F
  0
LAYER
  5
1FE
100
AcDbSymbolTableRecord
100
AcDbLayerTableRecord
  2
01_1_DEFAULT_DATUMS
 70
0
 62
7
  6
CONTINUOUS
370
-3
390
F
  0
LAYER
  5
1FF
100
AcDbSymbolTableRecord
100
AcDbLayerTableRecord
  2
01_PLANES
 70
0
 62
7
  6
CONTINUOUS
370
-3
390
F
  0
LAYER
  5
200
100
AcDbSymbolTableRecord
100
AcDbLayerTableRecord
  2
02_COORD_SYS
 70
0
 62
7
  6
CONTINUOUS
370
-3
390
F
  0
LAYER
  5
201
100
AcDbSymbolTableRecord
100
AcDbLayerTableRecord
  2
03_AXES
 70
0
 62
7
  6
CONTINUOUS
370
-3
390
F
  0
LAYER
  5
202
100
AcDbSymbolTableRecord
100
AcDbLayerTableRecord
  2
04_POINTS
 70
0
 62
7
  6
CONTINUOUS
370
-3
390
F
  0
LAYER
  5
203
100
AcDbSymbolTableRecord
100
AcDbLayerTableRecord
  2
05_CURVES
 70
0
 62
7
  6
CONTINUOUS
370
-3
390
F
  0
LAYER
  5
204
100
AcDbSymbolTableRecord
100
AcDbLayerTableRecord
  2
06_SURFS
 70
0
 62
7
  6
CONTINUOUS
370
-3
390
F
  0
LAYER
  5
205
100
AcDbSymbolTableRecord
100
AcDbLayerTableRecord
  2
07_COSMETICS
 70
0
 62
7
  6
CONTINUOUS
370
-3
390
F
  0
LAYER
  5
206
100
AcDbSymbolTableRecord
100
AcDbLayerTableRecord
  2
10_NOTES
 70
0
 62
7
  6
CONTINUOUS
370
-3
390
F
  0
LAYER
  5
207
100
AcDbSymbolTableRecord
100
AcDbLayerTableRecord
  2
11_NOTES_PUB
 70
0
 62
7
  6
CONTINUOUS
370
-3
390
F
  0
LAYER
  5
208
100
AcDbSymbolTableRecord
100
AcDbLayerTableRecord
  2
13_REF_GTOL
 70
0
 62
7
  6
CONTINUOUS
370
-3
390
F
  0
LAYER
  5
209
100
AcDbSymbolTableRecord
100
AcDbLayerTableRecord
  2
16_MISC
 70
0
 62
7
  6
CONTINUOUS
370
-3
390
F
  0
LAYER
  5
20A
100
AcDbSymbolTableRecord
100
AcDbLayerTableRecord
  2
17_NO_PRINT
 70
0
 62
7
  6
CONTINUOUS
370
-3
390
F
  0
LAYER
  5
20B
100
AcDbSymbolTableRecord
100
AcDbLayerTableRecord
  2
18_DATUM_CAMS_JOINTS
 70
0
 62
7
  6
CONTINUOUS
370
-3
390
F
  0
LAYER
  5
20C
100
AcDbSymbolTableRecord
100
AcDbLayerTableRecord
  2
19_DATUM_FUNCTIONAL
 70
0
 62
7
  6
CONTINUOUS
370
-3
390
F
  0
LAYER
  5
20D
100
AcDbSymbolTableRecord
100
AcDbLayerTableRecord
  2
20_DATUM_KINEMATIC_SCHEME
 70
0
 62
7
  6
CONTINUOUS
370
-3
390
F
  0
LAYER
  5
20E
100
AcDbSymbolTableRecord
100
AcDbLayerTableRecord
  2
_1
 70
0
 62
7
  6
CONTINUOUS
370
-3
390
F
  0
ENDTAB
  0
TABLE
  2
STYLE
  5
3
100
AcDbSymbolTable
 70
1
  0
STYLE
  5
11
100
AcDbSymbolTableRecord
100
AcDbTextStyleTableRecord
  2
STANDARD
 70
0
 40
0.0
 41
0.8
 50
0.0
 71
0
 42
0.2
  3
txt
  4

  0
STYLE
  5
20F
100
AcDbSymbolTableRecord
100
AcDbTextStyleTableRecord
  2
TEXTSTYLE_1
 70
0
 40
0.0
 41
0.8
 50
0.0
 71
0
 42
0.2
  3
gdt
  4

  0
ENDTAB
  0
TABLE
  2
VIEW
  5
6
100
AcDbSymbolTable
 70
0
  0
ENDTAB
  0
TABLE
  2
UCS
  5
7
100
AcDbSymbolTable
 70
0
  0
ENDTAB
  0
TABLE
  2
APPID
  5
9
100
AcDbSymbolTable
 70
1
  0
APPID
  5
210
100
AcDbSymbolTableRecord
100
AcDbRegAppTableRecord
  2
ACAD
 70
0
  0
ENDTAB
  0
TABLE
  2
BLOCK_RECORD
  5
1
100
AcDbSymbolTable
 70
0
  0
BLOCK_RECORD
  5
211
100
AcDbSymbolTableRecord
100
AcDbBlockTableRecord
  2
*Model_Space
  0
BLOCK_RECORD
  5
212
100
AcDbSymbolTableRecord
100
AcDbBlockTableRecord
  2
*Paper_Space
  0
BLOCK_RECORD
  5
213
100
AcDbSymbolTableRecord
100
AcDbBlockTableRecord
  2
_FILLED
  0
ENDTAB
  0
TABLE
  2
DIMSTYLE
  5
A
100
AcDbSymbolTable
 70
1
100
AcDbDimStyleTable
 71
0
  0
DIMSTYLE
105
214
100
AcDbSymbolTableRecord
100
AcDbDimStyleTableRecord
  2
STANDARD
 70
0
  3

  4

 40
1.0
 41
0.8331686166
 42
1.0
 43
0.38
 44
1.0
 45
0.0
 46
0.0
 47
0.01
 48
0.01
140
1.1664360633
141
0.09
142
0.0
143
25.4
144
1.0
145
0.0
146
1.0
147
0.625
 71
1
 72
0
 73
0
 74
0
 75
0
 76
0
 77
1
 78
8
 79
2
170
0
171
1
172
0
173
0
174
0
175
0
176
0
177
0
178
0
270
2
179
2
271
2
272
2
273
2
274
2
275
0
280
0
281
0
282
0
283
1
284
8
285
0
286
0
287
3
288
0
340
11
278
46
341
213
342
213
343
213
344
213
  0
ENDTAB
  0
ENDSEC
  0
SECTION
  2
BLOCKS
  0
BLOCK
  5
20
100
AcDbEntity
  8
0
100
AcDbBlockBegin
  2
*Model_Space
 70
0
 10
0.0
 20
0.0
 30
0.0
  3
*Model_Space
  1

  0
ENDBLK
  5
21
100
AcDbEntity
  8
0
100
AcDbBlockEnd
  0
BLOCK
  5
1C
100
AcDbEntity
  8
0
100
AcDbBlockBegin
  2
*Paper_Space
 70
0
 10
0.0
 20
0.0
 30
0.0
  3
*Paper_Space
  1

  0
ENDBLK
  5
1D
100
AcDbEntity
  8
0
100
AcDbBlockEnd
  0
BLOCK
  5
215
100
AcDbEntity
  8
0
100
AcDbBlockBegin
  2
_FILLED
 70
64
 10
0.0
 20
0.0
  3
_FILLED
  1

  0
SOLID
  5
216
100
AcDbEntity
  8
0
  6
BYBLOCK
 62
0
100
AcDbTrace
 10
0.0
 20
0.0
 11
-1.0
 21
0.25
 12
-1.0
 22
-0.25
 13
-1.0
 23
-0.25
  0
ENDBLK
  5
217
100
AcDbEntity
  8
0
  6
BYBLOCK
 62
0
100
AcDbBlockEnd
  0
ENDSEC
  0
SECTION
  2
ENTITIES
  0
LINE
  5
218
100
AcDbEntity
  8
_1
100
AcDbLine
 62
7
  6
CONTINUOUS
 10
58.4017149916
 20
7.0873381295
 11
13.4017149916
 21
7.0873381295
  0
LINE
  5
219
100
AcDbEntity
  8
_1
100
AcDbLine
 62
7
  6
CONTINUOUS
 10
13.0631342798
 20
8.5373381295
 11
58.7402956998
 21
8.5373381295
  0
LINE
  5
21A
100
AcDbEntity
  8
_1
100
AcDbLine
 62
7
  6
CONTINUOUS
 10
13.0517365141
 20
8.7373381295
 11
58.7516935578
 21
8.7373381295
  0
LINE
  5
21B
100
AcDbEntity
  8
_1
100
AcDbLine
 62
7
  6
CONTINUOUS
 10
58.5517149916
 20
8.9373381295
 11
13.2517149916
 21
8.9373381295
  0
LINE
  5
21C
100
AcDbEntity
  8
_1
100
AcDbLine
 62
7
  6
CONTINUOUS
 10
61.9386965005
 20
11.7373381312
 11
61.7517149916
 21
11.7373381312
  0
LINE
  5
21D
100
AcDbEntity
  8
_1
100
AcDbLine
 62
7
  6
CONTINUOUS
 10
10.0517149916
 20
11.737338145
 11
9.8647334828
 21
11.737338145
  0
LINE
  5
21E
100
AcDbEntity
  8
_1
100
AcDbLine
 62
7
  6
CONTINUOUS
 10
63.4017149916
 20
12.0873381296
 11
62.8043164996
 21
12.0873381305
  0
LINE
  5
21F
100
AcDbEntity
  8
_1
100
AcDbLine
 62
7
  6
CONTINUOUS
 10
8.9991134837
 20
12.0873381316
 11
8.4017149916
 21
12.0873381302
  0
LINE
  5
220
100
AcDbEntity
  8
_1
100
AcDbLine
 62
7
  6
CONTINUOUS
 10
16.7017149916
 20
13.7873381295
 11
23.5017149916
 21
13.7873381295
  0
LINE
  5
221
100
AcDbEntity
  8
_1
100
AcDbLine
 62
7
  6
CONTINUOUS
 10
48.3017149916
 20
13.7873381295
 11
55.1017149916
 21
13.7873381295
  0
LINE
  5
222
100
AcDbEntity
  8
_1
100
AcDbLine
 62
7
  6
CONTINUOUS
 10
22.0590789953
 20
16.8573381295
 11
21.2472079435
 21
16.8573381295
  0
LINE
  5
223
100
AcDbEntity
  8
_1
100
AcDbLine
 62
7
  6
CONTINUOUS
 10
19.3105883041
 20
16.8573381295
 11
18.4987170733
 21
16.8573381295
  0
LINE
  5
224
100
AcDbEntity
  8
_1
100
AcDbLine
 62
7
  6
CONTINUOUS
 10
18.6144111195
 20
17.094762667
 11
19.3105883041
 21
17.094762667
  0
LINE
  5
225
100
AcDbEntity
  8
_1
100
AcDbLine
 62
7
  6
CONTINUOUS
 10
21.3629019895
 20
17.094762667
 11
22.0590789953
 21
17.094762667
  0
LINE
  5
226
100
AcDbEntity
  8
_1
100
AcDbLine
 62
7
  6
CONTINUOUS
 10
17.1305077264
 20
17.4881228348
 11
17.2351355145
 21
17.4881228348
  0
LINE
  5
227
100
AcDbEntity
  8
_1
100
AcDbLine
 62
7
  6
CONTINUOUS
 10
21.9826203027
 20
17.5142797818
 11
21.3629019895
 21
17.5142797818
  0
LINE
  5
228
100
AcDbEntity
  8
_1
100
AcDbLine
 62
7
  6
CONTINUOUS
 10
19.2341294328
 20
17.5142797818
 11
18.6144111195
 21
17.5142797818
  0
LINE
  5
229
100
AcDbEntity
  8
_1
100
AcDbLine
 62
7
  6
CONTINUOUS
 10
17.1305077264
 20
17.702408581
 11
17.3981133739
 21
17.702408581
  0
LINE
  5
22A
100
AcDbEntity
  8
_1
100
AcDbLine
 62
7
  6
CONTINUOUS
 10
18.6144111195
 20
17.7396319201
 11
19.2341294328
 21
17.7396319201
  0
LINE
  5
22B
100
AcDbEntity
  8
_1
100
AcDbLine
 62
7
  6
CONTINUOUS
 10
21.3629019895
 20
17.7396319201
 11
21.9826203028
 21
17.7396319201
  0
LINE
  5
22C
100
AcDbEntity
  8
_1
100
AcDbLine
 62
7
  6
CONTINUOUS
 10
23.3961015383
 20
18.0857083192
 11
23.0701459089
 21
18.0857083192
  0
LINE
  5
22D
100
AcDbEntity
  8
_1
100
AcDbLine
 62
7
  6
CONTINUOUS
 10
22.7723591963
 20
18.0857083192
 11
22.4464032093
 21
18.0857083192
  0
LINE
  5
22E
100
AcDbEntity
  8
_1
100
AcDbLine
 62
7
  6
CONTINUOUS
 10
22.0359404722
 20
18.1018049707
 11
21.3629019895
 21
18.1018049707
  0
LINE
  5
22F
100
AcDbEntity
  8
_1
100
AcDbLine
 62
7
  6
CONTINUOUS
 10
19.2874494234
 20
18.1018049707
 11
18.6144111195
 21
18.1018049707
  0
LINE
  5
230
100
AcDbEntity
  8
_1
100
AcDbLine
 62
7
  6
CONTINUOUS
 10
17.4061616549
 20
18.1078411033
 11
17.1305077264
 21
18.1078411033
  0
LINE
  5
231
100
AcDbEntity
  8
_1
100
AcDbLine
 62
7
  6
CONTINUOUS
 10
19.2874494234
 20
18.3321872344
 11
18.4987170735
 21
18.3321872344
  0
LINE
  5
232
100
AcDbEntity
  8
_1
100
AcDbLine
 62
7
  6
CONTINUOUS
 10
17.0148135686
 20
18.3321872344
 11
17.5007290581
 21
18.3321872344
  0
LINE
  5
233
100
AcDbEntity
  8
_1
100
AcDbLine
 62
7
  6
CONTINUOUS
 10
21.2472079435
 20
18.3321872344
 11
22.0359404722
 21
18.3321872344
  0
LINE
  5
234
100
AcDbEntity
  8
_1
100
AcDbLine
 62
7
  6
CONTINUOUS
 10
22.4464032093
 20
18.3321872344
 11
23.3961015383
 21
18.3321872344
  0
LINE
  5
235
100
AcDbEntity
  8
_1
100
AcDbLine
 62
7
  6
CONTINUOUS
 10
48.7702220056
 20
18.3865936579
 11
48.9342783773
 21
18.3865936579
  0
LINE
  5
236
100
AcDbEntity
  8
_1
100
AcDbLine
 62
7
  6
CONTINUOUS
 10
23.1217149916
 20
18.6473381295
 11
16.9417149916
 21
18.6473381295
  0
LINE
  5
237
100
AcDbEntity
  8
_1
100
AcDbLine
 62
7
  6
CONTINUOUS
 10
49.1898276608
 20
18.7294508519
 11
48.7702220056
 21
18.7294508519
  0
LINE
  5
238
100
AcDbEntity
  8
_1
100
AcDbLine
 62
7
  6
CONTINUOUS
 10
16.9417149916
 20
18.9173381295
 11
23.1217149916
 21
18.9173381295
  0
LINE
  5
239
100
AcDbEntity
  8
_1
100
AcDbLine
 62
7
  6
CONTINUOUS
 10
17.7049544194
 20
17.0223280704
 11
17.5852360764
 21
17.2215232392
  0
LINE
  5
23A
100
AcDbEntity
  8
_1
100
AcDbLine
 62
7
  6
CONTINUOUS
 10
8.1017149916
 20
61.5373381295
 11
8.1017149916
 21
76.5373243773
  0
LINE
  5
23B
100
AcDbEntity
  8
_1
100
AcDbLine
 62
7
  6
CONTINUOUS
 10
8.4017149916
 20
12.0873381295
 11
8.4017149916
 21
61.5373381295
  0
LINE
  5
23C
100
AcDbEntity
  8
_1
100
AcDbLine
 62
7
  6
CONTINUOUS
 10
8.4017149916
 20
76.5373381295
 11
8.4017149916
 21
85.9873381295
  0
LINE
  5
23D
100
AcDbEntity
  8
_1
100
AcDbLine
 62
7
  6
CONTINUOUS
 10
8.6635742571
 20
62.0373285711
 11
8.6635742571
 21
76.037347688
  0
LINE
  5
23E
100
AcDbEntity
  8
_1
100
AcDbLine
 62
7
  6
CONTINUOUS
 10
8.7857307179
 20
85.9873381297
 11
8.7857307179
 21
12.0873381313
  0
LINE
  5
23F
100
AcDbEntity
  8
_1
100
AcDbLine
 62
7
  6
CONTINUOUS
 10
8.9991134837
 20
85.9873381262
 11
8.9991134837
 21
12.0873381341
  0
LINE
  5
240
100
AcDbEntity
  8
_1
100
AcDbLine
 62
7
  6
CONTINUOUS
 10
48.7702220056
 20
19.3781428876
 11
49.2024473655
 21
19.3781428876
  0
LINE
  5
241
100
AcDbEntity
  8
_1
100
AcDbLine
 62
7
  6
CONTINUOUS
 10
49.3507290537
 20
19.7370966973
 11
48.5888135662
 21
19.7370966973
  0
LINE
  5
242
100
AcDbEntity
  8
_1
100
AcDbLine
 62
7
  6
CONTINUOUS
 10
21.9555780065
 20
19.7817848226
 11
22.2292201889
 21
19.7817848226
  0
LINE
  5
243
100
AcDbEntity
  8
_1
100
AcDbLine
 62
7
  6
CONTINUOUS
 10
21.9555780065
 20
20.0071369161
 11
22.1567855251
 21
20.0071369161
  0
LINE
  5
244
100
AcDbEntity
  8
_1
100
AcDbLine
 62
7
  6
CONTINUOUS
 10
19.0712724102
 20
20.4357083192
 11
18.745316602
 21
20.4357083192
  0
LINE
  5
245
100
AcDbEntity
  8
_1
100
AcDbLine
 62
7
  6
CONTINUOUS
 10
19.3690591228
 20
20.4357083192
 11
19.6950147522
 21
20.4357083192
  0
LINE
  5
246
100
AcDbEntity
  8
_1
100
AcDbLine
 62
7
  6
CONTINUOUS
 10
22.1567855251
 20
20.4578411033
 11
21.9555780065
 21
20.4578411033
  0
LINE
  5
247
100
AcDbEntity
  8
_1
100
AcDbLine
 62
7
  6
CONTINUOUS
 10
18.745316602
 20
20.6821872344
 11
19.6950147522
 21
20.6821872344
  0
LINE
  5
248
100
AcDbEntity
  8
_1
100
AcDbLine
 62
7
  6
CONTINUOUS
 10
21.8459203613
 20
20.6821872344
 11
22.2292201889
 21
20.6821872344
  0
LINE
  5
249
100
AcDbEntity
  8
_1
100
AcDbLine
 62
7
  6
CONTINUOUS
 10
9.8647334828
 20
86.3373381278
 11
9.8647334828
 21
11.737338145
  0
LINE
  5
24A
100
AcDbEntity
  8
_1
100
AcDbLine
 62
7
  6
CONTINUOUS
 10
10.0517149916
 20
11.737338141
 11
10.0517149916
 21
86.3373381279
  0
LINE
  5
24B
100
AcDbEntity
  8
_1
100
AcDbLine
 62
7
  6
CONTINUOUS
 10
10.2517149916
 20
11.9373381295
 11
10.2517149916
 21
86.1373381295
  0
LINE
  5
24C
100
AcDbEntity
  8
_1
100
AcDbLine
 62
7
  6
CONTINUOUS
 10
55.1017149916
 20
23.7873381295
 11
48.3017149916
 21
23.7873381295
  0
LINE
  5
24D
100
AcDbEntity
  8
_1
100
AcDbLine
 62
7
  6
CONTINUOUS
 10
23.5017149916
 20
23.7873381295
 11
16.7017149916
 21
23.7873381295
  0
LINE
  5
24E
100
AcDbEntity
  8
_1
100
AcDbLine
 62
7
  6
CONTINUOUS
 10
13.4017149916
 20
7.0873381295
 11
13.4017149916
 21
7.4642006581
  0
LINE
  5
24F
100
AcDbEntity
  8
_1
100
AcDbLine
 62
7
  6
CONTINUOUS
 10
13.4017150605
 20
90.6104755496
 11
13.4017149923
 21
90.9873381295
  0
LINE
  5
250
100
AcDbEntity
  8
_1
100
AcDbLine
 62
7
  6
CONTINUOUS
 10
15.1017149916
 20
55.3873381295
 11
15.1017149916
 21
48.5873381295
  0
LINE
  5
251
100
AcDbEntity
  8
_1
100
AcDbLine
 62
7
  6
CONTINUOUS
 10
15.1017149916
 20
22.1873381295
 11
15.1017149916
 21
15.3873381295
  0
LINE
  5
252
100
AcDbEntity
  8
_1
100
AcDbLine
 62
7
  6
CONTINUOUS
 10
39.8932851958
 20
82.1643045064
 11
40.2704404693
 21
82.5552263814
  0
LINE
  5
253
100
AcDbEntity
  8
_1
100
AcDbLine
 62
7
  6
CONTINUOUS
 10
16.8317149842
 20
18.14908865
 11
16.8317149842
 21
17.014279778
  0
LINE
  5
254
100
AcDbEntity
  8
_1
100
AcDbLine
 62
7
  6
CONTINUOUS
 10
16.9017149916
 20
52.8902556636
 11
16.9017149916
 21
51.0425024555
  0
LINE
  5
255
100
AcDbEntity
  8
_1
100
AcDbLine
 62
7
  6
CONTINUOUS
 10
16.9417149916
 20
18.6473381295
 11
16.9417149916
 21
18.9173381295
  0
LINE
  5
256
100
AcDbEntity
  8
_1
100
AcDbLine
 62
7
  6
CONTINUOUS
 10
17.1305077264
 20
17.0142797781
 11
17.1305077264
 21
17.4881228348
  0
LINE
  5
257
100
AcDbEntity
  8
_1
100
AcDbLine
 62
7
  6
CONTINUOUS
 10
17.1305077264
 20
17.702408581
 11
17.1305077264
 21
18.1078411033
  0
LINE
  5
258
100
AcDbEntity
  8
_1
100
AcDbLine
 62
7
  6
CONTINUOUS
 10
17.3997029326
 20
51.1330456921
 11
17.3997029326
 21
51.8322408833
  0
LINE
  5
259
100
AcDbEntity
  8
_1
100
AcDbLine
 62
7
  6
CONTINUOUS
 10
17.3997029326
 20
52.2078277805
 11
17.3997029326
 21
52.8114495315
  0
LINE
  5
25A
100
AcDbEntity
  8
_1
100
AcDbLine
 62
7
  6
CONTINUOUS
 10
17.4017149916
 20
77.4264135821
 11
17.4017149916
 21
60.4264135821
  0
LINE
  5
25B
100
AcDbEntity
  8
_1
100
AcDbLine
 62
7
  6
CONTINUOUS
 10
18.3156183997
 20
18.14908865
 11
18.3156183997
 21
17.0404367251
  0
LINE
  5
25C
100
AcDbEntity
  8
_1
100
AcDbLine
 62
7
  6
CONTINUOUS
 10
18.6144111195
 20
17.094762667
 11
18.6144111195
 21
17.5142797818
  0
LINE
  5
25D
100
AcDbEntity
  8
_1
100
AcDbLine
 62
7
  6
CONTINUOUS
 10
18.6144111195
 20
17.7396319201
 11
18.6144111195
 21
18.1018049707
  0
LINE
  5
25E
100
AcDbEntity
  8
_1
100
AcDbLine
 62
7
  6
CONTINUOUS
 10
19.0712724102
 20
20.4357083192
 11
19.0712724102
 21
19.3642797781
  0
LINE
  5
25F
100
AcDbEntity
  8
_1
100
AcDbLine
 62
7
  6
CONTINUOUS
 10
19.3690591228
 20
19.3642797781
 11
19.3690591228
 21
20.4357083192
  0
LINE
  5
260
100
AcDbEntity
  8
_1
100
AcDbLine
 62
7
  6
CONTINUOUS
 10
26.1869997044
 20
34.372642723
 11
25.1228793983
 21
35.1177477829
  0
LINE
  5
261
100
AcDbEntity
  8
_1
100
AcDbLine
 62
7
  6
CONTINUOUS
 10
25.5855066932
 20
35.2821224992
 11
26.4153068088
 21
34.701090203
  0
LINE
  5
262
100
AcDbEntity
  8
_1
100
AcDbLine
 62
7
  6
CONTINUOUS
 10
21.0641092697
 20
18.14908865
 11
21.0641092697
 21
17.0404367251
  0
LINE
  5
263
100
AcDbEntity
  8
_1
100
AcDbLine
 62
7
  6
CONTINUOUS
 10
21.3629019895
 20
17.094762667
 11
21.3629019895
 21
17.5142797818
  0
LINE
  5
264
100
AcDbEntity
  8
_1
100
AcDbLine
 62
7
  6
CONTINUOUS
 10
21.3629019895
 20
17.7396319201
 11
21.3629019895
 21
18.1018049707
  0
LINE
  5
265
100
AcDbEntity
  8
_1
100
AcDbLine
 62
7
  6
CONTINUOUS
 10
21.6567852867
 20
20.49908865
 11
21.6567852867
 21
19.3622677078
  0
LINE
  5
266
100
AcDbEntity
  8
_1
100
AcDbLine
 62
7
  6
CONTINUOUS
 10
21.9555780065
 20
19.3642797781
 11
21.9555780065
 21
19.7817848226
  0
LINE
  5
267
100
AcDbEntity
  8
_1
100
AcDbLine
 62
7
  6
CONTINUOUS
 10
21.9555780065
 20
20.0071369161
 11
21.9555780065
 21
20.4578411033
  0
LINE
  5
268
100
AcDbEntity
  8
_1
100
AcDbLine
 62
7
  6
CONTINUOUS
 10
22.7723591963
 20
18.0857083192
 11
22.7723591963
 21
17.0142797781
  0
LINE
  5
269
100
AcDbEntity
  8
_1
100
AcDbLine
 62
7
  6
CONTINUOUS
 10
32.2959814849
 20
81.9760369282
 11
32.3716357818
 21
82.1972947408
  0
LINE
  5
26A
100
AcDbEntity
  8
_1
100
AcDbLine
 62
7
  6
CONTINUOUS
 10
32.3985488677
 20
82.4062742329
 11
32.4760635162
 21
82.627408022
  0
LINE
  5
26B
100
AcDbEntity
  8
_1
100
AcDbLine
 62
7
  6
CONTINUOUS
 10
35.7378845828
 20
24.5025095543
 11
34.9922352155
 21
25.5674072119
  0
LINE
  5
26C
100
AcDbEntity
  8
_1
100
AcDbLine
 62
7
  6
CONTINUOUS
 10
35.3198960332
 20
25.7968377864
 11
35.9017149916
 21
24.9659142007
  0
LINE
  5
26D
100
AcDbEntity
  8
_1
100
AcDbLine
 62
7
  6
CONTINUOUS
 10
23.0701459089
 20
17.0142797781
 11
23.0701459089
 21
18.0857083192
  0
LINE
  5
26E
100
AcDbEntity
  8
_1
100
AcDbLine
 62
7
  6
CONTINUOUS
 10
23.1217149916
 20
18.9173381295
 11
23.1217149916
 21
18.6473381295
  0
LINE
  5
26F
100
AcDbEntity
  8
_1
100
AcDbLine
 62
7
  6
CONTINUOUS
 10
25.1017149916
 20
15.3873381295
 11
25.1017149916
 21
22.1873381295
  0
LINE
  5
270
100
AcDbEntity
  8
_1
100
AcDbLine
 62
7
  6
CONTINUOUS
 10
25.1017149916
 20
48.5873381295
 11
25.1017149916
 21
55.3873381295
  0
LINE
  5
271
100
AcDbEntity
  8
_1
100
AcDbLine
 62
7
  6
CONTINUOUS
 10
32.838584024
 20
82.4469539205
 11
32.696577188
 21
81.8512693501
  0
LINE
  5
272
100
AcDbEntity
  8
_1
100
AcDbLine
 62
7
  6
CONTINUOUS
 10
32.2487285552
 20
81.7717703267
 11
32.1565791412
 21
81.4211560689
  0
LINE
  5
273
100
AcDbEntity
  8
_1
100
AcDbLine
 62
7
  6
CONTINUOUS
 10
33.4077275787
 20
81.8992664204
 11
33.587561563
 21
82.5808992329
  0
LINE
  5
274
100
AcDbEntity
  8
_1
100
AcDbLine
 62
7
  6
CONTINUOUS
 10
33.8459023833
 20
82.4334353658
 11
33.7848828521
 21
82.212673647
  0
LINE
  5
275
100
AcDbEntity
  8
_1
100
AcDbLine
 62
7
  6
CONTINUOUS
 10
33.7350254302
 20
82.0029500142
 11
33.6696650787
 21
81.7825603657
  0
LINE
  5
276
100
AcDbEntity
  8
_1
100
AcDbLine
 62
7
  6
CONTINUOUS
 10
41.8991162505
 20
82.246408022
 11
41.7932002349
 21
82.069798647
  0
LINE
  5
277
100
AcDbEntity
  8
_1
100
AcDbLine
 62
7
  6
CONTINUOUS
 10
27.723733438
 20
83.9761629048
 11
27.723733438
 21
83.4055310689
  0
LINE
  5
278
100
AcDbEntity
  8
_1
100
AcDbLine
 62
7
  6
CONTINUOUS
 10
28.4017149916
 20
90.7516648354
 11
28.4017149916
 21
91.2873381295
  0
LINE
  5
279
100
AcDbEntity
  8
_1
100
AcDbLine
 62
7
  6
CONTINUOUS
 10
28.9017054332
 20
90.7385718248
 11
28.9017149916
 21
91.2873381295
  0
LINE
  5
27A
100
AcDbEntity
  8
_1
100
AcDbLine
 62
7
  6
CONTINUOUS
 10
29.5812324615
 20
85.1432234517
 11
29.5812324615
 21
85.6597810689
  0
LINE
  5
27B
100
AcDbEntity
  8
_1
100
AcDbLine
 62
7
  6
CONTINUOUS
 10
33.9915058989
 20
82.6281521626
 11
34.0614551177
 21
82.950861147
  0
LINE
  5
27C
100
AcDbEntity
  8
_1
100
AcDbLine
 62
7
  6
CONTINUOUS
 10
27.2085298264
 20
50.1615338029
 11
27.4662603766
 21
51.123397311
  0
LINE
  5
27D
100
AcDbEntity
  8
_1
100
AcDbLine
 62
7
  6
CONTINUOUS
 10
27.853719202
 20
51.0239320111
 11
27.7174552399
 21
50.5153879812
  0
LINE
  5
27E
100
AcDbEntity
  8
_1
100
AcDbLine
 62
7
  6
CONTINUOUS
 10
37.3378986141
 20
35.5313018777
 11
38.0354172012
 21
34.5319726013
  0
LINE
  5
27F
100
AcDbEntity
  8
_1
100
AcDbLine
 62
7
  6
CONTINUOUS
 10
37.5827008507
 20
34.2922006429
 11
36.9941696546
 21
35.1976332136
  0
LINE
  5
280
100
AcDbEntity
  8
_1
100
AcDbLine
 62
7
  6
CONTINUOUS
 10
31.4487773833
 20
84.4746131001
 11
31.4487773833
 21
84.8940603658
  0
LINE
  5
281
100
AcDbEntity
  8
_1
100
AcDbLine
 62
7
  6
CONTINUOUS
 10
31.4760625396
 20
83.270345522
 11
31.4760625396
 21
83.6759021627
  0
LINE
  5
282
100
AcDbEntity
  8
_1
100
AcDbLine
 62
7
  6
CONTINUOUS
 10
31.7087305084
 20
85.8330418111
 11
31.7087305084
 21
83.1873738423
  0
LINE
  5
283
100
AcDbEntity
  8
_1
100
AcDbLine
 62
7
  6
CONTINUOUS
 10
32.2721689849
 20
83.1873738423
 11
32.2721689849
 21
84.324048647
  0
LINE
  5
284
100
AcDbEntity
  8
_1
100
AcDbLine
 62
7
  6
CONTINUOUS
 10
32.2721689849
 20
84.7096375142
 11
32.2721689849
 21
85.8330418111
  0
LINE
  5
285
100
AcDbEntity
  8
_1
100
AcDbLine
 62
7
  6
CONTINUOUS
 10
32.9404072662
 20
84.2039939595
 11
32.9404072662
 21
83.5737068501
  0
LINE
  5
286
100
AcDbEntity
  8
_1
100
AcDbLine
 62
7
  6
CONTINUOUS
 10
46.2179232901
 20
35.2821224992
 11
45.3881231745
 21
35.8631547953
  0
LINE
  5
287
100
AcDbEntity
  8
_1
100
AcDbLine
 62
7
  6
CONTINUOUS
 10
45.6164302789
 20
36.1916022753
 11
46.6802044664
 21
35.4467395703
  0
LINE
  5
288
100
AcDbEntity
  8
_1
100
AcDbLine
 62
7
  6
CONTINUOUS
 10
49.4832360584
 20
17.9600343051
 11
49.6709544198
 21
17.6413220356
  0
LINE
  5
289
100
AcDbEntity
  8
_1
100
AcDbLine
 62
7
  6
CONTINUOUS
 10
33.5038457427
 20
83.7526726705
 11
33.5038457427
 21
84.324048647
  0
LINE
  5
28A
100
AcDbEntity
  8
_1
100
AcDbLine
 62
7
  6
CONTINUOUS
 10
33.7698760161
 20
84.9766599751
 11
33.7698760161
 21
83.7572615376
  0
LINE
  5
28B
100
AcDbEntity
  8
_1
100
AcDbLine
 62
7
  6
CONTINUOUS
 10
34.3333144927
 20
83.5002849752
 11
34.3333144927
 21
84.3383113423
  0
LINE
  5
28C
100
AcDbEntity
  8
_1
100
AcDbLine
 62
7
  6
CONTINUOUS
 10
34.3333144927
 20
84.7196834126
 11
34.3333144927
 21
84.9766599751
  0
LINE
  5
28D
100
AcDbEntity
  8
_1
100
AcDbLine
 62
7
  6
CONTINUOUS
 10
35.0076299224
 20
84.276423647
 11
35.0076299224
 21
83.1866297017
  0
LINE
  5
28E
100
AcDbEntity
  8
_1
100
AcDbLine
 62
7
  6
CONTINUOUS
 10
35.0080020316
 20
82.8708663334
 11
35.0080020316
 21
81.3278904934
  0
LINE
  5
28F
100
AcDbEntity
  8
_1
100
AcDbLine
 62
7
  6
CONTINUOUS
 10
35.2272751516
 20
81.5271958534
 11
35.2272751516
 21
82.0067950534
  0
LINE
  5
290
100
AcDbEntity
  8
_1
100
AcDbLine
 62
7
  6
CONTINUOUS
 10
35.2272751516
 20
82.2064726534
 11
35.2272751516
 21
82.6715602534
  0
LINE
  5
291
100
AcDbEntity
  8
_1
100
AcDbLine
 62
7
  6
CONTINUOUS
 10
35.5705723052
 20
83.1866297017
 11
35.5705723052
 21
84.3229324361
  0
LINE
  5
292
100
AcDbEntity
  8
_1
100
AcDbLine
 62
7
  6
CONTINUOUS
 10
35.8590506716
 20
82.0067950534
 11
35.8590506716
 21
82.2064726534
  0
LINE
  5
293
100
AcDbEntity
  8
_1
100
AcDbLine
 62
7
  6
CONTINUOUS
 10
35.8821194716
 20
82.6715602534
 11
35.8821194716
 21
82.8708663334
  0
LINE
  5
294
100
AcDbEntity
  8
_1
100
AcDbLine
 62
7
  6
CONTINUOUS
 10
35.9017149916
 20
81.3278904934
 11
35.9017149916
 21
81.5271958534
  0
LINE
  5
295
100
AcDbEntity
  8
_1
100
AcDbLine
 62
7
  6
CONTINUOUS
 10
36.0887372515
 20
36.2355273285
 11
36.0887372515
 21
34.4078948044
  0
LINE
  5
296
100
AcDbEntity
  8
_1
100
AcDbLine
 62
7
  6
CONTINUOUS
 10
44.4794238677
 20
84.847923647
 11
44.3246426177
 21
84.3502175923
  0
LINE
  5
297
100
AcDbEntity
  8
_1
100
AcDbLine
 62
7
  6
CONTINUOUS
 10
44.4534788006
 20
49.9165848286
 11
43.4687814659
 21
49.6527359729
  0
LINE
  5
298
100
AcDbEntity
  8
_1
100
AcDbLine
 62
7
  6
CONTINUOUS
 10
43.3652538478
 20
50.0391063034
 11
43.8737978777
 21
50.1753702656
  0
LINE
  5
299
100
AcDbEntity
  8
_1
100
AcDbLine
 62
7
  6
CONTINUOUS
 10
16.7017149916
 20
46.9873381295
 11
23.5017149916
 21
46.9873381295
  0
LINE
  5
29A
100
AcDbEntity
  8
_1
100
AcDbLine
 62
7
  6
CONTINUOUS
 10
48.3017149916
 20
46.9873381295
 11
55.1017149916
 21
46.9873381295
  0
LINE
  5
29B
100
AcDbEntity
  8
_1
100
AcDbLine
 62
7
  6
CONTINUOUS
 10
54.2017149916
 20
49.1873381295
 11
49.2017149916
 21
49.1873381295
  0
LINE
  5
29C
100
AcDbEntity
  8
_1
100
AcDbLine
 62
7
  6
CONTINUOUS
 10
28.3346485174
 20
49.6527359729
 11
27.3499511826
 21
49.9165848286
  0
LINE
  5
29D
100
AcDbEntity
  8
_1
100
AcDbLine
 62
7
  6
CONTINUOUS
 10
27.9296321056
 20
50.1753702656
 11
28.4381761355
 21
50.0391063034
  0
LINE
  5
29E
100
AcDbEntity
  8
_1
100
AcDbLine
 62
7
  6
CONTINUOUS
 10
36.48353395
 20
44.7674072119
 11
35.9017149916
 21
45.5983307976
  0
LINE
  5
29F
100
AcDbEntity
  8
_1
100
AcDbLine
 62
7
  6
CONTINUOUS
 10
36.0655454005
 20
46.061735444
 11
36.8111947678
 21
44.9968377864
  0
LINE
  5
2A0
100
AcDbEntity
  8
_1
100
AcDbLine
 62
7
  6
CONTINUOUS
 10
54.5942222893
 20
18.1000745835
 11
53.693489524
 21
19.4908189836
  0
LINE
  5
2A1
100
AcDbEntity
  8
_1
100
AcDbLine
 62
7
  6
CONTINUOUS
 10
53.5278560135
 20
18.9934347214
 11
54.4065037957
 21
17.6187868166
  0
LINE
  5
2A2
100
AcDbEntity
  8
_1
100
AcDbLine
 62
7
  6
CONTINUOUS
 10
36.4166604316
 20
82.8708663334
 11
36.4166604316
 21
81.3270221734
  0
LINE
  5
2A3
100
AcDbEntity
  8
_1
100
AcDbLine
 62
7
  6
CONTINUOUS
 10
36.5867251179
 20
34.2989075438
 11
36.5867251179
 21
34.806955836
  0
LINE
  5
2A4
100
AcDbEntity
  8
_1
100
AcDbLine
 62
7
  6
CONTINUOUS
 10
36.5867251179
 20
35.3736896136
 11
36.5867251179
 21
36.2355273285
  0
LINE
  5
2A5
100
AcDbEntity
  8
_1
100
AcDbLine
 62
7
  6
CONTINUOUS
 10
36.6175778716
 20
81.3270221734
 11
36.6175778716
 21
82.8708663334
  0
LINE
  5
2A6
100
AcDbEntity
  8
_1
100
AcDbLine
 62
7
  6
CONTINUOUS
 10
37.6337021881
 20
83.3877957174
 11
37.6337021881
 21
83.7380379048
  0
LINE
  5
2A7
100
AcDbEntity
  8
_1
100
AcDbLine
 62
7
  6
CONTINUOUS
 10
37.8828655516
 20
84.9766596934
 11
37.8828655516
 21
83.1819171334
  0
LINE
  5
2A8
100
AcDbEntity
  8
_1
100
AcDbLine
 62
7
  6
CONTINUOUS
 10
38.0292129302
 20
81.427729311
 11
38.0292129302
 21
81.6228181782
  0
LINE
  5
2A9
100
AcDbEntity
  8
_1
100
AcDbLine
 62
7
  6
CONTINUOUS
 10
38.4463037116
 20
83.1819171334
 11
38.4463037116
 21
84.9766596934
  0
LINE
  5
2AA
100
AcDbEntity
  8
_1
100
AcDbLine
 62
7
  6
CONTINUOUS
 10
39.3565117583
 20
82.0778601704
 11
39.3565117583
 21
82.294033022
  0
LINE
  5
2AB
100
AcDbEntity
  8
_1
100
AcDbLine
 62
7
  6
CONTINUOUS
 10
39.379084024
 20
81.3662136861
 11
39.379084024
 21
81.5640310689
  0
LINE
  5
2AC
100
AcDbEntity
  8
_1
100
AcDbLine
 62
7
  6
CONTINUOUS
 10
34.9922352156
 20
44.9968377865
 11
35.7373516063
 21
46.0609742747
  0
LINE
  5
2AD
100
AcDbEntity
  8
_1
100
AcDbLine
 62
7
  6
CONTINUOUS
 10
35.9017149916
 20
45.5983307976
 11
35.3198960332
 21
44.7674072119
  0
LINE
  5
2AE
100
AcDbEntity
  8
_1
100
AcDbLine
 62
7
  6
CONTINUOUS
 10
49.2017149916
 20
49.6873381295
 11
54.2017149916
 21
49.6873381295
  0
LINE
  5
2AF
100
AcDbEntity
  8
_1
100
AcDbLine
 62
7
  6
CONTINUOUS
 10
18.5599980167
 20
50.7373381295
 11
17.206879299
 21
50.7373381295
  0
LINE
  5
2B0
100
AcDbEntity
  8
_1
100
AcDbLine
 62
7
  6
CONTINUOUS
 10
17.3997029326
 20
51.1330456921
 11
18.5599980167
 21
51.1330456921
  0
LINE
  5
2B1
100
AcDbEntity
  8
_1
100
AcDbLine
 62
7
  6
CONTINUOUS
 10
17.3997029326
 20
51.8322408833
 11
18.4325667134
 21
51.8322408833
  0
LINE
  5
2B2
100
AcDbEntity
  8
_1
100
AcDbLine
 62
7
  6
CONTINUOUS
 10
18.4325667134
 20
52.2078277805
 11
17.3997029326
 21
52.2078277805
  0
LINE
  5
2B3
100
AcDbEntity
  8
_1
100
AcDbLine
 62
7
  6
CONTINUOUS
 10
18.5214333645
 20
52.8114495315
 11
17.3997029326
 21
52.8114495315
  0
LINE
  5
2B4
100
AcDbEntity
  8
_1
100
AcDbLine
 62
7
  6
CONTINUOUS
 10
40.0123476959
 20
85.8330418111
 11
40.0123476959
 21
84.8979050923
  0
LINE
  5
2B5
100
AcDbEntity
  8
_1
100
AcDbLine
 62
7
  6
CONTINUOUS
 10
40.0123476959
 20
84.5291834126
 11
40.0123476959
 21
83.6728015767
  0
LINE
  5
2B6
100
AcDbEntity
  8
_1
100
AcDbLine
 62
7
  6
CONTINUOUS
 10
40.0123476959
 20
83.3271482564
 11
40.0123476959
 21
83.1827849751
  0
LINE
  5
2B7
100
AcDbEntity
  8
_1
100
AcDbLine
 62
7
  6
CONTINUOUS
 10
40.0703906646
 20
82.1643045064
 11
40.0703906646
 21
81.6266629048
  0
LINE
  5
2B8
100
AcDbEntity
  8
_1
100
AcDbLine
 62
7
  6
CONTINUOUS
 10
40.2704404693
 20
81.6419177877
 11
40.2704404693
 21
82.1643045064
  0
LINE
  5
2B9
100
AcDbEntity
  8
_1
100
AcDbLine
 62
7
  6
CONTINUOUS
 10
40.2704404693
 20
82.344758608
 11
40.2704404693
 21
82.5552263814
  0
LINE
  5
2BA
100
AcDbEntity
  8
_1
100
AcDbLine
 62
7
  6
CONTINUOUS
 10
40.5757861724
 20
83.1827849751
 11
40.5757861724
 21
85.8330418111
  0
LINE
  5
2BB
100
AcDbEntity
  8
_1
100
AcDbLine
 62
7
  6
CONTINUOUS
 10
40.5922812896
 20
82.1643045064
 11
40.5922812896
 21
82.344758608
  0
LINE
  5
2BC
100
AcDbEntity
  8
_1
100
AcDbLine
 62
7
  6
CONTINUOUS
 10
40.6437510161
 20
81.3755154439
 11
40.6437510161
 21
81.5636589986
  0
LINE
  5
2BD
100
AcDbEntity
  8
_1
100
AcDbLine
 62
7
  6
CONTINUOUS
 10
41.1586963287
 20
82.344758608
 11
41.1586963287
 21
81.3270222798
  0
LINE
  5
2BE
100
AcDbEntity
  8
_1
100
AcDbLine
 62
7
  6
CONTINUOUS
 10
41.3587461333
 20
81.3270222798
 11
41.3587461333
 21
81.8578425923
  0
LINE
  5
2BF
100
AcDbEntity
  8
_1
100
AcDbLine
 62
7
  6
CONTINUOUS
 10
41.3587461333
 20
82.1093621236
 11
41.3587461333
 21
82.344758608
  0
LINE
  5
2C0
100
AcDbEntity
  8
_1
100
AcDbLine
 62
7
  6
CONTINUOUS
 10
42.4310529916
 20
82.3447587334
 11
42.4310529916
 21
81.3270221734
  0
LINE
  5
2C1
100
AcDbEntity
  8
_1
100
AcDbLine
 62
7
  6
CONTINUOUS
 10
42.6314743516
 20
81.3270221734
 11
42.6314743516
 21
82.3447587334
  0
LINE
  5
2C2
100
AcDbEntity
  8
_1
100
AcDbLine
 62
7
  6
CONTINUOUS
 10
42.6537988677
 20
83.3877957174
 11
42.6537988677
 21
83.7380379048
  0
LINE
  5
2C3
100
AcDbEntity
  8
_1
100
AcDbLine
 62
7
  6
CONTINUOUS
 10
42.9017149916
 20
91.2873381295
 11
42.9017245502
 21
90.7385718248
  0
LINE
  5
2C4
100
AcDbEntity
  8
_1
100
AcDbLine
 62
7
  6
CONTINUOUS
 10
42.9633613677
 20
84.9785203267
 11
42.9633613677
 21
83.1846453267
  0
LINE
  5
2C5
100
AcDbEntity
  8
_1
100
AcDbLine
 62
7
  6
CONTINUOUS
 10
48.8803211669
 20
52.9726112564
 11
51.3803212076
 21
55.0703603685
  0
LINE
  5
2C6
100
AcDbEntity
  8
_1
100
AcDbLine
 62
7
  6
CONTINUOUS
 10
51.7017149916
 20
54.6873381295
 11
49.2017149916
 21
52.5895890516
  0
LINE
  5
2C7
100
AcDbEntity
  8
_1
100
AcDbLine
 62
7
  6
CONTINUOUS
 10
25.1221020468
 20
35.445952908
 11
26.1869997044
 21
36.1916022753
  0
LINE
  5
2C8
100
AcDbEntity
  8
_1
100
AcDbLine
 62
7
  6
CONTINUOUS
 10
26.4153068088
 20
35.8631547953
 11
25.5855066932
 21
35.2821224992
  0
LINE
  5
2C9
100
AcDbEntity
  8
_1
100
AcDbLine
 62
7
  6
CONTINUOUS
 10
17.206879299
 20
53.195419971
 11
18.5214333645
 21
53.195419971
  0
LINE
  5
2CA
100
AcDbEntity
  8
_1
100
AcDbLine
 62
7
  6
CONTINUOUS
 10
43.4017149916
 20
90.7516648354
 11
43.4017149916
 21
91.2873381295
  0
LINE
  5
2CB
100
AcDbEntity
  8
_1
100
AcDbLine
 62
7
  6
CONTINUOUS
 10
43.5270478911
 20
83.1846453267
 11
43.5270478911
 21
83.9585515767
  0
LINE
  5
2CC
100
AcDbEntity
  8
_1
100
AcDbLine
 62
7
  6
CONTINUOUS
 10
43.5270478911
 20
84.4632029439
 11
43.5270478911
 21
84.9785203267
  0
LINE
  5
2CD
100
AcDbEntity
  8
_1
100
AcDbLine
 62
7
  6
CONTINUOUS
 10
43.9540605864
 20
82.0778601704
 11
43.9540605864
 21
82.294033022
  0
LINE
  5
2CE
100
AcDbEntity
  8
_1
100
AcDbLine
 62
7
  6
CONTINUOUS
 10
43.9771289459
 20
81.3662136861
 11
43.9771289459
 21
81.5640310689
  0
LINE
  5
2CF
100
AcDbEntity
  8
_1
100
AcDbLine
 62
7
  6
CONTINUOUS
 10
36.5867251179
 20
35.3736896136
 11
37.5642567894
 21
36.3931395926
  0
LINE
  5
2D0
100
AcDbEntity
  8
_1
100
AcDbLine
 62
7
  6
CONTINUOUS
 10
55.1017149916
 20
56.9873381295
 11
48.3017149916
 21
56.9873381295
  0
LINE
  5
2D1
100
AcDbEntity
  8
_1
100
AcDbLine
 62
7
  6
CONTINUOUS
 10
23.5017149916
 20
56.9873381295
 11
16.7017149916
 21
56.9873381295
  0
LINE
  5
2D2
100
AcDbEntity
  8
_1
100
AcDbLine
 62
7
  6
CONTINUOUS
 10
18.4017149916
 20
59.4264135821
 11
53.4017149916
 21
59.4264135821
  0
LINE
  5
2D3
100
AcDbEntity
  8
_1
100
AcDbLine
 62
7
  6
CONTINUOUS
 10
44.0859747434
 20
50.5153879812
 11
43.9497107813
 21
51.0239320112
  0
LINE
  5
2D4
100
AcDbEntity
  8
_1
100
AcDbLine
 62
7
  6
CONTINUOUS
 10
44.3371695947
 20
51.1233973558
 11
44.5949001569
 21
50.1615338029
  0
LINE
  5
2D5
100
AcDbEntity
  8
_1
100
AcDbLine
 62
7
  6
CONTINUOUS
 10
46.7017149916
 20
55.3873381295
 11
46.7017149916
 21
48.5873381295
  0
LINE
  5
2D6
100
AcDbEntity
  8
_1
100
AcDbLine
 62
7
  6
CONTINUOUS
 10
46.7017149916
 20
22.1873381295
 11
46.7017149916
 21
15.3873381295
  0
LINE
  5
2D7
100
AcDbEntity
  8
_1
100
AcDbLine
 62
7
  6
CONTINUOUS
 10
48.3017149858
 20
19.4441389622
 11
48.3017149858
 21
17.6559672971
  0
LINE
  5
2D8
100
AcDbEntity
  8
_1
100
AcDbLine
 62
7
  6
CONTINUOUS
 10
48.7017149916
 20
52.5895890414
 11
48.7017149916
 21
49.6873381295
  0
LINE
  5
2D9
100
AcDbEntity
  8
_1
100
AcDbLine
 62
7
  6
CONTINUOUS
 10
48.7702220056
 20
17.6284447672
 11
48.7702220056
 21
18.3865936579
  0
LINE
  5
2DA
100
AcDbEntity
  8
_1
100
AcDbLine
 62
7
  6
CONTINUOUS
 10
48.7702220056
 20
18.7294508519
 11
48.7702220056
 21
19.3781428876
  0
LINE
  5
2DB
100
AcDbEntity
  8
_1
100
AcDbLine
 62
7
  6
CONTINUOUS
 10
49.2017149916
 20
49.6873381295
 11
49.2017149916
 21
52.5895890516
  0
LINE
  5
2DC
100
AcDbEntity
  8
_1
100
AcDbLine
 62
7
  6
CONTINUOUS
 10
35.9017149916
 20
24.9659142007
 11
36.48353395
 21
25.7968377864
  0
LINE
  5
2DD
100
AcDbEntity
  8
_1
100
AcDbLine
 62
7
  6
CONTINUOUS
 10
36.9941696546
 20
35.1976332136
 11
36.5867251179
 21
34.806955836
  0
LINE
  5
2DE
100
AcDbEntity
  8
_1
100
AcDbLine
 62
7
  6
CONTINUOUS
 10
37.9431971928
 20
36.1047425188
 11
37.3378986141
 21
35.5313018777
  0
LINE
  5
2DF
100
AcDbEntity
  8
_1
100
AcDbLine
 62
7
  6
CONTINUOUS
 10
63.7017149916
 20
61.5373381295
 11
63.1529487367
 21
61.5373381295
  0
LINE
  5
2E0
100
AcDbEntity
  8
_1
100
AcDbLine
 62
7
  6
CONTINUOUS
 10
8.6504812466
 20
61.5373381295
 11
8.1017149916
 21
61.5373381295
  0
LINE
  5
2E1
100
AcDbEntity
  8
_1
100
AcDbLine
 62
7
  6
CONTINUOUS
 10
63.7017149916
 20
62.0373381295
 11
63.1398557262
 21
62.037328571
  0
LINE
  5
2E2
100
AcDbEntity
  8
_1
100
AcDbLine
 62
7
  6
CONTINUOUS
 10
8.6635742571
 20
62.0373285711
 11
8.1017149916
 21
62.0373381295
  0
LINE
  5
2E3
100
AcDbEntity
  8
_1
100
AcDbLine
 62
7
  6
CONTINUOUS
 10
50.6316303799
 20
19.4875997605
 11
50.6316303799
 21
18.3527908149
  0
LINE
  5
2E4
100
AcDbEntity
  8
_1
100
AcDbLine
 62
7
  6
CONTINUOUS
 10
51.100137645
 20
18.3270363154
 11
51.100137645
 21
19.4875997605
  0
LINE
  5
2E5
100
AcDbEntity
  8
_1
100
AcDbLine
 62
7
  6
CONTINUOUS
 10
52.1081374447
 20
19.4875997605
 11
52.1081374447
 21
18.3173783602
  0
LINE
  5
2E6
100
AcDbEntity
  8
_1
100
AcDbLine
 62
7
  6
CONTINUOUS
 10
52.5766444294
 20
18.3527908149
 11
52.5766444294
 21
19.4875997605
  0
LINE
  5
2E7
100
AcDbEntity
  8
_1
100
AcDbLine
 62
7
  6
CONTINUOUS
 10
53.0893205559
 20
19.431261641
 11
53.0893205559
 21
17.6107385399
  0
LINE
  5
2E8
100
AcDbEntity
  8
_1
100
AcDbLine
 62
7
  6
CONTINUOUS
 10
36.8111947677
 20
25.5674072118
 11
36.066078377
 21
24.5032707236
  0
LINE
  5
2E9
100
AcDbEntity
  8
_1
100
AcDbLine
 62
7
  6
CONTINUOUS
 10
53.1803211868
 20
53.4466402165
 11
51.7017149916
 21
54.6873381295
  0
LINE
  5
2EA
100
AcDbEntity
  8
_1
100
AcDbLine
 62
7
  6
CONTINUOUS
 10
52.0231087965
 20
55.0703603511
 11
53.5017149916
 21
53.829662438
  0
LINE
  5
2EB
100
AcDbEntity
  8
_1
100
AcDbLine
 62
7
  6
CONTINUOUS
 10
53.5017149916
 20
54.429662438
 11
53.5017149916
 21
53.829662438
  0
LINE
  5
2EC
100
AcDbEntity
  8
_1
100
AcDbLine
 62
7
  6
CONTINUOUS
 10
53.5278560135
 20
17.6107385399
 11
53.5278560135
 21
18.9934347214
  0
LINE
  5
2ED
100
AcDbEntity
  8
_1
100
AcDbLine
 62
7
  6
CONTINUOUS
 10
54.0017149916
 20
53.829662438
 11
54.0017149916
 21
54.429662438
  0
LINE
  5
2EE
100
AcDbEntity
  8
_1
100
AcDbLine
 62
7
  6
CONTINUOUS
 10
54.2017149916
 20
52.5895890516
 11
54.2017149916
 21
49.6873381295
  0
LINE
  5
2EF
100
AcDbEntity
  8
_1
100
AcDbLine
 62
7
  6
CONTINUOUS
 10
54.4017149916
 20
60.4264135821
 11
54.4017149916
 21
77.4264135821
  0
LINE
  5
2F0
100
AcDbEntity
  8
_1
100
AcDbLine
 62
7
  6
CONTINUOUS
 10
54.5942222893
 20
19.5036963048
 11
54.5942222893
 21
18.1000745835
  0
LINE
  5
2F1
100
AcDbEntity
  8
_1
100
AcDbLine
 62
7
  6
CONTINUOUS
 10
54.7017149916
 20
49.6873381295
 11
54.7017149916
 21
52.5895890516
  0
LINE
  5
2F2
100
AcDbEntity
  8
_1
100
AcDbLine
 62
7
  6
CONTINUOUS
 10
55.0248700897
 20
17.6477606643
 11
55.0248700897
 21
19.5036963048
  0
LINE
  5
2F3
100
AcDbEntity
  8
_1
100
AcDbLine
 62
7
  6
CONTINUOUS
 10
45.3881231745
 20
34.701090203
 11
46.2179232901
 21
35.2821224992
  0
LINE
  5
2F4
100
AcDbEntity
  8
_1
100
AcDbLine
 62
7
  6
CONTINUOUS
 10
46.6802044664
 20
35.1175054281
 11
45.6164302789
 21
34.372642723
  0
LINE
  5
2F5
100
AcDbEntity
  8
_1
100
AcDbLine
 62
7
  6
CONTINUOUS
 10
56.7017149916
 20
15.3873381295
 11
56.7017149916
 21
22.1873381295
  0
LINE
  5
2F6
100
AcDbEntity
  8
_1
100
AcDbLine
 62
7
  6
CONTINUOUS
 10
56.7017149916
 20
48.5873381295
 11
56.7017149916
 21
55.3873381295
  0
LINE
  5
2F7
100
AcDbEntity
  8
_1
100
AcDbLine
 62
7
  6
CONTINUOUS
 10
58.4017149228
 20
7.4642007094
 11
58.401714991
 21
7.0873381295
  0
LINE
  5
2F8
100
AcDbEntity
  8
_1
100
AcDbLine
 62
7
  6
CONTINUOUS
 10
58.4017149916
 20
90.9873381295
 11
58.4017149916
 21
90.6104756009
  0
LINE
  5
2F9
100
AcDbEntity
  8
_1
100
AcDbLine
 62
7
  6
CONTINUOUS
 10
61.5517149916
 20
86.1373381295
 11
61.5517149916
 21
11.9373381295
  0
LINE
  5
2FA
100
AcDbEntity
  8
_1
100
AcDbLine
 62
7
  6
CONTINUOUS
 10
61.7517149916
 20
86.337338118
 11
61.7517149916
 21
11.7373381311
  0
LINE
  5
2FB
100
AcDbEntity
  8
_1
100
AcDbLine
 62
7
  6
CONTINUOUS
 10
61.9386965005
 20
11.7373381312
 11
61.9386965005
 21
86.3373381088
  0
LINE
  5
2FC
100
AcDbEntity
  8
_1
100
AcDbLine
 62
7
  6
CONTINUOUS
 10
62.8043164996
 20
12.0873381328
 11
62.8043164996
 21
85.9873381249
  0
LINE
  5
2FD
100
AcDbEntity
  8
_1
100
AcDbLine
 62
7
  6
CONTINUOUS
 10
63.0176992653
 20
12.0873381293
 11
63.0176992653
 21
85.9873381277
  0
LINE
  5
2FE
100
AcDbEntity
  8
_1
100
AcDbLine
 62
7
  6
CONTINUOUS
 10
63.1398557759
 20
62.0373319198
 11
63.1398557759
 21
76.0373443393
  0
LINE
  5
2FF
100
AcDbEntity
  8
_1
100
AcDbLine
 62
7
  6
CONTINUOUS
 10
8.1017149916
 20
76.0373381295
 11
8.6635742571
 21
76.037347688
  0
LINE
  5
300
100
AcDbEntity
  8
_1
100
AcDbLine
 62
7
  6
CONTINUOUS
 10
63.1398557262
 20
76.0373476881
 11
63.7017149916
 21
76.0373381295
  0
LINE
  5
301
100
AcDbEntity
  8
_1
100
AcDbLine
 62
7
  6
CONTINUOUS
 10
8.6504812466
 20
76.5373381295
 11
8.1017149916
 21
76.5373381295
  0
LINE
  5
302
100
AcDbEntity
  8
_1
100
AcDbLine
 62
7
  6
CONTINUOUS
 10
63.1529487367
 20
76.5373381295
 11
63.7017149916
 21
76.5373381295
  0
LINE
  5
303
100
AcDbEntity
  8
_1
100
AcDbLine
 62
7
  6
CONTINUOUS
 10
63.4017149916
 20
85.9873381295
 11
63.4017149916
 21
76.5373381295
  0
LINE
  5
304
100
AcDbEntity
  8
_1
100
AcDbLine
 62
7
  6
CONTINUOUS
 10
63.4017149916
 20
61.5373381295
 11
63.4017149916
 21
12.0873381295
  0
LINE
  5
305
100
AcDbEntity
  8
_1
100
AcDbLine
 62
7
  6
CONTINUOUS
 10
63.7017149916
 20
61.5373381295
 11
63.7017149916
 21
76.5373243773
  0
LINE
  5
306
100
AcDbEntity
  8
_1
100
AcDbLine
 62
7
  6
CONTINUOUS
 10
53.4017149916
 20
78.4264135821
 11
18.4017149916
 21
78.4264135821
  0
LINE
  5
307
100
AcDbEntity
  8
_1
100
AcDbLine
 62
7
  6
CONTINUOUS
 10
36.4166604316
 20
81.3270221734
 11
36.6175778716
 21
81.3270221734
  0
LINE
  5
308
100
AcDbEntity
  8
_1
100
AcDbLine
 62
7
  6
CONTINUOUS
 10
41.1586963287
 20
81.3270222798
 11
41.3587461333
 21
81.3270222798
  0
LINE
  5
309
100
AcDbEntity
  8
_1
100
AcDbLine
 62
7
  6
CONTINUOUS
 10
42.4310529916
 20
81.3270221734
 11
42.6314743516
 21
81.3270221734
  0
LINE
  5
30A
100
AcDbEntity
  8
_1
100
AcDbLine
 62
7
  6
CONTINUOUS
 10
35.0080020316
 20
81.3278904934
 11
35.9017149916
 21
81.3278904934
  0
LINE
  5
30B
100
AcDbEntity
  8
_1
100
AcDbLine
 62
7
  6
CONTINUOUS
 10
32.6888877349
 20
81.4211560689
 11
32.1565791412
 21
81.4211560689
  0
LINE
  5
30C
100
AcDbEntity
  8
_1
100
AcDbLine
 62
7
  6
CONTINUOUS
 10
35.9017149916
 20
81.5271958534
 11
35.2272751516
 21
81.5271958534
  0
LINE
  5
30D
100
AcDbEntity
  8
_1
100
AcDbLine
 62
7
  6
CONTINUOUS
 10
32.2487285552
 20
81.7717703267
 11
32.590537149
 21
81.7717703267
  0
LINE
  5
30E
100
AcDbEntity
  8
_1
100
AcDbLine
 62
7
  6
CONTINUOUS
 10
34.0982900787
 20
81.7825603657
 11
33.6696650787
 21
81.7825603657
  0
LINE
  5
30F
100
AcDbEntity
  8
_1
100
AcDbLine
 62
7
  6
CONTINUOUS
 10
37.3325732817
 20
81.8063728658
 11
38.0469482817
 21
81.8063728658
  0
LINE
  5
310
100
AcDbEntity
  8
_1
100
AcDbLine
 62
7
  6
CONTINUOUS
 10
37.8471465239
 20
81.9399461079
 11
37.3364180083
 21
81.9399461079
  0
LINE
  5
311
100
AcDbEntity
  8
_1
100
AcDbLine
 62
7
  6
CONTINUOUS
 10
32.2959814849
 20
81.9760369282
 11
31.8316377349
 21
81.9760369282
  0
LINE
  5
312
100
AcDbEntity
  8
_1
100
AcDbLine
 62
7
  6
CONTINUOUS
 10
33.7350254302
 20
82.0029500142
 11
34.2357080474
 21
82.0029500142
  0
LINE
  5
313
100
AcDbEntity
  8
_1
100
AcDbLine
 62
7
  6
CONTINUOUS
 10
35.2272751516
 20
82.0067950534
 11
35.8590506716
 21
82.0067950534
  0
LINE
  5
314
100
AcDbEntity
  8
_1
100
AcDbLine
 62
7
  6
CONTINUOUS
 10
39.8932851958
 20
82.1643045064
 11
40.0703906646
 21
82.1643045064
  0
LINE
  5
315
100
AcDbEntity
  8
_1
100
AcDbLine
 62
7
  6
CONTINUOUS
 10
40.2704404693
 20
82.1643045064
 11
40.5922812896
 21
82.1643045064
  0
LINE
  5
316
100
AcDbEntity
  8
_1
100
AcDbLine
 62
7
  6
CONTINUOUS
 10
31.8992305083
 20
82.1972947408
 11
32.3716357818
 21
82.1972947408
  0
LINE
  5
317
100
AcDbEntity
  8
_1
100
AcDbLine
 62
7
  6
CONTINUOUS
 10
35.8590506716
 20
82.2064726534
 11
35.2272751516
 21
82.2064726534
  0
LINE
  5
318
100
AcDbEntity
  8
_1
100
AcDbLine
 62
7
  6
CONTINUOUS
 10
34.3325703521
 20
82.212673647
 11
33.7848828521
 21
82.212673647
  0
LINE
  5
319
100
AcDbEntity
  8
_1
100
AcDbLine
 62
7
  6
CONTINUOUS
 10
42.6314743516
 20
82.3447587334
 11
42.4310529916
 21
82.3447587334
  0
LINE
  5
31A
100
AcDbEntity
  8
_1
100
AcDbLine
 62
7
  6
CONTINUOUS
 10
41.3587461333
 20
82.344758608
 11
41.1586963287
 21
82.344758608
  0
LINE
  5
31B
100
AcDbEntity
  8
_1
100
AcDbLine
 62
7
  6
CONTINUOUS
 10
40.5922812896
 20
82.344758608
 11
40.2704404693
 21
82.344758608
  0
LINE
  5
31C
100
AcDbEntity
  8
_1
100
AcDbLine
 62
7
  6
CONTINUOUS
 10
32.3985488677
 20
82.4062742329
 11
32.0003096099
 21
82.4062742329
  0
LINE
  5
31D
100
AcDbEntity
  8
_1
100
AcDbLine
 62
7
  6
CONTINUOUS
 10
33.8459023833
 20
82.4334353658
 11
34.4001631256
 21
82.4334353658
  0
LINE
  5
31E
100
AcDbEntity
  8
_1
100
AcDbLine
 62
7
  6
CONTINUOUS
 10
32.1428125396
 20
82.627408022
 11
32.4760635162
 21
82.627408022
  0
LINE
  5
31F
100
AcDbEntity
  8
_1
100
AcDbLine
 62
7
  6
CONTINUOUS
 10
33.9915058989
 20
82.6281521626
 11
33.6619756255
 21
82.6281521626
  0
LINE
  5
320
100
AcDbEntity
  8
_1
100
AcDbLine
 62
7
  6
CONTINUOUS
 10
35.2272751516
 20
82.6715602534
 11
35.8821194716
 21
82.6715602534
  0
LINE
  5
321
100
AcDbEntity
  8
_1
100
AcDbLine
 62
7
  6
CONTINUOUS
 10
36.6175778716
 20
82.8708663334
 11
36.4166604316
 21
82.8708663334
  0
LINE
  5
322
100
AcDbEntity
  8
_1
100
AcDbLine
 62
7
  6
CONTINUOUS
 10
35.8821194716
 20
82.8708663334
 11
35.0080020316
 21
82.8708663334
  0
LINE
  5
323
100
AcDbEntity
  8
_1
100
AcDbLine
 62
7
  6
CONTINUOUS
 10
33.5160000396
 20
82.950861147
 11
34.0614551177
 21
82.950861147
  0
LINE
  5
324
100
AcDbEntity
  8
_1
100
AcDbLine
 62
7
  6
CONTINUOUS
 10
37.8828655516
 20
83.1819171334
 11
38.4463037116
 21
83.1819171334
  0
LINE
  5
325
100
AcDbEntity
  8
_1
100
AcDbLine
 62
7
  6
CONTINUOUS
 10
40.0123476959
 20
83.1827849751
 11
40.5757861724
 21
83.1827849751
  0
LINE
  5
326
100
AcDbEntity
  8
_1
100
AcDbLine
 62
7
  6
CONTINUOUS
 10
42.9633613677
 20
83.1846453267
 11
43.5270478911
 21
83.1846453267
  0
LINE
  5
327
100
AcDbEntity
  8
_1
100
AcDbLine
 62
7
  6
CONTINUOUS
 10
35.0076299224
 20
83.1866297017
 11
35.5705723052
 21
83.1866297017
  0
LINE
  5
328
100
AcDbEntity
  8
_1
100
AcDbLine
 62
7
  6
CONTINUOUS
 10
31.7087305084
 20
83.1873738423
 11
32.2721689849
 21
83.1873738423
  0
LINE
  5
329
100
AcDbEntity
  8
_1
100
AcDbLine
 62
7
  6
CONTINUOUS
 10
36.3774687896
 20
83.9831082173
 11
37.6652041411
 21
83.9831082173
  0
LINE
  5
32A
100
AcDbEntity
  8
_1
100
AcDbLine
 62
7
  6
CONTINUOUS
 10
41.397193399
 20
83.9831082173
 11
42.6844326568
 21
83.9831082173
  0
LINE
  5
32B
100
AcDbEntity
  8
_1
100
AcDbLine
 62
7
  6
CONTINUOUS
 10
42.1883389067
 20
84.280392397
 11
41.4087275787
 21
84.280392397
  0
LINE
  5
32C
100
AcDbEntity
  8
_1
100
AcDbLine
 62
7
  6
CONTINUOUS
 10
37.1674980864
 20
84.280392397
 11
36.3893750396
 21
84.280392397
  0
LINE
  5
32D
100
AcDbEntity
  8
_1
100
AcDbLine
 62
7
  6
CONTINUOUS
 10
38.4463037116
 20
84.9766596934
 11
37.8828655516
 21
84.9766596934
  0
LINE
  5
32E
100
AcDbEntity
  8
_1
100
AcDbLine
 62
7
  6
CONTINUOUS
 10
34.3333144927
 20
84.9766599751
 11
33.7698760161
 21
84.9766599751
  0
LINE
  5
32F
100
AcDbEntity
  8
_1
100
AcDbLine
 62
7
  6
CONTINUOUS
 10
43.5270478911
 20
84.9785203267
 11
42.9633613677
 21
84.9785203267
  0
LINE
  5
330
100
AcDbEntity
  8
_1
100
AcDbLine
 62
7
  6
CONTINUOUS
 10
40.5757861724
 20
85.8330418111
 11
40.0123476959
 21
85.8330418111
  0
LINE
  5
331
100
AcDbEntity
  8
_1
100
AcDbLine
 62
7
  6
CONTINUOUS
 10
32.2721689849
 20
85.8330418111
 11
31.7087305084
 21
85.8330418111
  0
LINE
  5
332
100
AcDbEntity
  8
_1
100
AcDbLine
 62
7
  6
CONTINUOUS
 10
8.4017149916
 20
85.9873381294
 11
8.9991134837
 21
85.9873381266
  0
LINE
  5
333
100
AcDbEntity
  8
_1
100
AcDbLine
 62
7
  6
CONTINUOUS
 10
62.8043164996
 20
85.9873381255
 11
63.4017149916
 21
85.9873381288
  0
LINE
  5
334
100
AcDbEntity
  8
_1
100
AcDbLine
 62
7
  6
CONTINUOUS
 10
9.8647334828
 20
86.3373381278
 11
10.0517149916
 21
86.3373381278
  0
LINE
  5
335
100
AcDbEntity
  8
_1
100
AcDbLine
 62
7
  6
CONTINUOUS
 10
61.7517149916
 20
86.3373381088
 11
61.9386965005
 21
86.3373381088
  0
LINE
  5
336
100
AcDbEntity
  8
_1
100
AcDbLine
 62
7
  6
CONTINUOUS
 10
13.2517149916
 20
89.1373381295
 11
58.5517149916
 21
89.1373381295
  0
LINE
  5
337
100
AcDbEntity
  8
_1
100
AcDbLine
 62
7
  6
CONTINUOUS
 10
58.7516934692
 20
89.3373381295
 11
13.0517364255
 21
89.3373381295
  0
LINE
  5
338
100
AcDbEntity
  8
_1
100
AcDbLine
 62
7
  6
CONTINUOUS
 10
58.7402957034
 20
89.5373381295
 11
13.0631342835
 21
89.5373381295
  0
LINE
  5
339
100
AcDbEntity
  8
_1
100
AcDbLine
 62
7
  6
CONTINUOUS
 10
28.9017054332
 20
90.7385718248
 11
42.9017245502
 21
90.7385718248
  0
LINE
  5
33A
100
AcDbEntity
  8
_1
100
AcDbLine
 62
7
  6
CONTINUOUS
 10
13.4017149916
 20
90.9873381295
 11
28.4017149916
 21
90.9873381295
  0
LINE
  5
33B
100
AcDbEntity
  8
_1
100
AcDbLine
 62
7
  6
CONTINUOUS
 10
43.4017149916
 20
90.9873381295
 11
58.4017149916
 21
90.9873381295
  0
LINE
  5
33C
100
AcDbEntity
  8
_1
100
AcDbLine
 62
7
  6
CONTINUOUS
 10
28.4017149916
 20
91.2873381295
 11
43.4017012395
 21
91.2873381295
  0
ARC
  5
33D
100
AcDbEntity
  8
_1
100
AcDbCircle
 62
7
  6
CONTINUOUS
 10
35.9017148754
 20
-15180.6726876573
 40
15271.2997345008
100
AcDbArc
 50
89.9155831493
 51
90.08441685
  0
ARC
  5
33E
100
AcDbEntity
  8
_1
100
AcDbCircle
 62
7
  6
CONTINUOUS
 10
35.9017148742
 20
-15165.8290967589
 40
15256.2562159224
100
AcDbArc
 50
89.9155421069
 51
90.0844578922
  0
ARC
  5
33F
100
AcDbEntity
  8
_1
100
AcDbCircle
 62
7
  6
CONTINUOUS
 10
18.822231332
 20
46.7108573972
 40
5.2416413682
100
AcDbArc
 50
75.8713486486
 51
77.1816695294
  0
ARC
  5
340
100
AcDbEntity
  8
_1
100
AcDbCircle
 62
7
  6
CONTINUOUS
 10
13.4017149916
 20
12.0873381295
 40
5.0
100
AcDbArc
 50
180.0
 51
270.0
  0
ARC
  5
341
100
AcDbEntity
  8
_1
100
AcDbCircle
 62
7
  6
CONTINUOUS
 10
13.4091771501
 20
12.0872831583
 40
4.6234464325
100
AcDbArc
 50
179.9993187583
 51
226.8600295724
  0
ARC
  5
342
100
AcDbEntity
  8
_1
100
AcDbCircle
 62
7
  6
CONTINUOUS
 10
13.4082871903
 20
12.0863608987
 40
4.6221649337
100
AcDbArc
 50
226.8602621843
 51
269.9185318185
  0
CIRCLE
  5
343
100
AcDbEntity
  8
_1
100
AcDbCircle
 62
7
  6
CONTINUOUS
 10
20.1017149916
 20
18.7873381295
 40
4.0
  0
ARC
  5
344
100
AcDbEntity
  8
_1
100
AcDbCircle
 62
7
  6
CONTINUOUS
 10
13.2517149916
 20
11.9373381295
 40
3.0
100
AcDbArc
 50
180.0
 51
270.0
  0
ARC
  5
345
100
AcDbEntity
  8
_1
100
AcDbCircle
 62
7
  6
CONTINUOUS
 10
13.0517149916
 20
11.7373381295
 40
3.0
100
AcDbArc
 50
179.9999998848
 51
270.0
  0
ARC
  5
346
100
AcDbEntity
  8
_1
100
AcDbCircle
 62
7
  6
CONTINUOUS
 10
20.5847261603
 20
19.3480430336
 40
1.8871016598
100
AcDbArc
 50
255.1698799429
 51
257.1585739328
  0
ARC
  5
347
100
AcDbEntity
  8
_1
100
AcDbCircle
 62
7
  6
CONTINUOUS
 10
16.7017149916
 20
48.5873381295
 40
1.6
100
AcDbArc
 50
180.0
 51
270.0
  0
ARC
  5
348
100
AcDbEntity
  8
_1
100
AcDbCircle
 62
7
  6
CONTINUOUS
 10
23.5017149916
 20
48.5873381295
 40
1.6
100
AcDbArc
 50
270.0
 51
360.0
  0
ARC
  5
349
100
AcDbEntity
  8
_1
100
AcDbCircle
 62
7
  6
CONTINUOUS
 10
16.7017149916
 20
22.1873381295
 40
1.6
100
AcDbArc
 50
90.0
 51
180.0
  0
ARC
  5
34A
100
AcDbEntity
  8
_1
100
AcDbCircle
 62
7
  6
CONTINUOUS
 10
16.7017149916
 20
15.3873381295
 40
1.6
100
AcDbArc
 50
180.0
 51
270.0
  0
ARC
  5
34B
100
AcDbEntity
  8
_1
100
AcDbCircle
 62
7
  6
CONTINUOUS
 10
23.5017149916
 20
15.3873381295
 40
1.6
100
AcDbArc
 50
270.0
 51
360.0
  0
ARC
  5
34C
100
AcDbEntity
  8
_1
100
AcDbCircle
 62
7
  6
CONTINUOUS
 10
23.5017149916
 20
22.1873381295
 40
1.6
100
AcDbArc
 50
0.0
 51
90.0
  0
ARC
  5
34D
100
AcDbEntity
  8
_1
100
AcDbCircle
 62
7
  6
CONTINUOUS
 10
20.6089238908
 20
19.8141682099
 40
0.6280967765
100
AcDbArc
 50
216.1443992783
 51
221.8644641845
  0
ARC
  5
34E
100
AcDbEntity
  8
_1
100
AcDbCircle
 62
7
  6
CONTINUOUS
 10
20.5972996673
 20
20.0823363266
 40
0.6161802774
100
AcDbArc
 50
137.0269557999
 51
143.5412791965
  0
ARC
  5
34F
100
AcDbEntity
  8
_1
100
AcDbCircle
 62
7
  6
CONTINUOUS
 10
20.2319182516
 20
18.1810192607
 40
0.3940477529
100
AcDbArc
 50
250.7054101775
 51
253.3888255171
  0
ARC
  5
350
100
AcDbEntity
  8
_1
100
AcDbCircle
 62
7
  6
CONTINUOUS
 10
17.9566033344
 20
17.0389717408
 40
0.2225247411
100
AcDbArc
 50
213.6436071867
 51
235.4190733657
  0
ARC
  5
351
100
AcDbEntity
  8
_1
100
AcDbCircle
 62
7
  6
CONTINUOUS
 10
35.1560656244
 20
44.8821224992
 40
0.2
100
AcDbArc
 50
144.9999999833
 51
324.9999999997
  0
ARC
  5
352
100
AcDbEntity
  8
_1
100
AcDbCircle
 62
7
  6
CONTINUOUS
 10
26.3017149916
 20
34.5364731319
 40
0.2
100
AcDbArc
 50
234.9999999935
 51
55.0000000011
  0
ARC
  5
353
100
AcDbEntity
  8
_1
100
AcDbCircle
 62
7
  6
CONTINUOUS
 10
26.3017149916
 20
36.0277718664
 40
0.2
100
AcDbArc
 50
304.9999999995
 51
124.9999999903
  0
ARC
  5
354
100
AcDbEntity
  8
_1
100
AcDbCircle
 62
7
  6
CONTINUOUS
 10
25.2368173341
 20
35.2821224992
 40
0.2
100
AcDbArc
 50
125.0000000072
 51
235.2718581178
  0
ARC
  5
355
100
AcDbEntity
  8
_1
100
AcDbCircle
 62
7
  6
CONTINUOUS
 10
35.1560656244
 20
25.6821224992
 40
0.2
100
AcDbArc
 50
34.9999999986
 51
215.0000000002
  0
ARC
  5
356
100
AcDbEntity
  8
_1
100
AcDbCircle
 62
7
  6
CONTINUOUS
 10
22.1591824753
 20
60.5289529895
 40
8.5188720728
100
AcDbArc
 50
256.0238053315
 51
256.33158768
  0
ARC
  5
357
100
AcDbEntity
  8
_1
100
AcDbCircle
 62
7
  6
CONTINUOUS
 10
13.4017149916
 20
85.9873381295
 40
5.0
100
AcDbArc
 50
90.0
 51
180.0
  0
ARC
  5
358
100
AcDbEntity
  8
_1
100
AcDbCircle
 62
7
  6
CONTINUOUS
 10
13.4091771465
 20
85.9873931054
 40
4.6234464288
100
AcDbArc
 50
133.1425076257
 51
180.0006812852
  0
ARC
  5
359
100
AcDbEntity
  8
_1
100
AcDbCircle
 62
7
  6
CONTINUOUS
 10
13.4082868769
 20
85.9883158794
 40
4.6221643422
100
AcDbArc
 50
90.0814638918
 51
133.1422772758
  0
CIRCLE
  5
35A
100
AcDbEntity
  8
_1
100
AcDbCircle
 62
7
  6
CONTINUOUS
 10
20.1017149916
 20
51.9873381295
 40
4.0
  0
ARC
  5
35B
100
AcDbEntity
  8
_1
100
AcDbCircle
 62
7
  6
CONTINUOUS
 10
13.2517149916
 20
86.1373381295
 40
3.0
100
AcDbArc
 50
90.0
 51
180.0
  0
ARC
  5
35C
100
AcDbEntity
  8
_1
100
AcDbCircle
 62
7
  6
CONTINUOUS
 10
13.0517149916
 20
86.3373381295
 40
3.0
100
AcDbArc
 50
90.0
 51
180.0000000208
  0
ARC
  5
35D
100
AcDbEntity
  8
_1
100
AcDbCircle
 62
7
  6
CONTINUOUS
 10
20.0841408538
 20
52.4935242989
 40
1.7981043466
100
AcDbArc
 50
269.9823633648
 51
270.5599813435
  0
ARC
  5
35E
100
AcDbEntity
  8
_1
100
AcDbCircle
 62
7
  6
CONTINUOUS
 10
20.0775119352
 20
51.5713665705
 40
1.6659715607
100
AcDbArc
 50
89.1675837672
 51
90.0026088968
  0
ARC
  5
35F
100
AcDbEntity
  8
_1
100
AcDbCircle
 62
7
  6
CONTINUOUS
 10
16.7017149916
 20
55.3873381295
 40
1.6
100
AcDbArc
 50
90.0
 51
180.0
  0
ARC
  5
360
100
AcDbEntity
  8
_1
100
AcDbCircle
 62
7
  6
CONTINUOUS
 10
23.5017149916
 20
55.3873381295
 40
1.6
100
AcDbArc
 50
0.0
 51
90.0
  0
ARC
  5
361
100
AcDbEntity
  8
_1
100
AcDbCircle
 62
7
  6
CONTINUOUS
 10
18.4017149916
 20
77.4264135821
 40
1.0
100
AcDbArc
 50
90.0
 51
180.0
  0
ARC
  5
362
100
AcDbEntity
  8
_1
100
AcDbCircle
 62
7
  6
CONTINUOUS
 10
18.4017149916
 20
60.4264135821
 40
1.0
100
AcDbArc
 50
180.0
 51
270.0
  0
ARC
  5
363
100
AcDbEntity
  8
_1
100
AcDbCircle
 62
7
  6
CONTINUOUS
 10
20.0449957874
 20
51.9416688482
 40
0.9418805918
100
AcDbArc
 50
86.5476197501
 51
90.0667953804
  0
ARC
  5
364
100
AcDbEntity
  8
_1
100
AcDbCircle
 62
7
  6
CONTINUOUS
 10
20.0709476723
 20
51.9940924653
 40
0.9331460301
100
AcDbArc
 50
269.9865597109
 51
271.8894776482
  0
ARC
  5
365
100
AcDbEntity
  8
_1
100
AcDbCircle
 62
7
  6
CONTINUOUS
 10
34.4200673649
 20
52.3226479971
 40
0.2
100
AcDbArc
 50
274.999999999
 51
94.9999999995
  0
ARC
  5
366
100
AcDbEntity
  8
_1
100
AcDbCircle
 62
7
  6
CONTINUOUS
 10
27.6605340367
 20
51.0756958201
 40
0.2
100
AcDbArc
 50
344.9999999989
 51
164.9999999974
  0
ARC
  5
367
100
AcDbEntity
  8
_1
100
AcDbCircle
 62
7
  6
CONTINUOUS
 10
27.4017149916
 20
50.1097699938
 40
0.2
100
AcDbArc
 50
164.9999999953
 51
255.0000000043
  0
ARC
  5
368
100
AcDbEntity
  8
_1
100
AcDbCircle
 62
7
  6
CONTINUOUS
 10
28.3864123264
 20
49.8459211382
 40
0.2
100
AcDbArc
 50
254.9999999989
 51
74.999999984
  0
ARC
  5
369
100
AcDbEntity
  8
_1
100
AcDbCircle
 62
7
  6
CONTINUOUS
 10
36.6473643589
 20
25.6821224992
 40
0.2
100
AcDbArc
 50
324.999999983
 51
144.9999999997
  0
ARC
  5
36A
100
AcDbEntity
  8
_1
100
AcDbCircle
 62
7
  6
CONTINUOUS
 10
35.9017149916
 20
24.6172248416
 40
0.2
100
AcDbArc
 50
215.0000000019
 51
325.2661989004
  0
ARC
  5
36B
100
AcDbEntity
  8
_1
100
AcDbCircle
 62
7
  6
CONTINUOUS
 10
35.9017149916
 20
35.3873381295
 40
17.2
100
AcDbArc
 50
95.0
 51
118.4133434714
  0
ARC
  5
36C
100
AcDbEntity
  8
_1
100
AcDbCircle
 62
7
  6
CONTINUOUS
 10
35.9017149916
 20
35.3873381295
 40
17.2
100
AcDbArc
 50
61.5866565286
 51
85.0
  0
ARC
  5
36D
100
AcDbEntity
  8
_1
100
AcDbCircle
 62
7
  6
CONTINUOUS
 10
35.9017149916
 20
35.3873381295
 40
16.8
100
AcDbArc
 50
95.0
 51
118.3286709824
  0
ARC
  5
36E
100
AcDbEntity
  8
_1
100
AcDbCircle
 62
7
  6
CONTINUOUS
 10
35.9017149916
 20
35.3873381295
 40
16.8
100
AcDbArc
 50
61.6713290176
 51
85.0
  0
CIRCLE
  5
36F
100
AcDbEntity
  8
_1
100
AcDbCircle
 62
7
  6
CONTINUOUS
 10
35.9017149916
 20
35.3873381295
 40
14.5
  0
CIRCLE
  5
370
100
AcDbEntity
  8
_1
100
AcDbCircle
 62
7
  6
CONTINUOUS
 10
35.9017149916
 20
35.3873381295
 40
13.5009008115
  0
ARC
  5
371
100
AcDbEntity
  8
_1
100
AcDbCircle
 62
7
  6
CONTINUOUS
 10
44.4012200436
 20
38.266409509
 40
7.8921823899
100
AcDbArc
 50
210.235989974
 51
211.3716824315
  0
CIRCLE
  5
372
100
AcDbEntity
  8
_1
100
AcDbCircle
 62
7
  6
CONTINUOUS
 10
35.9017149916
 20
35.3873381295
 40
4.0
  0
ARC
  5
373
100
AcDbEntity
  8
_1
100
AcDbCircle
 62
7
  6
CONTINUOUS
 10
36.6473643589
 20
44.8821224992
 40
0.2
100
AcDbArc
 50
214.9999999986
 51
35.0000000002
  0
ARC
  5
374
100
AcDbEntity
  8
_1
100
AcDbCircle
 62
7
  6
CONTINUOUS
 10
35.9017149916
 20
45.9470201567
 40
0.2
100
AcDbArc
 50
35.0000000019
 51
145.2661989004
  0
ARC
  5
375
100
AcDbEntity
  8
_1
100
AcDbCircle
 62
7
  6
CONTINUOUS
 10
45.5017149916
 20
36.0277718664
 40
0.2
100
AcDbArc
 50
54.9999999935
 51
235.0000000011
  0
ARC
  5
376
100
AcDbEntity
  8
_1
100
AcDbCircle
 62
7
  6
CONTINUOUS
 10
45.5017149916
 20
34.5364731319
 40
0.2
100
AcDbArc
 50
124.9999999965
 51
304.9999999903
  0
ARC
  5
377
100
AcDbEntity
  8
_1
100
AcDbCircle
 62
7
  6
CONTINUOUS
 10
46.5666126492
 20
35.2821224992
 40
0.2
100
AcDbArc
 50
305.0000000036
 51
55.3929007337
  0
ARC
  5
378
100
AcDbEntity
  8
_1
100
AcDbCircle
 62
7
  6
CONTINUOUS
 10
48.3017149916
 20
15.3873381295
 40
1.6
100
AcDbArc
 50
180.0
 51
270.0
  0
ARC
  5
379
100
AcDbEntity
  8
_1
100
AcDbCircle
 62
7
  6
CONTINUOUS
 10
48.3017149916
 20
22.1873381295
 40
1.6
100
AcDbArc
 50
90.0
 51
180.0
  0
CIRCLE
  5
37A
100
AcDbEntity
  8
_1
100
AcDbCircle
 62
7
  6
CONTINUOUS
 10
51.7017149916
 20
18.7873381295
 40
4.0
  0
ARC
  5
37B
100
AcDbEntity
  8
_1
100
AcDbCircle
 62
7
  6
CONTINUOUS
 10
51.7017149916
 20
18.7873381295
 40
3.5832945734
100
AcDbArc
 50
198.4051793114
 51
203.303481303
  0
ARC
  5
37C
100
AcDbEntity
  8
_1
100
AcDbCircle
 62
7
  6
CONTINUOUS
 10
58.4017149916
 20
12.0873381295
 40
5.0
100
AcDbArc
 50
270.0
 51
360.0
  0
ARC
  5
37D
100
AcDbEntity
  8
_1
100
AcDbCircle
 62
7
  6
CONTINUOUS
 10
58.3942528368
 20
12.0872831536
 40
4.6234464288
100
AcDbArc
 50
313.1425077864
 51
0.0006812852
  0
ARC
  5
37E
100
AcDbEntity
  8
_1
100
AcDbCircle
 62
7
  6
CONTINUOUS
 10
58.3951431064
 20
12.0863603796
 40
4.6221643422
100
AcDbArc
 50
270.0814638918
 51
313.1422774365
  0
ARC
  5
37F
100
AcDbEntity
  8
_1
100
AcDbCircle
 62
7
  6
CONTINUOUS
 10
58.5517149916
 20
11.9373381295
 40
3.0
100
AcDbArc
 50
270.0
 51
360.0
  0
ARC
  5
380
100
AcDbEntity
  8
_1
100
AcDbCircle
 62
7
  6
CONTINUOUS
 10
58.7517149916
 20
11.7373381295
 40
3.0
100
AcDbArc
 50
270.0
 51
360.0
  0
ARC
  5
381
100
AcDbEntity
  8
_1
100
AcDbCircle
 62
7
  6
CONTINUOUS
 10
55.1017149916
 20
15.3873381295
 40
1.6
100
AcDbArc
 50
270.0
 51
360.0
  0
ARC
  5
382
100
AcDbEntity
  8
_1
100
AcDbCircle
 62
7
  6
CONTINUOUS
 10
57.1873454559
 20
19.4333451385
 40
3.320498956
100
AcDbArc
 50
213.1253027353
 51
215.4449192594
  0
ARC
  5
383
100
AcDbEntity
  8
_1
100
AcDbCircle
 62
7
  6
CONTINUOUS
 10
55.1017149916
 20
22.1873381295
 40
1.6
100
AcDbArc
 50
0.0
 51
90.0
  0
ARC
  5
384
100
AcDbEntity
  8
_1
100
AcDbCircle
 62
7
  6
CONTINUOUS
 10
48.3017149916
 20
48.5873381295
 40
1.6
100
AcDbArc
 50
180.0
 51
270.0
  0
ARC
  5
385
100
AcDbEntity
  8
_1
100
AcDbCircle
 62
7
  6
CONTINUOUS
 10
55.1017149916
 20
48.5873381295
 40
1.6
100
AcDbArc
 50
270.0
 51
360.0
  0
ARC
  5
386
100
AcDbEntity
  8
_1
100
AcDbCircle
 62
7
  6
CONTINUOUS
 10
35.901715108
 20
15278.7473570299
 40
15271.2997276144
100
AcDbArc
 50
269.9155831492
 51
270.0844168501
  0
ARC
  5
387
100
AcDbEntity
  8
_1
100
AcDbCircle
 62
7
  6
CONTINUOUS
 10
35.9017151092
 20
15263.9037715165
 40
15256.256214421
100
AcDbArc
 50
269.9155421069
 51
270.0844578923
  0
ARC
  5
388
100
AcDbEntity
  8
_1
100
AcDbCircle
 62
7
  6
CONTINUOUS
 10
58.4017149916
 20
85.9873381295
 40
5.0
100
AcDbArc
 50
0.0
 51
90.0
  0
ARC
  5
389
100
AcDbEntity
  8
_1
100
AcDbCircle
 62
7
  6
CONTINUOUS
 10
58.3942528332
 20
85.9873931007
 40
4.6234464325
100
AcDbArc
 50
359.9993187583
 51
46.860029598
  0
ARC
  5
38A
100
AcDbEntity
  8
_1
100
AcDbCircle
 62
7
  6
CONTINUOUS
 10
58.395142793
 20
85.9883153603
 40
4.6221649337
100
AcDbArc
 50
46.86026221
 51
89.9185318185
  0
CIRCLE
  5
38B
100
AcDbEntity
  8
_1
100
AcDbCircle
 62
7
  6
CONTINUOUS
 10
51.7017149916
 20
51.9873381295
 40
4.0
  0
ARC
  5
38C
100
AcDbEntity
  8
_1
100
AcDbCircle
 62
7
  6
CONTINUOUS
 10
58.5517149916
 20
86.1373381295
 40
3.0
100
AcDbArc
 50
0.0
 51
90.0
  0
ARC
  5
38D
100
AcDbEntity
  8
_1
100
AcDbCircle
 62
7
  6
CONTINUOUS
 10
58.7517149916
 20
86.3373381295
 40
3.0
100
AcDbArc
 50
359.9999998848
 51
90.0
  0
ARC
  5
38E
100
AcDbEntity
  8
_1
100
AcDbCircle
 62
7
  6
CONTINUOUS
 10
48.3017149916
 20
55.3873381295
 40
1.6
100
AcDbArc
 50
90.0
 51
180.0
  0
ARC
  5
38F
100
AcDbEntity
  8
_1
100
AcDbCircle
 62
7
  6
CONTINUOUS
 10
55.1017149916
 20
55.3873381295
 40
1.6
100
AcDbArc
 50
0.0
 51
90.0
  0
ARC
  5
390
100
AcDbEntity
  8
_1
100
AcDbCircle
 62
7
  6
CONTINUOUS
 10
53.4017149916
 20
60.4264135821
 40
1.0
100
AcDbArc
 50
270.0
 51
360.0
  0
ARC
  5
391
100
AcDbEntity
  8
_1
100
AcDbCircle
 62
7
  6
CONTINUOUS
 10
53.4017149916
 20
77.4264135821
 40
1.0
100
AcDbArc
 50
0.0
 51
90.0
  0
CIRCLE
  5
392
100
AcDbEntity
  8
_1
100
AcDbCircle
 62
7
  6
CONTINUOUS
 10
35.9017149916
 20
52.3873381295
 40
0.5
  0
ARC
  5
393
100
AcDbEntity
  8
_1
100
AcDbCircle
 62
7
  6
CONTINUOUS
 10
49.2017149916
 20
49.6873381295
 40
0.5
100
AcDbArc
 50
179.9999999989
 51
269.9999999999
  0
ARC
  5
394
100
AcDbEntity
  8
_1
100
AcDbCircle
 62
7
  6
CONTINUOUS
 10
54.2017149916
 20
49.6873381295
 40
0.5
100
AcDbArc
 50
269.9999999999
 51
360.0
  0
ARC
  5
395
100
AcDbEntity
  8
_1
100
AcDbCircle
 62
7
  6
CONTINUOUS
 10
53.5017149916
 20
53.829662438
 40
0.5
100
AcDbArc
 50
230.0000000002
 51
360.0
  0
ARC
  5
396
100
AcDbEntity
  8
_1
100
AcDbCircle
 62
7
  6
CONTINUOUS
 10
49.2017149916
 20
52.5895890516
 40
0.5
100
AcDbArc
 50
130.0000014878
 51
180.0000005812
  0
ARC
  5
397
100
AcDbEntity
  8
_1
100
AcDbCircle
 62
7
  6
CONTINUOUS
 10
51.7017149916
 20
54.6873381295
 40
0.5
100
AcDbArc
 50
49.9999999996
 51
129.9999984426
  0
ARC
  5
398
100
AcDbEntity
  8
_1
100
AcDbCircle
 62
7
  6
CONTINUOUS
 10
53.7517149916
 20
54.429662438
 40
0.25
100
AcDbArc
 50
0.0
 51
180.0
  0
ARC
  5
399
100
AcDbEntity
  8
_1
100
AcDbCircle
 62
7
  6
CONTINUOUS
 10
54.4517149916
 20
52.5895890516
 40
0.25
100
AcDbArc
 50
0.0
 51
180.0
  0
ARC
  5
39A
100
AcDbEntity
  8
_1
100
AcDbCircle
 62
7
  6
CONTINUOUS
 10
43.4170176568
 20
49.8459211382
 40
0.2
100
AcDbArc
 50
105.0000000083
 51
285.0000000053
  0
ARC
  5
39B
100
AcDbEntity
  8
_1
100
AcDbCircle
 62
7
  6
CONTINUOUS
 10
44.4017149916
 20
50.1097699938
 40
0.2
100
AcDbArc
 50
284.9999999944
 51
15.0000000002
  0
ARC
  5
39C
100
AcDbEntity
  8
_1
100
AcDbCircle
 62
7
  6
CONTINUOUS
 10
44.1428959465
 20
51.0756958201
 40
0.2
100
AcDbArc
 50
14.9999999998
 51
194.9999999836
  0
ARC
  5
39D
100
AcDbEntity
  8
_1
100
AcDbCircle
 62
7
  6
CONTINUOUS
 10
37.3833626184
 20
52.3226479971
 40
0.2
100
AcDbArc
 50
85.0000000008
 51
265.0000000013
  0
SPLINE
  5
39E
100
AcDbEntity
  8
_1
100
AcDbSpline
 62
7
  6
CONTINUOUS
 70
0
 71
3
 72
8
 73
4
 74
0
 42
0.0000001
 43
0.0000001
 44
0.0000000001
 40
0.0
 40
0.0
 40
0.0
 40
0.0
 40
1.0
 40
1.0
 40
1.0
 40
1.0
 10
22.3329857104
 20
20.0288110974
 30
0.0
 10
22.3801255596
 20
20.043354248
 30
0.0
 10
22.4163428915
 20
20.0674991359
 30
0.0
 10
22.441405847
 20
20.1017688516
 30
0.0
  0
SPLINE
  5
39F
100
AcDbEntity
  8
_1
100
AcDbSpline
 62
7
  6
CONTINUOUS
 70
0
 71
3
 72
8
 73
4
 74
0
 42
0.0000001
 43
0.0000001
 44
0.0000000001
 40
0.0
 40
0.0
 40
0.0
 40
0.0
 40
1.0
 40
1.0
 40
1.0
 40
1.0
 10
22.441405847
 20
20.1017688516
 30
0.0
 10
22.4656386745
 20
20.1349034955
 30
0.0
 10
22.4787171257
 20
20.1791691532
 30
0.0
 10
22.4787171257
 20
20.2334950616
 30
0.0
  0
SPLINE
  5
3A0
100
AcDbEntity
  8
_1
100
AcDbSpline
 62
7
  6
CONTINUOUS
 70
0
 71
3
 72
8
 73
4
 74
0
 42
0.0000001
 43
0.0000001
 44
0.0000000001
 40
0.0
 40
0.0
 40
0.0
 40
0.0
 40
1.0
 40
1.0
 40
1.0
 40
1.0
 10
22.4787171257
 20
20.2334950616
 30
0.0
 10
22.4787171257
 20
20.2978813996
 30
0.0
 10
22.4596022737
 20
20.3512013008
 30
0.0
 10
22.4205647636
 20
20.3916847351
 30
0.0
  0
SPLINE
  5
3A1
100
AcDbEntity
  8
_1
100
AcDbSpline
 62
7
  6
CONTINUOUS
 70
0
 71
3
 72
8
 73
4
 74
0
 42
0.0000001
 43
0.0000001
 44
0.0000000001
 40
0.0
 40
0.0
 40
0.0
 40
0.0
 40
1.0
 40
1.0
 40
1.0
 40
1.0
 10
22.4205647636
 20
20.3916847351
 30
0.0
 10
22.3781135452
 20
20.4357083192
 30
0.0
 10
22.2895820511
 20
20.4578411033
 30
0.0
 10
22.1567855251
 20
20.4578411033
 30
0.0
  0
SPLINE
  5
3A2
100
AcDbEntity
  8
_1
100
AcDbSpline
 62
7
  6
CONTINUOUS
 70
0
 71
3
 72
8
 73
4
 74
0
 42
0.0000001
 43
0.0000001
 44
0.0000000001
 40
0.0
 40
0.0
 40
0.0
 40
0.0
 40
1.0
 40
1.0
 40
1.0
 40
1.0
 10
22.3329857104
 20
20.0288110974
 30
0.0
 10
22.2855580223
 20
20.0141791453
 30
0.0
 10
22.2272078168
 20
20.0071369161
 30
0.0
 10
22.1567855251
 20
20.0071369161
 30
0.0
  0
SPLINE
  5
3A3
100
AcDbEntity
  8
_1
100
AcDbSpline
 62
7
  6
CONTINUOUS
 70
0
 71
3
 72
8
 73
4
 74
0
 42
0.0000001
 43
0.0000001
 44
0.0000000001
 40
0.0
 40
0.0
 40
0.0
 40
0.0
 40
1.0
 40
1.0
 40
1.0
 40
1.0
 10
17.3981133739
 20
17.702408581
 30
0.0
 10
17.469541941
 20
17.702408581
 30
0.0
 10
17.5299041608
 20
17.708444803
 30
0.0
 10
17.5791709905
 20
17.7206345038
 30
0.0
  0
SPLINE
  5
3A4
100
AcDbEntity
  8
_1
100
AcDbSpline
 62
7
  6
CONTINUOUS
 70
0
 71
3
 72
8
 73
4
 74
0
 42
0.0000001
 43
0.0000001
 44
0.0000000001
 40
0.0
 40
0.0
 40
0.0
 40
0.0
 40
1.0
 40
1.0
 40
1.0
 40
1.0
 10
17.5791709905
 20
17.7206345038
 30
0.0
 10
17.6274896303
 20
17.7325896015
 30
0.0
 10
17.6647129694
 20
17.7537163784
 30
0.0
 10
17.6908699356
 20
17.7838975105
 30
0.0
  0
SPLINE
  5
3A5
100
AcDbEntity
  8
_1
100
AcDbSpline
 62
7
  6
CONTINUOUS
 70
0
 71
3
 72
8
 73
4
 74
0
 42
0.0000001
 43
0.0000001
 44
0.0000000001
 40
0.0
 40
0.0
 40
0.0
 40
0.0
 40
1.0
 40
1.0
 40
1.0
 40
1.0
 10
17.6908699356
 20
17.7838975105
 30
0.0
 10
17.7170268634
 20
17.8140785982
 30
0.0
 10
17.7301053146
 20
17.8553260555
 30
0.0
 10
17.7301053146
 20
17.9076399495
 30
0.0
  0
SPLINE
  5
3A6
100
AcDbEntity
  8
_1
100
AcDbSpline
 62
7
  6
CONTINUOUS
 70
0
 71
3
 72
8
 73
4
 74
0
 42
0.0000001
 43
0.0000001
 44
0.0000000001
 40
0.0
 40
0.0
 40
0.0
 40
0.0
 40
1.0
 40
1.0
 40
1.0
 40
1.0
 10
17.7301053146
 20
17.9076399495
 30
0.0
 10
17.7301053146
 20
17.9478813996
 30
0.0
 10
17.7190389672
 20
17.9840987315
 30
0.0
 10
17.6985669266
 20
18.0150563994
 30
0.0
  0
SPLINE
  5
3A7
100
AcDbEntity
  8
_1
100
AcDbSpline
 62
7
  6
CONTINUOUS
 70
0
 71
3
 72
8
 73
4
 74
0
 42
0.0000001
 43
0.0000001
 44
0.0000000001
 40
0.0
 40
0.0
 40
0.0
 40
0.0
 40
1.0
 40
1.0
 40
1.0
 40
1.0
 10
17.6985669266
 20
18.0150563994
 30
0.0
 10
17.6777914205
 20
18.0464729657
 30
0.0
 10
17.6486164072
 20
18.069611757
 30
0.0
 10
17.6121083943
 20
18.0850376908
 30
0.0
  0
SPLINE
  5
3A8
100
AcDbEntity
  8
_1
100
AcDbSpline
 62
7
  6
CONTINUOUS
 70
0
 71
3
 72
8
 73
4
 74
0
 42
0.0000001
 43
0.0000001
 44
0.0000000001
 40
0.0
 40
0.0
 40
0.0
 40
0.0
 40
1.0
 40
1.0
 40
1.0
 40
1.0
 10
17.6121083943
 20
18.0850376908
 30
0.0
 10
17.5771878401
 20
18.0997928669
 30
0.0
 10
17.5087773839
 20
18.1078411033
 30
0.0
 10
17.4061616549
 20
18.1078411033
 30
0.0
  0
SPLINE
  5
3A9
100
AcDbEntity
  8
_1
100
AcDbSpline
 62
7
  6
CONTINUOUS
 70
0
 71
3
 72
8
 73
4
 74
0
 42
0.0000001
 43
0.0000001
 44
0.0000000001
 40
0.0
 40
0.0
 40
0.0
 40
0.0
 40
1.0
 40
1.0
 40
1.0
 40
1.0
 10
21.0455135038
 20
20.2292065539
 30
0.0
 10
21.0109100711
 20
20.3079417398
 30
0.0
 10
20.9606082809
 20
20.3683039596
 30
0.0
 10
20.8962220323
 20
20.4085454097
 30
0.0
  0
SPLINE
  5
3AA
100
AcDbEntity
  8
_1
100
AcDbSpline
 62
7
  6
CONTINUOUS
 70
0
 71
3
 72
8
 73
4
 74
0
 42
0.0000001
 43
0.0000001
 44
0.0000000001
 40
0.0
 40
0.0
 40
0.0
 40
0.0
 40
1.0
 40
1.0
 40
1.0
 40
1.0
 10
20.8962220323
 20
20.4085454097
 30
0.0
 10
20.8318357837
 20
20.4487868597
 30
0.0
 10
20.7573891056
 20
20.4699135472
 30
0.0
 10
20.673888005
 20
20.4699135472
 30
0.0
  0
SPLINE
  5
3AB
100
AcDbEntity
  8
_1
100
AcDbSpline
 62
7
  6
CONTINUOUS
 70
0
 71
3
 72
8
 73
4
 74
0
 42
0.0000001
 43
0.0000001
 44
0.0000000001
 40
0.0
 40
0.0
 40
0.0
 40
0.0
 40
1.0
 40
1.0
 40
1.0
 40
1.0
 10
21.0984352005
 20
19.9487868001
 30
0.0
 10
21.0984352005
 20
19.8320866128
 30
0.0
 10
21.0793207061
 20
19.7334950914
 30
0.0
 10
21.0412871835
 20
19.65392489
 30
0.0
  0
SPLINE
  5
3AC
100
AcDbEntity
  8
_1
100
AcDbSpline
 62
7
  6
CONTINUOUS
 70
0
 71
3
 72
8
 73
4
 74
0
 42
0.0000001
 43
0.0000001
 44
0.0000000001
 40
0.0
 40
0.0
 40
0.0
 40
0.0
 40
1.0
 40
1.0
 40
1.0
 40
1.0
 10
20.673888005
 20
20.4699135473
 30
0.0
 10
20.6135257852
 20
20.4699135473
 30
0.0
 10
20.558193959
 20
20.4578411033
 30
0.0
 10
20.5078921688
 20
20.4357083192
 30
0.0
  0
SPLINE
  5
3AD
100
AcDbEntity
  8
_1
100
AcDbSpline
 62
7
  6
CONTINUOUS
 70
0
 71
3
 72
8
 73
4
 74
0
 42
0.0000001
 43
0.0000001
 44
0.0000000001
 40
0.0
 40
0.0
 40
0.0
 40
0.0
 40
1.0
 40
1.0
 40
1.0
 40
1.0
 10
20.5078921688
 20
20.4357083192
 30
0.0
 10
20.4575903785
 20
20.413575535
 30
0.0
 10
20.4133246315
 20
20.3803764035
 30
0.0
 10
20.3773547623
 20
20.3379119895
 30
0.0
  0
SPLINE
  5
3AE
100
AcDbEntity
  8
_1
100
AcDbSpline
 62
7
  6
CONTINUOUS
 70
0
 71
3
 72
8
 73
4
 74
0
 42
0.0000001
 43
0.0000001
 44
0.0000000001
 40
0.0
 40
0.0
 40
0.0
 40
0.0
 40
1.0
 40
1.0
 40
1.0
 40
1.0
 10
20.3773547623
 20
20.3379119895
 30
0.0
 10
20.3408899677
 20
20.2948632886
 30
0.0
 10
20.3117150438
 20
20.2395312836
 30
0.0
 10
20.2905881904
 20
20.1731329271
 30
0.0
  0
SPLINE
  5
3AF
100
AcDbEntity
  8
_1
100
AcDbSpline
 62
7
  6
CONTINUOUS
 70
0
 71
3
 72
8
 73
4
 74
0
 42
0.0000001
 43
0.0000001
 44
0.0000000001
 40
0.0
 40
0.0
 40
0.0
 40
0.0
 40
1.0
 40
1.0
 40
1.0
 40
1.0
 10
20.2905881904
 20
20.1731329271
 30
0.0
 10
20.2694613111
 20
20.1067344894
 30
0.0
 10
20.2594012392
 20
20.0312818041
 30
0.0
 10
20.2594012392
 20
19.9487868001
 30
0.0
  0
SPLINE
  5
3B0
100
AcDbEntity
  8
_1
100
AcDbSpline
 62
7
  6
CONTINUOUS
 70
0
 71
3
 72
8
 73
4
 74
0
 42
0.0000001
 43
0.0000001
 44
0.0000000001
 40
0.0
 40
0.0
 40
0.0
 40
0.0
 40
1.0
 40
1.0
 40
1.0
 40
1.0
 10
20.2594012392
 20
19.9487868001
 30
0.0
 10
20.2594012392
 20
19.8642797818
 30
0.0
 10
20.2694613111
 20
19.7888270517
 30
0.0
 10
20.2904455375
 20
19.7213781048
 30
0.0
  0
SPLINE
  5
3B1
100
AcDbEntity
  8
_1
100
AcDbSpline
 62
7
  6
CONTINUOUS
 70
0
 71
3
 72
8
 73
4
 74
0
 42
0.0000001
 43
0.0000001
 44
0.0000000001
 40
0.0
 40
0.0
 40
0.0
 40
0.0
 40
1.0
 40
1.0
 40
1.0
 40
1.0
 10
20.2904455375
 20
19.7213781048
 30
0.0
 10
20.3117150438
 20
19.6530121913
 30
0.0
 10
20.3418959749
 20
19.5966741344
 30
0.0
 10
20.3801253212
 20
19.5524085437
 30
0.0
  0
SPLINE
  5
3B2
100
AcDbEntity
  8
_1
100
AcDbSpline
 62
7
  6
CONTINUOUS
 70
0
 71
3
 72
8
 73
4
 74
0
 42
0.0000001
 43
0.0000001
 44
0.0000000001
 40
0.0
 40
0.0
 40
0.0
 40
0.0
 40
1.0
 40
1.0
 40
1.0
 40
1.0
 10
20.3801253212
 20
19.5524085437
 30
0.0
 10
20.4183546674
 20
19.5081429531
 30
0.0
 10
20.4626204145
 20
19.4749437546
 30
0.0
 10
20.5129222006
 20
19.4528109611
 30
0.0
  0
SPLINE
  5
3B3
100
AcDbEntity
  8
_1
100
AcDbSpline
 62
7
  6
CONTINUOUS
 70
0
 71
3
 72
8
 73
4
 74
0
 42
0.0000001
 43
0.0000001
 44
0.0000000001
 40
0.0
 40
0.0
 40
0.0
 40
0.0
 40
1.0
 40
1.0
 40
1.0
 40
1.0
 10
20.5129222006
 20
19.4528109611
 30
0.0
 10
20.563223995
 20
19.430678164
 30
0.0
 10
20.6175501716
 20
19.4196117719
 30
0.0
 10
20.6779120338
 20
19.4196117719
 30
0.0
  0
SPLINE
  5
3B4
100
AcDbEntity
  8
_1
100
AcDbSpline
 62
7
  6
CONTINUOUS
 70
0
 71
3
 72
8
 73
4
 74
0
 42
0.0000001
 43
0.0000001
 44
0.0000000001
 40
0.0
 40
0.0
 40
0.0
 40
0.0
 40
1.0
 40
1.0
 40
1.0
 40
1.0
 10
20.6779120338
 20
19.4196117719
 30
0.0
 10
20.754371084
 20
19.4196117719
 30
0.0
 10
20.8237873685
 20
19.4387264674
 30
0.0
 10
20.8881736637
 20
19.4769557575
 30
0.0
  0
SPLINE
  5
3B5
100
AcDbEntity
  8
_1
100
AcDbSpline
 62
7
  6
CONTINUOUS
 70
0
 71
3
 72
8
 73
4
 74
0
 42
0.0000001
 43
0.0000001
 44
0.0000000001
 40
0.0
 40
0.0
 40
0.0
 40
0.0
 40
1.0
 40
1.0
 40
1.0
 40
1.0
 10
20.8881736637
 20
19.4769557575
 30
0.0
 10
20.9525602234
 20
19.5151852047
 30
0.0
 10
21.0028620136
 20
19.5735353207
 30
0.0
 10
21.0412871835
 20
19.65392489
 30
0.0
  0
SPLINE
  5
3B6
100
AcDbEntity
  8
_1
100
AcDbSpline
 62
7
  6
CONTINUOUS
 70
0
 71
3
 72
8
 73
4
 74
0
 42
0.0000001
 43
0.0000001
 44
0.0000000001
 40
0.0
 40
0.0
 40
0.0
 40
0.0
 40
1.0
 40
1.0
 40
1.0
 40
1.0
 10
21.0984352005
 20
19.9487868001
 30
0.0
 10
21.0984352005
 20
20.0564326992
 30
0.0
 10
21.0803267133
 20
20.1499940505
 30
0.0
 10
21.0455135038
 20
20.2292065539
 30
0.0
  0
SPLINE
  5
3B7
100
AcDbEntity
  8
_1
100
AcDbSpline
 62
7
  6
CONTINUOUS
 70
0
 71
3
 72
8
 73
4
 74
0
 42
0.0000001
 43
0.0000001
 44
0.0000000001
 40
0.0
 40
0.0
 40
0.0
 40
0.0
 40
1.0
 40
1.0
 40
1.0
 40
1.0
 10
50.6947290015
 20
19.7049035689
 30
0.0
 10
50.7373205559
 20
19.7531932416
 30
0.0
 10
50.7941093323
 20
19.7773381295
 30
0.0
 10
50.8635177433
 20
19.7773381295
 30
0.0
  0
SPLINE
  5
3B8
100
AcDbEntity
  8
_1
100
AcDbSpline
 62
7
  6
CONTINUOUS
 70
0
 71
3
 72
8
 73
4
 74
0
 42
0.0000001
 43
0.0000001
 44
0.0000000001
 40
0.0
 40
0.0
 40
0.0
 40
0.0
 40
1.0
 40
1.0
 40
1.0
 40
1.0
 10
49.7750670864
 20
17.470698322
 30
0.0
 10
49.7498276274
 20
17.5093300821
 30
0.0
 10
49.7151234219
 20
17.5656681123
 30
0.0
 10
49.6709544203
 20
17.6413220348
 30
0.0
  0
SPLINE
  5
3B9
100
AcDbEntity
  8
_1
100
AcDbSpline
 62
7
  6
CONTINUOUS
 70
0
 71
3
 72
8
 73
4
 74
0
 42
0.0000001
 43
0.0000001
 44
0.0000000001
 40
0.0
 40
0.0
 40
0.0
 40
0.0
 40
1.0
 40
1.0
 40
1.0
 40
1.0
 10
53.3085880043
 20
17.3370966794
 30
0.0
 10
53.3716870186
 20
17.3370966794
 30
0.0
 10
53.4253203957
 20
17.3612415495
 30
0.0
 10
53.4663348287
 20
17.4063121153
 30
0.0
  0
SPLINE
  5
3BA
100
AcDbEntity
  8
_1
100
AcDbSpline
 62
7
  6
CONTINUOUS
 70
0
 71
3
 72
8
 73
4
 74
0
 42
0.0000001
 43
0.0000001
 44
0.0000000001
 40
0.0
 40
0.0
 40
0.0
 40
0.0
 40
1.0
 40
1.0
 40
1.0
 40
1.0
 10
49.4737260037
 20
18.7586123284
 30
0.0
 10
49.3964756147
 20
18.7391088071
 30
0.0
 10
49.3018276541
 20
18.7294508519
 30
0.0
 10
49.1898276607
 20
18.7294508519
 30
0.0
  0
SPLINE
  5
3BB
100
AcDbEntity
  8
_1
100
AcDbSpline
 62
7
  6
CONTINUOUS
 70
0
 71
3
 72
8
 73
4
 74
0
 42
0.0000001
 43
0.0000001
 44
0.0000000001
 40
0.0
 40
0.0
 40
0.0
 40
0.0
 40
1.0
 40
1.0
 40
1.0
 40
1.0
 10
49.6488699496
 20
18.859833139
 30
0.0
 10
49.6078558266
 20
18.8115433278
 30
0.0
 10
49.5494896309
 20
18.7777404847
 30
0.0
 10
49.4737260037
 20
18.7586123284
 30
0.0
  0
SPLINE
  5
3BC
100
AcDbEntity
  8
_1
100
AcDbSpline
 62
7
  6
CONTINUOUS
 70
0
 71
3
 72
8
 73
4
 74
0
 42
0.0000001
 43
0.0000001
 44
0.0000000001
 40
0.0
 40
0.0
 40
0.0
 40
0.0
 40
1.0
 40
1.0
 40
1.0
 40
1.0
 10
49.7103910238
 20
19.0578210416
 30
0.0
 10
49.7103910238
 20
18.9741188111
 30
0.0
 10
49.6898840124
 20
18.9081228795
 30
0.0
 10
49.6488699496
 20
18.859833139
 30
0.0
  0
SPLINE
  5
3BD
100
AcDbEntity
  8
_1
100
AcDbSpline
 62
7
  6
CONTINUOUS
 70
0
 71
3
 72
8
 73
4
 74
0
 42
0.0000001
 43
0.0000001
 44
0.0000000001
 40
0.0
 40
0.0
 40
0.0
 40
0.0
 40
1.0
 40
1.0
 40
1.0
 40
1.0
 10
49.6609388316
 20
19.2296873614
 30
0.0
 10
49.6930389912
 20
19.1801550927
 30
0.0
 10
49.7103910238
 20
19.1222073617
 30
0.0
 10
49.7103910238
 20
19.0578210416
 30
0.0
  0
SPLINE
  5
3BE
100
AcDbEntity
  8
_1
100
AcDbSpline
 62
7
  6
CONTINUOUS
 70
0
 71
3
 72
8
 73
4
 74
0
 42
0.0000001
 43
0.0000001
 44
0.0000000001
 40
0.0
 40
0.0
 40
0.0
 40
0.0
 40
1.0
 40
1.0
 40
1.0
 40
1.0
 10
49.5253718529
 20
19.3416574277
 30
0.0
 10
49.5826164171
 20
19.3169759335
 30
0.0
 10
49.628362838
 20
19.2799538674
 30
0.0
 10
49.6609388316
 20
19.2296873614
 30
0.0
  0
SPLINE
  5
3BF
100
AcDbEntity
  8
_1
100
AcDbSpline
 62
7
  6
CONTINUOUS
 70
0
 71
3
 72
8
 73
4
 74
0
 42
0.0000001
 43
0.0000001
 44
0.0000000001
 40
0.0
 40
0.0
 40
0.0
 40
0.0
 40
1.0
 40
1.0
 40
1.0
 40
1.0
 10
49.2024473655
 20
19.3781428876
 30
0.0
 10
49.3633488285
 20
19.3781428876
 30
0.0
 10
49.4706164238
 20
19.3652657094
 30
0.0
 10
49.5253718529
 20
19.3416574276
 30
0.0
  0
SPLINE
  5
3C0
100
AcDbEntity
  8
_1
100
AcDbSpline
 62
7
  6
CONTINUOUS
 70
0
 71
3
 72
8
 73
4
 74
0
 42
0.0000001
 43
0.0000001
 44
0.0000000001
 40
0.0
 40
0.0
 40
0.0
 40
0.0
 40
1.0
 40
1.0
 40
1.0
 40
1.0
 10
48.5367572579
 20
17.3370966794
 30
0.0
 10
48.606165704
 20
17.3370966794
 30
0.0
 10
48.661376991
 20
17.3612415495
 30
0.0
 10
48.7051288927
 20
17.4083215437
 30
0.0
  0
SPLINE
  5
3C1
100
AcDbEntity
  8
_1
100
AcDbSpline
 62
7
  6
CONTINUOUS
 70
0
 71
3
 72
8
 73
4
 74
0
 42
0.0000001
 43
0.0000001
 44
0.0000000001
 40
0.0
 40
0.0
 40
0.0
 40
0.0
 40
1.0
 40
1.0
 40
1.0
 40
1.0
 10
48.7051288927
 20
17.4083215437
 30
0.0
 10
48.7481375048
 20
17.4546017083
 30
0.0
 10
48.7702220056
 20
17.5286459746
 30
0.0
 10
48.7702220056
 20
17.6284447672
 30
0.0
  0
SPLINE
  5
3C2
100
AcDbEntity
  8
_1
100
AcDbSpline
 62
7
  6
CONTINUOUS
 70
0
 71
3
 72
8
 73
4
 74
0
 42
0.0000001
 43
0.0000001
 44
0.0000000001
 40
0.0
 40
0.0
 40
0.0
 40
0.0
 40
1.0
 40
1.0
 40
1.0
 40
1.0
 10
48.9342783773
 20
18.3865936579
 30
0.0
 10
49.0163065631
 20
18.3865936579
 30
0.0
 10
49.0857149741
 20
18.3753260913
 30
0.0
 10
49.1408140511
 20
18.3525107117
 30
0.0
  0
SPLINE
  5
3C3
100
AcDbEntity
  8
_1
100
AcDbSpline
 62
7
  6
CONTINUOUS
 70
0
 71
3
 72
8
 73
4
 74
0
 42
0.0000001
 43
0.0000001
 44
0.0000000001
 40
0.0
 40
0.0
 40
0.0
 40
0.0
 40
1.0
 40
1.0
 40
1.0
 40
1.0
 10
49.1408140511
 20
18.3525107117
 30
0.0
 10
49.1945600588
 20
18.33025561
 30
0.0
 10
49.2481938564
 20
18.2884044947
 30
0.0
 10
49.3018276367
 20
18.2272375248
 30
0.0
  0
SPLINE
  5
3C4
100
AcDbEntity
  8
_1
100
AcDbSpline
 62
7
  6
CONTINUOUS
 70
0
 71
3
 72
8
 73
4
 74
0
 42
0.0000001
 43
0.0000001
 44
0.0000000001
 40
0.0
 40
0.0
 40
0.0
 40
0.0
 40
1.0
 40
1.0
 40
1.0
 40
1.0
 10
49.3018276367
 20
18.2272375248
 30
0.0
 10
49.3554614517
 20
18.1660705151
 30
0.0
 10
49.4150887293
 20
18.0757363055
 30
0.0
 10
49.4832360584
 20
17.9600343051
 30
0.0
  0
SPLINE
  5
3C5
100
AcDbEntity
  8
_1
100
AcDbSpline
 62
7
  6
CONTINUOUS
 70
0
 71
3
 72
8
 73
4
 74
0
 42
0.0000001
 43
0.0000001
 44
0.0000000001
 40
0.0
 40
0.0
 40
0.0
 40
0.0
 40
1.0
 40
1.0
 40
1.0
 40
1.0
 10
49.7750670864
 20
17.470698322
 30
0.0
 10
49.8003065865
 20
17.4320664989
 30
0.0
 10
49.8318558132
 20
17.3998733411
 30
0.0
 10
49.8675036923
 20
17.3748147607
 30
0.0
  0
SPLINE
  5
3C6
100
AcDbEntity
  8
_1
100
AcDbSpline
 62
7
  6
CONTINUOUS
 70
0
 71
3
 72
8
 73
4
 74
0
 42
0.0000001
 43
0.0000001
 44
0.0000000001
 40
0.0
 40
0.0
 40
0.0
 40
0.0
 40
1.0
 40
1.0
 40
1.0
 40
1.0
 10
49.8675036923
 20
17.3748147607
 30
0.0
 10
49.9028417837
 20
17.3499739448
 30
0.0
 10
49.9470107853
 20
17.3370966794
 30
0.0
 10
50.0006445829
 20
17.3370966794
 30
0.0
  0
SPLINE
  5
3C7
100
AcDbEntity
  8
_1
100
AcDbSpline
 62
7
  6
CONTINUOUS
 70
0
 71
3
 72
8
 73
4
 74
0
 42
0.0000001
 43
0.0000001
 44
0.0000000001
 40
0.0
 40
0.0
 40
0.0
 40
0.0
 40
1.0
 40
1.0
 40
1.0
 40
1.0
 10
50.0006445829
 20
17.3370966794
 30
0.0
 10
50.0448135845
 20
17.3370966794
 30
0.0
 10
50.0826727688
 20
17.3467546279
 30
0.0
 10
50.117534493
 20
17.3641275789
 30
0.0
  0
SPLINE
  5
3C8
100
AcDbEntity
  8
_1
100
AcDbSpline
 62
7
  6
CONTINUOUS
 70
0
 71
3
 72
8
 73
4
 74
0
 42
0.0000001
 43
0.0000001
 44
0.0000000001
 40
0.0
 40
0.0
 40
0.0
 40
0.0
 40
1.0
 40
1.0
 40
1.0
 40
1.0
 10
50.117534493
 20
17.3641275789
 30
0.0
 10
50.1505037605
 20
17.3805574453
 30
0.0
 10
50.1773205893
 20
17.4047023142
 30
0.0
 10
50.1962501809
 20
17.4352858161
 30
0.0
  0
SPLINE
  5
3C9
100
AcDbEntity
  8
_1
100
AcDbSpline
 62
7
  6
CONTINUOUS
 70
0
 71
3
 72
8
 73
4
 74
0
 42
0.0000001
 43
0.0000001
 44
0.0000000001
 40
0.0
 40
0.0
 40
0.0
 40
0.0
 40
1.0
 40
1.0
 40
1.0
 40
1.0
 10
50.1962501809
 20
17.4352858161
 30
0.0
 10
50.2151797735
 20
17.4658693196
 30
0.0
 10
50.2262219889
 20
17.4964528146
 30
0.0
 10
50.2262219889
 20
17.5286459746
 30
0.0
  0
SPLINE
  5
3CA
100
AcDbEntity
  8
_1
100
AcDbSpline
 62
7
  6
CONTINUOUS
 70
0
 71
3
 72
8
 73
4
 74
0
 42
0.0000001
 43
0.0000001
 44
0.0000000001
 40
0.0
 40
0.0
 40
0.0
 40
0.0
 40
1.0
 40
1.0
 40
1.0
 40
1.0
 10
50.2262219889
 20
17.5286459746
 30
0.0
 10
50.2262219889
 20
17.5576198222
 30
0.0
 10
50.2088699562
 20
17.6123481872
 30
0.0
 10
50.1757431731
 20
17.6928310708
 30
0.0
  0
SPLINE
  5
3CB
100
AcDbEntity
  8
_1
100
AcDbSpline
 62
7
  6
CONTINUOUS
 70
0
 71
3
 72
8
 73
4
 74
0
 42
0.0000001
 43
0.0000001
 44
0.0000000001
 40
0.0
 40
0.0
 40
0.0
 40
0.0
 40
1.0
 40
1.0
 40
1.0
 40
1.0
 10
50.1757431731
 20
17.6928310708
 30
0.0
 10
50.1426163837
 20
17.7733139696
 30
0.0
 10
50.0968699629
 20
17.8618451776
 30
0.0
 10
50.0369262665
 20
17.9616439891
 30
0.0
  0
LINE
  5
3CC
100
AcDbEntity
  8
_1
100
AcDbLine
 62
7
  6
CONTINUOUS
 10
53.6934895241
 20
19.4908189835
 11
53.6189921614
 21
19.6080894006
  0
SPLINE
  5
3CD
100
AcDbEntity
  8
_1
100
AcDbSpline
 62
7
  6
CONTINUOUS
 70
0
 71
3
 72
8
 73
4
 74
0
 42
0.0000001
 43
0.0000001
 44
0.0000000001
 40
0.0
 40
0.0
 40
0.0
 40
0.0
 40
1.0
 40
1.0
 40
1.0
 40
1.0
 10
50.0369262665
 20
17.9616439891
 30
0.0
 10
49.9769825928
 20
18.0614427628
 30
0.0
 10
49.9107290203
 20
18.1548029485
 30
0.0
 10
49.8346203448
 20
18.2429815655
 30
0.0
  0
SPLINE
  5
3CE
100
AcDbEntity
  8
_1
100
AcDbSpline
 62
7
  6
CONTINUOUS
 70
0
 71
3
 72
8
 73
4
 74
0
 42
0.0000001
 43
0.0000001
 44
0.0000000001
 40
0.0
 40
0.0
 40
0.0
 40
0.0
 40
1.0
 40
1.0
 40
1.0
 40
1.0
 10
49.8346203448
 20
18.2429815655
 30
0.0
 10
49.7592924234
 20
18.33025561
 30
0.0
 10
49.6788417971
 20
18.3978612962
 30
0.0
 10
49.5968136112
 20
18.4429317059
 30
0.0
  0
SPLINE
  5
3CF
100
AcDbEntity
  8
_1
100
AcDbSpline
 62
7
  6
CONTINUOUS
 70
0
 71
3
 72
8
 73
4
 74
0
 42
0.0000001
 43
0.0000001
 44
0.0000000001
 40
0.0
 40
0.0
 40
0.0
 40
0.0
 40
1.0
 40
1.0
 40
1.0
 40
1.0
 10
53.6189921614
 20
19.6080894006
 30
0.0
 10
53.5956867249
 20
19.6453461232
 30
0.0
 10
53.5720248749
 20
19.6759297433
 30
0.0
 10
53.5495497041
 20
19.699682709
 30
0.0
  0
SPLINE
  5
3D0
100
AcDbEntity
  8
_1
100
AcDbSpline
 62
7
  6
CONTINUOUS
 70
0
 71
3
 72
8
 73
4
 74
0
 42
0.0000001
 43
0.0000001
 44
0.0000000001
 40
0.0
 40
0.0
 40
0.0
 40
0.0
 40
1.0
 40
1.0
 40
1.0
 40
1.0
 10
49.5968136112
 20
18.4429317059
 30
0.0
 10
49.793996629
 20
18.4863924327
 30
0.0
 10
49.940700968
 20
18.560436708
 30
0.0
 10
50.0388968325
 20
18.6662930309
 30
0.0
  0
SPLINE
  5
3D1
100
AcDbEntity
  8
_1
100
AcDbSpline
 62
7
  6
CONTINUOUS
 70
0
 71
3
 72
8
 73
4
 74
0
 42
0.0000001
 43
0.0000001
 44
0.0000000001
 40
0.0
 40
0.0
 40
0.0
 40
0.0
 40
1.0
 40
1.0
 40
1.0
 40
1.0
 10
53.5495497041
 20
19.699682709
 30
0.0
 10
53.5278560135
 20
19.7226097646
 30
0.0
 10
53.5010387642
 20
19.7419256749
 30
0.0
 10
53.470780441
 20
19.7557385241
 30
0.0
  0
SPLINE
  5
3D2
100
AcDbEntity
  8
_1
100
AcDbSpline
 62
7
  6
CONTINUOUS
 70
0
 71
3
 72
8
 73
4
 74
0
 42
0.0000001
 43
0.0000001
 44
0.0000000001
 40
0.0
 40
0.0
 40
0.0
 40
0.0
 40
1.0
 40
1.0
 40
1.0
 40
1.0
 10
50.0388968325
 20
18.6662930309
 30
0.0
 10
50.1363065664
 20
18.7713018956
 30
0.0
 10
50.185207966
 20
18.9113421025
 30
0.0
 10
50.185207966
 20
19.0884045186
 30
0.0
  0
SPLINE
  5
3D3
100
AcDbEntity
  8
_1
100
AcDbSpline
 62
7
  6
CONTINUOUS
 70
0
 71
3
 72
8
 73
4
 74
0
 42
0.0000001
 43
0.0000001
 44
0.0000000001
 40
0.0
 40
0.0
 40
0.0
 40
0.0
 40
1.0
 40
1.0
 40
1.0
 40
1.0
 10
53.470780441
 20
19.7557385241
 30
0.0
 10
53.4410951492
 20
19.7692897858
 30
0.0
 10
53.4048133843
 20
19.7773381295
 30
0.0
 10
53.3637993614
 20
19.7773381295
 30
0.0
  0
SPLINE
  5
3D4
100
AcDbEntity
  8
_1
100
AcDbSpline
 62
7
  6
CONTINUOUS
 70
0
 71
3
 72
8
 73
4
 74
0
 42
0.0000001
 43
0.0000001
 44
0.0000000001
 40
0.0
 40
0.0
 40
0.0
 40
0.0
 40
1.0
 40
1.0
 40
1.0
 40
1.0
 10
50.185207966
 20
19.0884045186
 30
0.0
 10
50.185207966
 20
19.1737163605
 30
0.0
 10
50.1694333527
 20
19.254199368
 30
0.0
 10
50.1410389875
 20
19.3314628751
 30
0.0
  0
SPLINE
  5
3D5
100
AcDbEntity
  8
_1
100
AcDbSpline
 62
7
  6
CONTINUOUS
 70
0
 71
3
 72
8
 73
4
 74
0
 42
0.0000001
 43
0.0000001
 44
0.0000000001
 40
0.0
 40
0.0
 40
0.0
 40
0.0
 40
1.0
 40
1.0
 40
1.0
 40
1.0
 10
53.3637993614
 20
19.7773381295
 30
0.0
 10
53.3101654236
 20
19.7773381295
 30
0.0
 10
53.2596868851
 20
19.7612415852
 30
0.0
 10
53.2137106752
 20
19.7310254583
 30
0.0
  0
SPLINE
  5
3D6
100
AcDbEntity
  8
_1
100
AcDbSpline
 62
7
  6
CONTINUOUS
 70
0
 71
3
 72
8
 73
4
 74
0
 42
0.0000001
 43
0.0000001
 44
0.0000000001
 40
0.0
 40
0.0
 40
0.0
 40
0.0
 40
1.0
 40
1.0
 40
1.0
 40
1.0
 10
50.1410389875
 20
19.3314628751
 30
0.0
 10
50.1126445763
 20
19.4087265076
 30
0.0
 10
50.070052994
 20
19.4763320508
 30
0.0
 10
50.0144432501
 20
19.5338759556
 30
0.0
  0
SPLINE
  5
3D7
100
AcDbEntity
  8
_1
100
AcDbSpline
 62
7
  6
CONTINUOUS
 70
0
 71
3
 72
8
 73
4
 74
0
 42
0.0000001
 43
0.0000001
 44
0.0000000001
 40
0.0
 40
0.0
 40
0.0
 40
0.0
 40
1.0
 40
1.0
 40
1.0
 40
1.0
 10
53.2137106752
 20
19.7310254583
 30
0.0
 10
53.1666163437
 20
19.7000744881
 30
0.0
 10
53.1334894173
 20
19.6614428105
 30
0.0
 10
53.1147011484
 20
19.6130961167
 30
0.0
  0
SPLINE
  5
3D8
100
AcDbEntity
  8
_1
100
AcDbSpline
 62
7
  6
CONTINUOUS
 70
0
 71
3
 72
8
 73
4
 74
0
 42
0.0000001
 43
0.0000001
 44
0.0000000001
 40
0.0
 40
0.0
 40
0.0
 40
0.0
 40
1.0
 40
1.0
 40
1.0
 40
1.0
 10
50.0144432501
 20
19.5338759556
 30
0.0
 10
49.9580530006
 20
19.5922275128
 30
0.0
 10
49.8949544069
 20
19.635688168
 30
0.0
 10
49.8225444016
 20
19.6682339757
 30
0.0
  0
SPLINE
  5
3D9
100
AcDbEntity
  8
_1
100
AcDbSpline
 62
7
  6
CONTINUOUS
 70
0
 71
3
 72
8
 73
4
 74
0
 42
0.0000001
 43
0.0000001
 44
0.0000000001
 40
0.0
 40
0.0
 40
0.0
 40
0.0
 40
1.0
 40
1.0
 40
1.0
 40
1.0
 10
53.1147011484
 20
19.6130961167
 30
0.0
 10
53.097208213
 20
19.5680826249
 30
0.0
 10
53.0893205559
 20
19.5085252824
 30
0.0
 10
53.0893205559
 20
19.431261641
 30
0.0
  0
SPLINE
  5
3DA
100
AcDbEntity
  8
_1
100
AcDbSpline
 62
7
  6
CONTINUOUS
 70
0
 71
3
 72
8
 73
4
 74
0
 42
0.0000001
 43
0.0000001
 44
0.0000000001
 40
0.0
 40
0.0
 40
0.0
 40
0.0
 40
1.0
 40
1.0
 40
1.0
 40
1.0
 10
49.8225444016
 20
19.6682339757
 30
0.0
 10
49.7624474022
 20
19.6952455106
 30
0.0
 10
49.6946164104
 20
19.7129518094
 30
0.0
 10
49.620463277
 20
19.7225096843
 30
0.0
  0
SPLINE
  5
3DB
100
AcDbEntity
  8
_1
100
AcDbSpline
 62
7
  6
CONTINUOUS
 70
0
 71
3
 72
8
 73
4
 74
0
 42
0.0000001
 43
0.0000001
 44
0.0000000001
 40
0.0
 40
0.0
 40
0.0
 40
0.0
 40
1.0
 40
1.0
 40
1.0
 40
1.0
 10
53.0893205559
 20
17.6107385399
 30
0.0
 10
53.0893205559
 20
17.5205976846
 30
0.0
 10
53.108250148
 20
17.452992052
 30
0.0
 10
53.1492180506
 20
17.4062699093
 30
0.0
  0
SPLINE
  5
3DC
100
AcDbEntity
  8
_1
100
AcDbSpline
 62
7
  6
CONTINUOUS
 70
0
 71
3
 72
8
 73
4
 74
0
 42
0.0000001
 43
0.0000001
 44
0.0000000001
 40
0.0
 40
0.0
 40
0.0
 40
0.0
 40
1.0
 40
1.0
 40
1.0
 40
1.0
 10
49.620463277
 20
19.7225096843
 30
0.0
 10
49.5447572329
 20
19.7322677197
 30
0.0
 10
49.4548418104
 20
19.7370966973
 30
0.0
 10
49.3507290537
 20
19.7370966973
 30
0.0
  0
SPLINE
  5
3DD
100
AcDbEntity
  8
_1
100
AcDbSpline
 62
7
  6
CONTINUOUS
 70
0
 71
3
 72
8
 73
4
 74
0
 42
0.0000001
 43
0.0000001
 44
0.0000000001
 40
0.0
 40
0.0
 40
0.0
 40
0.0
 40
1.0
 40
1.0
 40
1.0
 40
1.0
 10
53.1492180506
 20
17.4062699093
 30
0.0
 10
53.1887007744
 20
17.3612415495
 30
0.0
 10
53.2423347122
 20
17.3370966794
 30
0.0
 10
53.3085880043
 20
17.3370966794
 30
0.0
  0
SPLINE
  5
3DE
100
AcDbEntity
  8
_1
100
AcDbSpline
 62
7
  6
CONTINUOUS
 70
0
 71
3
 72
8
 73
4
 74
0
 42
0.0000001
 43
0.0000001
 44
0.0000000001
 40
0.0
 40
0.0
 40
0.0
 40
0.0
 40
1.0
 40
1.0
 40
1.0
 40
1.0
 10
48.5888135662
 20
19.7370966973
 30
0.0
 10
48.4878558232
 20
19.7370966973
 30
0.0
 10
48.4137149791
 20
19.7129518094
 30
0.0
 10
48.3695459646
 20
19.6678814128
 30
0.0
  0
SPLINE
  5
3DF
100
AcDbEntity
  8
_1
100
AcDbSpline
 62
7
  6
CONTINUOUS
 70
0
 71
3
 72
8
 73
4
 74
0
 42
0.0000001
 43
0.0000001
 44
0.0000000001
 40
0.0
 40
0.0
 40
0.0
 40
0.0
 40
1.0
 40
1.0
 40
1.0
 40
1.0
 10
48.3695459646
 20
19.6678814128
 30
0.0
 10
48.3237995041
 20
19.6212013783
 30
0.0
 10
48.3017149858
 20
19.547157103
 30
0.0
 10
48.3017149858
 20
19.4441389623
 30
0.0
  0
SPLINE
  5
3E0
100
AcDbEntity
  8
_1
100
AcDbSpline
 62
7
  6
CONTINUOUS
 70
0
 71
3
 72
8
 73
4
 74
0
 42
0.0000001
 43
0.0000001
 44
0.0000000001
 40
0.0
 40
0.0
 40
0.0
 40
0.0
 40
1.0
 40
1.0
 40
1.0
 40
1.0
 10
48.4107371823
 20
17.3697821135
 30
0.0
 10
48.4451130754
 20
17.3482996921
 30
0.0
 10
48.4868180489
 20
17.3370966794
 30
0.0
 10
48.5367572579
 20
17.3370966794
 30
0.0
  0
SPLINE
  5
3E1
100
AcDbEntity
  8
_1
100
AcDbSpline
 62
7
  6
CONTINUOUS
 70
0
 71
3
 72
8
 73
4
 74
0
 42
0.0000001
 43
0.0000001
 44
0.0000000001
 40
0.0
 40
0.0
 40
0.0
 40
0.0
 40
1.0
 40
1.0
 40
1.0
 40
1.0
 10
54.6510106665
 20
19.7081226904
 30
0.0
 10
54.6131518814
 20
19.663052422
 30
0.0
 10
54.5942222893
 20
19.5938371243
 30
0.0
 10
54.5942222893
 20
19.5036963048
 30
0.0
  0
SPLINE
  5
3E2
100
AcDbEntity
  8
_1
100
AcDbSpline
 62
7
  6
CONTINUOUS
 70
0
 71
3
 72
8
 73
4
 74
0
 42
0.0000001
 43
0.0000001
 44
0.0000000001
 40
0.0
 40
0.0
 40
0.0
 40
0.0
 40
1.0
 40
1.0
 40
1.0
 40
1.0
 10
52.0307714532
 20
17.3920537968
 30
0.0
 10
52.1412643711
 20
17.4272375258
 30
0.0
 10
52.2390671703
 20
17.4851852121
 30
0.0
 10
52.3240330138
 20
17.5659057278
 30
0.0
  0
SPLINE
  5
3E3
100
AcDbEntity
  8
_1
100
AcDbSpline
 62
7
  6
CONTINUOUS
 70
0
 71
3
 72
8
 73
4
 74
0
 42
0.0000001
 43
0.0000001
 44
0.0000000001
 40
0.0
 40
0.0
 40
0.0
 40
0.0
 40
1.0
 40
1.0
 40
1.0
 40
1.0
 10
54.8071794998
 20
19.7773381295
 30
0.0
 10
54.7409262077
 20
19.7773381295
 30
0.0
 10
54.6888696892
 20
19.7531932416
 30
0.0
 10
54.6510106665
 20
19.7081226904
 30
0.0
  0
SPLINE
  5
3E4
100
AcDbEntity
  8
_1
100
AcDbSpline
 62
7
  6
CONTINUOUS
 70
0
 71
3
 72
8
 73
4
 74
0
 42
0.0000001
 43
0.0000001
 44
0.0000000001
 40
0.0
 40
0.0
 40
0.0
 40
0.0
 40
1.0
 40
1.0
 40
1.0
 40
1.0
 10
52.3240330138
 20
17.5659057278
 30
0.0
 10
52.4220531342
 20
17.6590282621
 30
0.0
 10
52.4883064262
 20
17.7668753447
 30
0.0
 10
52.523220222
 20
17.8907573417
 30
0.0
  0
SPLINE
  5
3E5
100
AcDbEntity
  8
_1
100
AcDbSpline
 62
7
  6
CONTINUOUS
 70
0
 71
3
 72
8
 73
4
 74
0
 42
0.0000001
 43
0.0000001
 44
0.0000000001
 40
0.0
 40
0.0
 40
0.0
 40
0.0
 40
1.0
 40
1.0
 40
1.0
 40
1.0
 10
54.9660591505
 20
19.7077217053
 30
0.0
 10
54.9270672905
 20
19.7531932416
 30
0.0
 10
54.8734333527
 20
19.7773381295
 30
0.0
 10
54.8071794998
 20
19.7773381295
 30
0.0
  0
SPLINE
  5
3E6
100
AcDbEntity
  8
_1
100
AcDbSpline
 62
7
  6
CONTINUOUS
 70
0
 71
3
 72
8
 73
4
 74
0
 42
0.0000001
 43
0.0000001
 44
0.0000000001
 40
0.0
 40
0.0
 40
0.0
 40
0.0
 40
1.0
 40
1.0
 40
1.0
 40
1.0
 10
52.523220222
 20
17.8907573417
 30
0.0
 10
52.5577151176
 20
18.013152987
 30
0.0
 10
52.5766444294
 20
18.1676801982
 30
0.0
 10
52.5766444294
 20
18.3527908149
 30
0.0
  0
SPLINE
  5
3E7
100
AcDbEntity
  8
_1
100
AcDbSpline
 62
7
  6
CONTINUOUS
 70
0
 71
3
 72
8
 73
4
 74
0
 42
0.0000001
 43
0.0000001
 44
0.0000000001
 40
0.0
 40
0.0
 40
0.0
 40
0.0
 40
1.0
 40
1.0
 40
1.0
 40
1.0
 10
55.0248700897
 20
19.5036963048
 30
0.0
 10
55.0248700897
 20
19.5938371243
 30
0.0
 10
55.0043630783
 20
19.663052422
 30
0.0
 10
54.9660591505
 20
19.7077217053
 30
0.0
  0
SPLINE
  5
3E8
100
AcDbEntity
  8
_1
100
AcDbSpline
 62
7
  6
CONTINUOUS
 70
0
 71
3
 72
8
 73
4
 74
0
 42
0.0000001
 43
0.0000001
 44
0.0000000001
 40
0.0
 40
0.0
 40
0.0
 40
0.0
 40
1.0
 40
1.0
 40
1.0
 40
1.0
 10
52.5766444294
 20
19.4875997605
 30
0.0
 10
52.5766444294
 20
19.5841791692
 30
0.0
 10
52.5545599987
 20
19.6566138329
 30
0.0
 10
52.5103910974
 20
19.7049034277
 30
0.0
  0
SPLINE
  5
3E9
100
AcDbEntity
  8
_1
100
AcDbSpline
 62
7
  6
CONTINUOUS
 70
0
 71
3
 72
8
 73
4
 74
0
 42
0.0000001
 43
0.0000001
 44
0.0000000001
 40
0.0
 40
0.0
 40
0.0
 40
0.0
 40
1.0
 40
1.0
 40
1.0
 40
1.0
 10
52.5103910974
 20
19.7049034277
 30
0.0
 10
52.4662219955
 20
19.7531932416
 30
0.0
 10
52.4094332191
 20
19.7773381295
 30
0.0
 10
52.3400248081
 20
19.7773381295
 30
0.0
  0
SPLINE
  5
3EA
100
AcDbEntity
  8
_1
100
AcDbSpline
 62
7
  6
CONTINUOUS
 70
0
 71
3
 72
8
 73
4
 74
0
 42
0.0000001
 43
0.0000001
 44
0.0000000001
 40
0.0
 40
0.0
 40
0.0
 40
0.0
 40
1.0
 40
1.0
 40
1.0
 40
1.0
 10
54.9970288262
 20
17.4760047718
 30
0.0
 10
55.0155517111
 20
17.5218502623
 30
0.0
 10
55.0248701953
 20
17.5790832005
 30
0.0
 10
55.0248700897
 20
17.6477618268
 30
0.0
  0
SPLINE
  5
3EB
100
AcDbEntity
  8
_1
100
AcDbSpline
 62
7
  6
CONTINUOUS
 70
0
 71
3
 72
10
 73
6
 74
0
 42
0.0000001
 43
0.0000001
 44
0.0000000001
 40
0.0
 40
0.0
 40
0.0
 40
0.0
 40
0.9999032529
 40
0.9999791505
 40
1.0
 40
1.0
 40
1.0
 40
1.0
 10
54.7724757149
 20
17.3370966794
 30
0.0
 10
54.8843714184
 20
17.3370966794
 30
0.0
 10
54.9595397854
 20
17.383233115
 30
0.0
 10
54.9970244186
 20
17.4759938629
 30
0.0
 10
54.9970280447
 20
17.4760028377
 30
0.0
 10
54.9970288262
 20
17.4760047718
 30
0.0
  0
SPLINE
  5
3EC
100
AcDbEntity
  8
_1
100
AcDbSpline
 62
7
  6
CONTINUOUS
 70
0
 71
3
 72
8
 73
4
 74
0
 42
0.0000001
 43
0.0000001
 44
0.0000000001
 40
0.0
 40
0.0
 40
0.0
 40
0.0
 40
1.0
 40
1.0
 40
1.0
 40
1.0
 10
54.6588012436
 20
17.3561499135
 30
0.0
 10
54.6920250885
 20
17.3435353132
 30
0.0
 10
54.7298842728
 20
17.3370966794
 30
0.0
 10
54.7724757149
 20
17.3370966794
 30
0.0
  0
SPLINE
  5
3ED
100
AcDbEntity
  8
_1
100
AcDbSpline
 62
7
  6
CONTINUOUS
 70
0
 71
3
 72
8
 73
4
 74
0
 42
0.0000001
 43
0.0000001
 44
0.0000000001
 40
0.0
 40
0.0
 40
0.0
 40
0.0
 40
1.0
 40
1.0
 40
1.0
 40
1.0
 10
52.3400248081
 20
19.7773381295
 30
0.0
 10
52.2690389778
 20
19.7773381295
 30
0.0
 10
52.2122502014
 20
19.7531932416
 30
0.0
 10
52.1707948573
 20
19.7053049942
 30
0.0
  0
SPLINE
  5
3EE
100
AcDbEntity
  8
_1
100
AcDbSpline
 62
7
  6
CONTINUOUS
 70
0
 71
3
 72
8
 73
4
 74
0
 42
0.0000001
 43
0.0000001
 44
0.0000000001
 40
0.0
 40
0.0
 40
0.0
 40
0.0
 40
1.0
 40
1.0
 40
1.0
 40
1.0
 10
54.5634969906
 20
17.4135228704
 30
0.0
 10
54.5926443092
 20
17.3869960768
 30
0.0
 10
54.6241938164
 20
17.3692898395
 30
0.0
 10
54.6588012436
 20
17.3561499135
 30
0.0
  0
SPLINE
  5
3EF
100
AcDbEntity
  8
_1
100
AcDbSpline
 62
7
  6
CONTINUOUS
 70
0
 71
3
 72
8
 73
4
 74
0
 42
0.0000001
 43
0.0000001
 44
0.0000000001
 40
0.0
 40
0.0
 40
0.0
 40
0.0
 40
1.0
 40
1.0
 40
1.0
 40
1.0
 10
52.1707948573
 20
19.7053049942
 30
0.0
 10
52.1286444561
 20
19.6566138329
 30
0.0
 10
52.1081374447
 20
19.5841791692
 30
0.0
 10
52.1081374447
 20
19.4875997605
 30
0.0
  0
SPLINE
  5
3F0
100
AcDbEntity
  8
_1
100
AcDbSpline
 62
7
  6
CONTINUOUS
 70
0
 71
3
 72
8
 73
4
 74
0
 42
0.0000001
 43
0.0000001
 44
0.0000000001
 40
0.0
 40
0.0
 40
0.0
 40
0.0
 40
1.0
 40
1.0
 40
1.0
 40
1.0
 10
54.4822219614
 20
17.5077202963
 30
0.0
 10
54.5074614202
 20
17.4723079503
 30
0.0
 10
54.5342781109
 20
17.4401147913
 30
0.0
 10
54.5634969906
 20
17.4135228704
 30
0.0
  0
SPLINE
  5
3F1
100
AcDbEntity
  8
_1
100
AcDbSpline
 62
7
  6
CONTINUOUS
 70
0
 71
3
 72
8
 73
4
 74
0
 42
0.0000001
 43
0.0000001
 44
0.0000000001
 40
0.0
 40
0.0
 40
0.0
 40
0.0
 40
1.0
 40
1.0
 40
1.0
 40
1.0
 10
52.1081374447
 20
18.3173783602
 30
0.0
 10
52.1081374447
 20
18.1145614447
 30
0.0
 10
52.0702782604
 20
17.9648632827
 30
0.0
 10
51.9945600761
 20
17.8650645481
 30
0.0
  0
SPLINE
  5
3F2
100
AcDbEntity
  8
_1
100
AcDbSpline
 62
7
  6
CONTINUOUS
 70
0
 71
3
 72
8
 73
4
 74
0
 42
0.0000001
 43
0.0000001
 44
0.0000000001
 40
0.0
 40
0.0
 40
0.0
 40
0.0
 40
1.0
 40
1.0
 40
1.0
 40
1.0
 10
51.9945600761
 20
17.8650645481
 30
0.0
 10
51.9327199304
 20
17.7835574656
 30
0.0
 10
51.8351049357
 20
17.7364080503
 30
0.0
 10
51.7017149916
 20
17.7218625007
 30
0.0
  0
SPLINE
  5
3F3
100
AcDbEntity
  8
_1
100
AcDbSpline
 62
7
  6
CONTINUOUS
 70
0
 71
3
 72
8
 73
4
 74
0
 42
0.0000001
 43
0.0000001
 44
0.0000000001
 40
0.0
 40
0.0
 40
0.0
 40
0.0
 40
1.0
 40
1.0
 40
1.0
 40
1.0
 10
51.7017149916
 20
17.7218625007
 30
0.0
 10
51.6717797043
 20
17.7185981976
 30
0.0
 10
51.6400426454
 20
17.7169759574
 30
0.0
 10
51.6065038139
 20
17.7169759574
 30
0.0
  0
SPLINE
  5
3F4
100
AcDbEntity
  8
_1
100
AcDbSpline
 62
7
  6
CONTINUOUS
 70
0
 71
3
 72
8
 73
4
 74
0
 42
0.0000001
 43
0.0000001
 44
0.0000000001
 40
0.0
 40
0.0
 40
0.0
 40
0.0
 40
1.0
 40
1.0
 40
1.0
 40
1.0
 10
51.6065038139
 20
17.7169759574
 30
0.0
 10
51.473996669
 20
17.7169759574
 30
0.0
 10
51.3698839123
 20
17.7411208095
 30
0.0
 10
51.2970896921
 20
17.7890432821
 30
0.0
  0
SPLINE
  5
3F5
100
AcDbEntity
  8
_1
100
AcDbSpline
 62
7
  6
CONTINUOUS
 70
0
 71
3
 72
8
 73
4
 74
0
 42
0.0000001
 43
0.0000001
 44
0.0000000001
 40
0.0
 40
0.0
 40
0.0
 40
0.0
 40
1.0
 40
1.0
 40
1.0
 40
1.0
 10
53.4663348287
 20
17.4063121153
 30
0.0
 10
53.5073490021
 20
17.4513823958
 30
0.0
 10
53.5278560135
 20
17.5205976846
 30
0.0
 10
53.5278560135
 20
17.6107385399
 30
0.0
  0
SPLINE
  5
3F6
100
AcDbEntity
  8
_1
100
AcDbSpline
 62
7
  6
CONTINUOUS
 70
0
 71
3
 72
8
 73
4
 74
0
 42
0.0000001
 43
0.0000001
 44
0.0000000001
 40
0.0
 40
0.0
 40
0.0
 40
0.0
 40
1.0
 40
1.0
 40
1.0
 40
1.0
 10
51.2970896921
 20
17.7890432821
 30
0.0
 10
51.2231797134
 20
17.8377002897
 30
0.0
 10
51.1711234753
 20
17.9069155874
 30
0.0
 10
51.1427290923
 20
17.9954467614
 30
0.0
  0
SPLINE
  5
3F7
100
AcDbEntity
  8
_1
100
AcDbSpline
 62
7
  6
CONTINUOUS
 70
0
 71
3
 72
8
 73
4
 74
0
 42
0.0000001
 43
0.0000001
 44
0.0000000001
 40
0.0
 40
0.0
 40
0.0
 40
0.0
 40
1.0
 40
1.0
 40
1.0
 40
1.0
 10
51.63963046
 20
17.3370966794
 30
0.0
 10
51.7879120781
 20
17.3370966794
 30
0.0
 10
51.9188418037
 20
17.3564125764
 30
0.0
 10
52.0307714532
 20
17.3920537968
 30
0.0
  0
SPLINE
  5
3F8
100
AcDbEntity
  8
_1
100
AcDbSpline
 62
7
  6
CONTINUOUS
 70
0
 71
3
 72
8
 73
4
 74
0
 42
0.0000001
 43
0.0000001
 44
0.0000000001
 40
0.0
 40
0.0
 40
0.0
 40
0.0
 40
1.0
 40
1.0
 40
1.0
 40
1.0
 10
51.1427290922
 20
17.9954467614
 30
0.0
 10
51.1143346989
 20
18.0839779677
 30
0.0
 10
51.100137645
 20
18.1950443806
 30
0.0
 10
51.100137645
 20
18.3270363154
 30
0.0
  0
SPLINE
  5
3F9
100
AcDbEntity
  8
_1
100
AcDbSpline
 62
7
  6
CONTINUOUS
 70
0
 71
3
 72
8
 73
4
 74
0
 42
0.0000001
 43
0.0000001
 44
0.0000000001
 40
0.0
 40
0.0
 40
0.0
 40
0.0
 40
1.0
 40
1.0
 40
1.0
 40
1.0
 10
51.100137645
 20
19.4875997605
 30
0.0
 10
51.100137645
 20
19.5841791691
 30
0.0
 10
51.0780529339
 20
19.6566138329
 30
0.0
 10
51.0354615266
 20
19.7049034977
 30
0.0
  0
SPLINE
  5
3FA
100
AcDbEntity
  8
_1
100
AcDbSpline
 62
7
  6
CONTINUOUS
 70
0
 71
3
 72
8
 73
4
 74
0
 42
0.0000001
 43
0.0000001
 44
0.0000000001
 40
0.0
 40
0.0
 40
0.0
 40
0.0
 40
1.0
 40
1.0
 40
1.0
 40
1.0
 10
51.0354615266
 20
19.7049034977
 30
0.0
 10
50.9928700497
 20
19.7531932416
 30
0.0
 10
50.9360812733
 20
19.7773381295
 30
0.0
 10
50.8635177433
 20
19.7773381295
 30
0.0
  0
SPLINE
  5
3FB
100
AcDbEntity
  8
_1
100
AcDbSpline
 62
7
  6
CONTINUOUS
 70
0
 71
3
 72
8
 73
4
 74
0
 42
0.0000001
 43
0.0000001
 44
0.0000000001
 40
0.0
 40
0.0
 40
0.0
 40
0.0
 40
1.0
 40
1.0
 40
1.0
 40
1.0
 10
50.6947290015
 20
19.7049035689
 30
0.0
 10
50.6521373913
 20
19.6566138329
 30
0.0
 10
50.6316303799
 20
19.5841791691
 30
0.0
 10
50.6316303799
 20
19.4875997605
 30
0.0
  0
SPLINE
  5
3FC
100
AcDbEntity
  8
_1
100
AcDbSpline
 62
7
  6
CONTINUOUS
 70
0
 71
3
 72
8
 73
4
 74
0
 42
0.0000001
 43
0.0000001
 44
0.0000000001
 40
0.0
 40
0.0
 40
0.0
 40
0.0
 40
1.0
 40
1.0
 40
1.0
 40
1.0
 10
51.1807366469
 20
17.3955734802
 30
0.0
 10
51.308362878
 20
17.3580222348
 30
0.0
 10
51.4613770344
 20
17.3370966794
 30
0.0
 10
51.63963046
 20
17.3370966794
 30
0.0
  0
SPLINE
  5
3FD
100
AcDbEntity
  8
_1
100
AcDbSpline
 62
7
  6
CONTINUOUS
 70
0
 71
3
 72
8
 73
4
 74
0
 42
0.0000001
 43
0.0000001
 44
0.0000000001
 40
0.0
 40
0.0
 40
0.0
 40
0.0
 40
1.0
 40
1.0
 40
1.0
 40
1.0
 10
50.8662813212
 20
17.5765342294
 30
0.0
 10
50.9471234886
 20
17.4948431583
 30
0.0
 10
51.0512362454
 20
17.4336761596
 30
0.0
 10
51.1807366469
 20
17.3955734802
 30
0.0
  0
SPLINE
  5
3FE
100
AcDbEntity
  8
_1
100
AcDbSpline
 62
7
  6
CONTINUOUS
 70
0
 71
3
 72
8
 73
4
 74
0
 42
0.0000001
 43
0.0000001
 44
0.0000000001
 40
0.0
 40
0.0
 40
0.0
 40
0.0
 40
1.0
 40
1.0
 40
1.0
 40
1.0
 10
50.6884191563
 20
17.8924286904
 30
0.0
 10
50.7262783405
 20
17.7636560502
 30
0.0
 10
50.7846445362
 20
17.6590282621
 30
0.0
 10
50.8662813212
 20
17.5765342294
 30
0.0
  0
SPLINE
  5
3FF
100
AcDbEntity
  8
_1
100
AcDbSpline
 62
7
  6
CONTINUOUS
 70
0
 71
3
 72
8
 73
4
 74
0
 42
0.0000001
 43
0.0000001
 44
0.0000000001
 40
0.0
 40
0.0
 40
0.0
 40
0.0
 40
1.0
 40
1.0
 40
1.0
 40
1.0
 10
50.6316303799
 20
18.3527908149
 30
0.0
 10
50.6316303799
 20
18.1741187873
 30
0.0
 10
50.650559972
 20
18.0212013306
 30
0.0
 10
50.6884191563
 20
17.8924286904
 30
0.0
  0
SPLINE
  5
400
100
AcDbEntity
  8
_1
100
AcDbSpline
 62
7
  6
CONTINUOUS
 70
0
 71
3
 72
8
 73
4
 74
0
 42
0.0000001
 43
0.0000001
 44
0.0000000001
 40
0.0
 40
0.0
 40
0.0
 40
0.0
 40
1.0
 40
1.0
 40
1.0
 40
1.0
 10
20.2250753084
 20
16.8321872232
 30
0.0
 10
20.1816461161
 20
16.8321872232
 30
0.0
 10
20.1405353116
 20
16.8345947835
 30
0.0
 10
20.1017149916
 20
16.8394341126
 30
0.0
  0
SPLINE
  5
401
100
AcDbEntity
  8
_1
100
AcDbSpline
 62
7
  6
CONTINUOUS
 70
0
 71
3
 72
8
 73
4
 74
0
 42
0.0000001
 43
0.0000001
 44
0.0000000001
 40
0.0
 40
0.0
 40
0.0
 40
0.0
 40
1.0
 40
1.0
 40
1.0
 40
1.0
 10
20.539964501
 20
16.8925493983
 30
0.0
 10
20.4514333645
 20
16.8523079482
 30
0.0
 10
20.3457993904
 20
16.8321872232
 30
0.0
 10
20.2250753084
 20
16.8321872232
 30
0.0
  0
SPLINE
  5
402
100
AcDbEntity
  8
_1
100
AcDbSpline
 62
7
  6
CONTINUOUS
 70
0
 71
3
 72
8
 73
4
 74
0
 42
0.0000001
 43
0.0000001
 44
0.0000000001
 40
0.0
 40
0.0
 40
0.0
 40
0.0
 40
1.0
 40
1.0
 40
1.0
 40
1.0
 10
20.7414016203
 20
17.0594008301
 30
0.0
 10
20.6948939005
 20
16.9881228422
 30
0.0
 10
20.6284956375
 20
16.9327908484
 30
0.0
 10
20.539964501
 20
16.8925493983
 30
0.0
  0
SPLINE
  5
403
100
AcDbEntity
  8
_1
100
AcDbSpline
 62
7
  6
CONTINUOUS
 70
0
 71
3
 72
8
 73
4
 74
0
 42
0.0000001
 43
0.0000001
 44
0.0000000001
 40
0.0
 40
0.0
 40
0.0
 40
0.0
 40
1.0
 40
1.0
 40
1.0
 40
1.0
 10
20.8105883041
 20
17.2999940803
 30
0.0
 10
20.8105883041
 20
17.2104568472
 30
0.0
 10
20.7874494234
 20
17.129973947
 30
0.0
 10
20.7414016203
 20
17.0594008301
 30
0.0
  0
SPLINE
  5
404
100
AcDbEntity
  8
_1
100
AcDbSpline
 62
7
  6
CONTINUOUS
 70
0
 71
3
 72
8
 73
4
 74
0
 42
0.0000001
 43
0.0000001
 44
0.0000000001
 40
0.0
 40
0.0
 40
0.0
 40
0.0
 40
1.0
 40
1.0
 40
1.0
 40
1.0
 10
20.7703468015
 20
17.4881227624
 30
0.0
 10
20.7965038458
 20
17.4368149926
 30
0.0
 10
20.8105883041
 20
17.3744407584
 30
0.0
 10
20.8105883041
 20
17.2999940803
 30
0.0
  0
SPLINE
  5
405
100
AcDbEntity
  8
_1
100
AcDbSpline
 62
7
  6
CONTINUOUS
 70
0
 71
3
 72
8
 73
4
 74
0
 42
0.0000001
 43
0.0000001
 44
0.0000000001
 40
0.0
 40
0.0
 40
0.0
 40
0.0
 40
1.0
 40
1.0
 40
1.0
 40
1.0
 10
20.6594462823
 20
17.615554938
 30
0.0
 10
20.7069663444
 20
17.5816841861
 30
0.0
 10
20.7441896835
 20
17.5394306769
 30
0.0
 10
20.7703468015
 20
17.4881227624
 30
0.0
  0
SPLINE
  5
406
100
AcDbEntity
  8
_1
100
AcDbSpline
 62
7
  6
CONTINUOUS
 70
0
 71
3
 72
8
 73
4
 74
0
 42
0.0000001
 43
0.0000001
 44
0.0000000001
 40
0.0
 40
0.0
 40
0.0
 40
0.0
 40
1.0
 40
1.0
 40
1.0
 40
1.0
 10
20.4874950828
 20
17.7009540436
 30
0.0
 10
20.5550549665
 20
17.6772576859
 30
0.0
 10
20.6123991647
 20
17.6490885904
 30
0.0
 10
20.6594462823
 20
17.615554938
 30
0.0
  0
SPLINE
  5
407
100
AcDbEntity
  8
_1
100
AcDbSpline
 62
7
  6
CONTINUOUS
 70
0
 71
3
 72
8
 73
4
 74
0
 42
0.0000001
 43
0.0000001
 44
0.0000000001
 40
0.0
 40
0.0
 40
0.0
 40
0.0
 40
1.0
 40
1.0
 40
1.0
 40
1.0
 10
20.262286168
 20
17.7657374312
 30
0.0
 10
20.3447933832
 20
17.7456681421
 30
0.0
 10
20.4202460685
 20
17.7245413651
 30
0.0
 10
20.4874950828
 20
17.7009540436
 30
0.0
  0
SPLINE
  5
408
100
AcDbEntity
  8
_1
100
AcDbSpline
 62
7
  6
CONTINUOUS
 70
0
 71
3
 72
8
 73
4
 74
0
 42
0.0000001
 43
0.0000001
 44
0.0000000001
 40
0.0
 40
0.0
 40
0.0
 40
0.0
 40
1.0
 40
1.0
 40
1.0
 40
1.0
 10
20.1192697458
 20
17.8034163666
 30
0.0
 10
20.1476114458
 20
17.7949636015
 30
0.0
 10
20.1959008482
 20
17.7818851848
 30
0.0
 10
20.262286168
 20
17.7657374312
 30
0.0
  0
SPLINE
  5
409
100
AcDbEntity
  8
_1
100
AcDbSpline
 62
7
  6
CONTINUOUS
 70
0
 71
3
 72
8
 73
4
 74
0
 42
0.0000001
 43
0.0000001
 44
0.0000000001
 40
0.0
 40
0.0
 40
0.0
 40
0.0
 40
1.0
 40
1.0
 40
1.0
 40
1.0
 10
20.3818117096
 20
18.0975344239
 30
0.0
 10
20.343787376
 20
18.1289678802
 30
0.0
 10
20.2834251562
 20
18.1450645318
 30
0.0
 10
20.2009304205
 20
18.1450645318
 30
0.0
  0
SPLINE
  5
40A
100
AcDbEntity
  8
_1
100
AcDbSpline
 62
7
  6
CONTINUOUS
 70
0
 71
3
 72
8
 73
4
 74
0
 42
0.0000001
 43
0.0000001
 44
0.0000000001
 40
0.0
 40
0.0
 40
0.0
 40
0.0
 40
1.0
 40
1.0
 40
1.0
 40
1.0
 10
20.4789977629
 20
17.9682053924
 30
0.0
 10
20.4514333645
 20
18.023334085
 30
0.0
 10
20.4192400614
 20
18.066593646
 30
0.0
 10
20.3818117096
 20
18.0975344239
 30
0.0
  0
SPLINE
  5
40B
100
AcDbEntity
  8
_1
100
AcDbSpline
 62
7
  6
CONTINUOUS
 70
0
 71
3
 72
8
 73
4
 74
0
 42
0.0000001
 43
0.0000001
 44
0.0000000001
 40
0.0
 40
0.0
 40
0.0
 40
0.0
 40
1.0
 40
1.0
 40
1.0
 40
1.0
 10
20.5359404102
 20
17.883494996
 30
0.0
 10
20.5178316274
 20
17.9005977204
 30
0.0
 10
20.4987171331
 20
17.9287667265
 30
0.0
 10
20.4789977629
 20
17.9682053924
 30
0.0
  0
SPLINE
  5
40C
100
AcDbEntity
  8
_1
100
AcDbSpline
 62
7
  6
CONTINUOUS
 70
0
 71
3
 72
8
 73
4
 74
0
 42
0.0000001
 43
0.0000001
 44
0.0000000001
 40
0.0
 40
0.0
 40
0.0
 40
0.0
 40
1.0
 40
1.0
 40
1.0
 40
1.0
 10
20.6144111791
 20
17.8583441665
 30
0.0
 10
20.5802058617
 20
17.8583441665
 30
0.0
 10
20.5540489593
 20
17.8663924923
 30
0.0
 10
20.5359404102
 20
17.883494996
 30
0.0
  0
SPLINE
  5
40D
100
AcDbEntity
  8
_1
100
AcDbSpline
 62
7
  6
CONTINUOUS
 70
0
 71
3
 72
8
 73
4
 74
0
 42
0.0000001
 43
0.0000001
 44
0.0000000001
 40
0.0
 40
0.0
 40
0.0
 40
0.0
 40
1.0
 40
1.0
 40
1.0
 40
1.0
 10
20.7079726098
 20
17.9005978092
 30
0.0
 10
20.6828214565
 20
17.8724287143
 30
0.0
 10
20.6516345182
 20
17.8583441665
 30
0.0
 10
20.6144111791
 20
17.8583441665
 30
0.0
  0
SPLINE
  5
40E
100
AcDbEntity
  8
_1
100
AcDbSpline
 62
7
  6
CONTINUOUS
 70
0
 71
3
 72
8
 73
4
 74
0
 42
0.0000001
 43
0.0000001
 44
0.0000000001
 40
0.0
 40
0.0
 40
0.0
 40
0.0
 40
1.0
 40
1.0
 40
1.0
 40
1.0
 10
20.7462020555
 20
17.9971771826
 30
0.0
 10
20.7462020555
 20
17.9609598508
 30
0.0
 10
20.7331236044
 20
17.9287667265
 30
0.0
 10
20.7079726098
 20
17.9005978092
 30
0.0
  0
SPLINE
  5
40F
100
AcDbEntity
  8
_1
100
AcDbSpline
 62
7
  6
CONTINUOUS
 70
0
 71
3
 72
8
 73
4
 74
0
 42
0.0000001
 43
0.0000001
 44
0.0000000001
 40
0.0
 40
0.0
 40
0.0
 40
0.0
 40
1.0
 40
1.0
 40
1.0
 40
1.0
 10
20.715821457
 20
18.1167963979
 30
0.0
 10
20.7361416259
 20
18.075647979
 30
0.0
 10
20.7462020555
 20
18.0354065289
 30
0.0
 10
20.7462020555
 20
17.9971771826
 30
0.0
  0
SPLINE
  5
410
100
AcDbEntity
  8
_1
100
AcDbSpline
 62
7
  6
CONTINUOUS
 70
0
 71
3
 72
8
 73
4
 74
0
 42
0.0000001
 43
0.0000001
 44
0.0000000001
 40
0.0
 40
0.0
 40
0.0
 40
0.0
 40
1.0
 40
1.0
 40
1.0
 40
1.0
 10
20.6202368465
 20
18.2333469185
 30
0.0
 10
20.6637069622
 20
18.1963723292
 30
0.0
 10
20.6959002653
 20
18.1571368863
 30
0.0
 10
20.715821457
 20
18.1167963979
 30
0.0
  0
SPLINE
  5
411
100
AcDbEntity
  8
_1
100
AcDbSpline
 62
7
  6
CONTINUOUS
 70
0
 71
3
 72
8
 73
4
 74
0
 42
0.0000001
 43
0.0000001
 44
0.0000000001
 40
0.0
 40
0.0
 40
0.0
 40
0.0
 40
1.0
 40
1.0
 40
1.0
 40
1.0
 10
20.4554573932
 20
18.3231329014
 30
0.0
 10
20.5218556562
 20
18.3010001173
 30
0.0
 10
20.5761818329
 20
18.2708190074
 30
0.0
 10
20.6202368465
 20
18.2333469185
 30
0.0
  0
SPLINE
  5
412
100
AcDbEntity
  8
_1
100
AcDbSpline
 62
7
  6
CONTINUOUS
 70
0
 71
3
 72
8
 73
4
 74
0
 42
0.0000001
 43
0.0000001
 44
0.0000000001
 40
0.0
 40
0.0
 40
0.0
 40
0.0
 40
1.0
 40
1.0
 40
1.0
 40
1.0
 10
20.221050922
 20
18.3573381295
 30
0.0
 10
20.3115944305
 20
18.3573381295
 30
0.0
 10
20.3890591303
 20
18.3452656855
 30
0.0
 10
20.4554573932
 20
18.3231329014
 30
0.0
  0
SPLINE
  5
413
100
AcDbEntity
  8
_1
100
AcDbSpline
 62
7
  6
CONTINUOUS
 70
0
 71
3
 72
8
 73
4
 74
0
 42
0.0000001
 43
0.0000001
 44
0.0000000001
 40
0.0
 40
0.0
 40
0.0
 40
0.0
 40
1.0
 40
1.0
 40
1.0
 40
1.0
 10
20.1017149916
 20
18.3504036713
 30
0.0
 10
20.1394538977
 20
18.3550237265
 30
0.0
 10
20.1792313575
 20
18.3573381295
 30
0.0
 10
20.221050922
 20
18.3573381295
 30
0.0
  0
SPLINE
  5
414
100
AcDbEntity
  8
_1
100
AcDbSpline
 62
7
  6
CONTINUOUS
 70
0
 71
3
 72
8
 73
4
 74
0
 42
0.0000001
 43
0.0000001
 44
0.0000000001
 40
0.0
 40
0.0
 40
0.0
 40
0.0
 40
1.0
 40
1.0
 40
1.0
 40
1.0
 10
20.3701689741
 20
19.2377774597
 30
0.0
 10
20.2785157846
 20
19.2747425355
 30
0.0
 10
20.2020571261
 20
19.3270563807
 30
0.0
 10
20.1411641394
 20
19.3949947665
 30
0.0
  0
SPLINE
  5
415
100
AcDbEntity
  8
_1
100
AcDbSpline
 62
7
  6
CONTINUOUS
 70
0
 71
3
 72
8
 73
4
 74
0
 42
0.0000001
 43
0.0000001
 44
0.0000000001
 40
0.0
 40
0.0
 40
0.0
 40
0.0
 40
1.0
 40
1.0
 40
1.0
 40
1.0
 10
20.6799244058
 20
19.1821872232
 30
0.0
 10
20.5642300022
 20
19.1821872232
 30
0.0
 10
20.4606084001
 20
19.2013019124
 30
0.0
 10
20.3701689741
 20
19.2377774597
 30
0.0
  0
SPLINE
  5
416
100
AcDbEntity
  8
_1
100
AcDbSpline
 62
7
  6
CONTINUOUS
 70
0
 71
3
 72
8
 73
4
 74
0
 42
0.0000001
 43
0.0000001
 44
0.0000000001
 40
0.0
 40
0.0
 40
0.0
 40
0.0
 40
1.0
 40
1.0
 40
1.0
 40
1.0
 10
20.988707004
 20
19.2366872
 30
0.0
 10
20.8982340467
 20
19.2002958759
 30
0.0
 10
20.7956184518
 20
19.1821872232
 30
0.0
 10
20.6799244058
 20
19.1821872232
 30
0.0
  0
SPLINE
  5
417
100
AcDbEntity
  8
_1
100
AcDbSpline
 62
7
  6
CONTINUOUS
 70
0
 71
3
 72
8
 73
4
 74
0
 42
0.0000001
 43
0.0000001
 44
0.0000000001
 40
0.0
 40
0.0
 40
0.0
 40
0.0
 40
1.0
 40
1.0
 40
1.0
 40
1.0
 10
21.2158644194
 20
19.3937045061
 30
0.0
 10
21.1537673843
 20
19.3250443687
 30
0.0
 10
21.078314699
 20
19.2727304859
 30
0.0
 10
20.988707004
 20
19.2366872
 30
0.0
  0
SPLINE
  5
418
100
AcDbEntity
  8
_1
100
AcDbSpline
 62
7
  6
CONTINUOUS
 70
0
 71
3
 72
8
 73
4
 74
0
 42
0.0000001
 43
0.0000001
 44
0.0000000001
 40
0.0
 40
0.0
 40
0.0
 40
0.0
 40
1.0
 40
1.0
 40
1.0
 40
1.0
 10
21.3546701448
 20
19.6360093921
 30
0.0
 10
21.3237872493
 20
19.5423481812
 30
0.0
 10
21.2775098455
 20
19.4618653034
 30
0.0
 10
21.2158644194
 20
19.3937045061
 30
0.0
  0
SPLINE
  5
419
100
AcDbEntity
  8
_1
100
AcDbSpline
 62
7
  6
CONTINUOUS
 70
0
 71
3
 72
8
 73
4
 74
0
 42
0.0000001
 43
0.0000001
 44
0.0000000001
 40
0.0
 40
0.0
 40
0.0
 40
0.0
 40
1.0
 40
1.0
 40
1.0
 40
1.0
 10
21.4012523067
 20
19.946774741
 30
0.0
 10
21.4012523067
 20
19.8320866128
 30
0.0
 10
21.3851554763
 20
19.7284648766
 30
0.0
 10
21.3546701448
 20
19.6360093921
 30
0.0
  0
SPLINE
  5
41A
100
AcDbEntity
  8
_1
100
AcDbSpline
 62
7
  6
CONTINUOUS
 70
0
 71
3
 72
8
 73
4
 74
0
 42
0.0000001
 43
0.0000001
 44
0.0000000001
 40
0.0
 40
0.0
 40
0.0
 40
0.0
 40
1.0
 40
1.0
 40
1.0
 40
1.0
 10
21.3167450549
 20
20.3491891263
 30
0.0
 10
21.3730830324
 20
20.2345010688
 30
0.0
 10
21.4012523067
 20
20.1006982674
 30
0.0
 10
21.4012523067
 20
19.946774741
 30
0.0
  0
SPLINE
  5
41B
100
AcDbEntity
  8
_1
100
AcDbSpline
 62
7
  6
CONTINUOUS
 70
0
 71
3
 72
8
 73
4
 74
0
 42
0.0000001
 43
0.0000001
 44
0.0000000001
 40
0.0
 40
0.0
 40
0.0
 40
0.0
 40
1.0
 40
1.0
 40
1.0
 40
1.0
 10
21.0672482622
 20
20.6137767782
 30
0.0
 10
21.176906265
 20
20.551402544
 30
0.0
 10
21.2604070079
 20
20.4638773253
 30
0.0
 10
21.3167450549
 20
20.3491891263
 30
0.0
  0
SPLINE
  5
41C
100
AcDbEntity
  8
_1
100
AcDbSpline
 62
7
  6
CONTINUOUS
 70
0
 71
3
 72
8
 73
4
 74
0
 42
0.0000001
 43
0.0000001
 44
0.0000000001
 40
0.0
 40
0.0
 40
0.0
 40
0.0
 40
1.0
 40
1.0
 40
1.0
 40
1.0
 10
20.673888005
 20
20.7073381295
 30
0.0
 10
20.8268053901
 20
20.7073381295
 30
0.0
 10
20.9575902593
 20
20.6761510124
 30
0.0
 10
21.0672482622
 20
20.6137767782
 30
0.0
  0
SPLINE
  5
41D
100
AcDbEntity
  8
_1
100
AcDbSpline
 62
7
  6
CONTINUOUS
 70
0
 71
3
 72
8
 73
4
 74
0
 42
0.0000001
 43
0.0000001
 44
0.0000000001
 40
0.0
 40
0.0
 40
0.0
 40
0.0
 40
1.0
 40
1.0
 40
1.0
 40
1.0
 10
20.372077279
 20
20.6540181897
 30
0.0
 10
20.4606084001
 20
20.6892294636
 30
0.0
 10
20.5612119806
 20
20.7073381295
 30
0.0
 10
20.673888005
 20
20.7073381295
 30
0.0
  0
SPLINE
  5
41E
100
AcDbEntity
  8
_1
100
AcDbSpline
 62
7
  6
CONTINUOUS
 70
0
 71
3
 72
8
 73
4
 74
0
 42
0.0000001
 43
0.0000001
 44
0.0000000001
 40
0.0
 40
0.0
 40
0.0
 40
0.0
 40
1.0
 40
1.0
 40
1.0
 40
1.0
 10
20.146456284
 20
20.5023582046
 30
0.0
 10
20.2080930841
 20
20.5685051133
 30
0.0
 10
20.2835461271
 20
20.6188069036
 30
0.0
 10
20.372077279
 20
20.6540181897
 30
0.0
  0
SPLINE
  5
41F
100
AcDbEntity
  8
_1
100
AcDbSpline
 62
7
  6
CONTINUOUS
 70
0
 71
3
 72
8
 73
4
 74
0
 42
0.0000001
 43
0.0000001
 44
0.0000000001
 40
0.0
 40
0.0
 40
0.0
 40
0.0
 40
1.0
 40
1.0
 40
1.0
 40
1.0
 10
22.6427008629
 20
19.8974790591
 30
0.0
 10
22.5501454246
 20
19.8200141688
 30
0.0
 10
22.4123185051
 20
19.7817848226
 30
0.0
 10
22.2292201889
 20
19.7817848226
 30
0.0
  0
SPLINE
  5
420
100
AcDbEntity
  8
_1
100
AcDbSpline
 62
7
  6
CONTINUOUS
 70
0
 71
3
 72
8
 73
4
 74
0
 42
0.0000001
 43
0.0000001
 44
0.0000000001
 40
0.0
 40
0.0
 40
0.0
 40
0.0
 40
1.0
 40
1.0
 40
1.0
 40
1.0
 10
22.7815338743
 20
20.2395312836
 30
0.0
 10
22.7815338743
 20
20.0886258235
 30
0.0
 10
22.7352561128
 20
19.9749437918
 30
0.0
 10
22.6427008629
 20
19.8974790591
 30
0.0
  0
SPLINE
  5
421
100
AcDbEntity
  8
_1
100
AcDbSpline
 62
7
  6
CONTINUOUS
 70
0
 71
3
 72
8
 73
4
 74
0
 42
0.0000001
 43
0.0000001
 44
0.0000000001
 40
0.0
 40
0.0
 40
0.0
 40
0.0
 40
1.0
 40
1.0
 40
1.0
 40
1.0
 10
22.74689615
 20
20.4294964347
 30
0.0
 10
22.7694614303
 20
20.373334085
 30
0.0
 10
22.7815338743
 20
20.3099538436
 30
0.0
 10
22.7815338743
 20
20.2395312836
 30
0.0
  0
SPLINE
  5
422
100
AcDbEntity
  8
_1
100
AcDbSpline
 62
7
  6
CONTINUOUS
 70
0
 71
3
 72
8
 73
4
 74
0
 42
0.0000001
 43
0.0000001
 44
0.0000000001
 40
0.0
 40
0.0
 40
0.0
 40
0.0
 40
1.0
 40
1.0
 40
1.0
 40
1.0
 10
22.6464766771
 20
20.572243691
 30
0.0
 10
22.6909907234
 20
20.5332938781
 30
0.0
 10
22.7241896761
 20
20.4860101988
 30
0.0
 10
22.74689615
 20
20.4294964347
 30
0.0
  0
SPLINE
  5
423
100
AcDbEntity
  8
_1
100
AcDbSpline
 62
7
  6
CONTINUOUS
 70
0
 71
3
 72
8
 73
4
 74
0
 42
0.0000001
 43
0.0000001
 44
0.0000000001
 40
0.0
 40
0.0
 40
0.0
 40
0.0
 40
1.0
 40
1.0
 40
1.0
 40
1.0
 10
22.4907528989
 20
20.6558992011
 30
0.0
 10
22.5511514318
 20
20.6389276733
 30
0.0
 10
22.6024595869
 20
20.6107586672
 30
0.0
 10
22.6464766771
 20
20.572243691
 30
0.0
  0
SPLINE
  5
424
100
AcDbEntity
  8
_1
100
AcDbSpline
 62
7
  6
CONTINUOUS
 70
0
 71
3
 72
8
 73
4
 74
0
 42
0.0000001
 43
0.0000001
 44
0.0000000001
 40
0.0
 40
0.0
 40
0.0
 40
0.0
 40
1.0
 40
1.0
 40
1.0
 40
1.0
 10
22.2292201891
 20
20.6821872344
 30
0.0
 10
22.3418962134
 20
20.6821872344
 30
0.0
 10
22.4294213427
 20
20.6731329014
 30
0.0
 10
22.4907528989
 20
20.6558992011
 30
0.0
  0
SPLINE
  5
425
100
AcDbEntity
  8
_1
100
AcDbSpline
 62
7
  6
CONTINUOUS
 70
0
 71
3
 72
8
 73
4
 74
0
 42
0.0000001
 43
0.0000001
 44
0.0000000001
 40
0.0
 40
0.0
 40
0.0
 40
0.0
 40
1.0
 40
1.0
 40
1.0
 40
1.0
 10
21.7020570409
 20
20.6399336805
 30
0.0
 10
21.7322379721
 20
20.6681026867
 30
0.0
 10
21.7795217408
 20
20.6821872344
 30
0.0
 10
21.8459203615
 20
20.6821872344
 30
0.0
  0
SPLINE
  5
426
100
AcDbEntity
  8
_1
100
AcDbSpline
 62
7
  6
CONTINUOUS
 70
0
 71
3
 72
8
 73
4
 74
0
 42
0.0000001
 43
0.0000001
 44
0.0000000001
 40
0.0
 40
0.0
 40
0.0
 40
0.0
 40
1.0
 40
1.0
 40
1.0
 40
1.0
 10
21.6567852867
 20
20.49908865
 30
0.0
 10
21.6567852867
 20
20.5644809952
 30
0.0
 10
21.6718761099
 20
20.6117646744
 30
0.0
 10
21.7020570409
 20
20.6399336805
 30
0.0
  0
SPLINE
  5
427
100
AcDbEntity
  8
_1
100
AcDbSpline
 62
7
  6
CONTINUOUS
 70
0
 71
3
 72
8
 73
4
 74
0
 42
0.0000001
 43
0.0000001
 44
0.0000000001
 40
0.0
 40
0.0
 40
0.0
 40
0.0
 40
1.0
 40
1.0
 40
1.0
 40
1.0
 10
21.8066846502
 20
19.1821872232
 30
0.0
 10
21.7614132536
 20
19.1821872232
 30
0.0
 10
21.7251959217
 20
19.1982838035
 30
0.0
 10
21.6980146733
 20
19.2274417697
 30
0.0
  0
SPLINE
  5
428
100
AcDbEntity
  8
_1
100
AcDbSpline
 62
7
  6
CONTINUOUS
 70
0
 71
3
 72
8
 73
4
 74
0
 42
0.0000001
 43
0.0000001
 44
0.0000000001
 40
0.0
 40
0.0
 40
0.0
 40
0.0
 40
1.0
 40
1.0
 40
1.0
 40
1.0
 10
21.9133246311
 20
19.22846489
 30
0.0
 10
21.8851557148
 20
19.1982838035
 30
0.0
 10
21.8489383829
 20
19.1821872232
 30
0.0
 10
21.8066846502
 20
19.1821872232
 30
0.0
  0
SPLINE
  5
429
100
AcDbEntity
  8
_1
100
AcDbSpline
 62
7
  6
CONTINUOUS
 70
0
 71
3
 72
8
 73
4
 74
0
 42
0.0000001
 43
0.0000001
 44
0.0000000001
 40
0.0
 40
0.0
 40
0.0
 40
0.0
 40
1.0
 40
1.0
 40
1.0
 40
1.0
 10
22.1767854133
 20
18.2174991061
 30
0.0
 10
22.1767854133
 20
18.1822878709
 30
0.0
 10
22.1647129694
 20
18.1541187753
 30
0.0
 10
22.1415741109
 20
18.1329920634
 30
0.0
  0
SPLINE
  5
42A
100
AcDbEntity
  8
_1
100
AcDbSpline
 62
7
  6
CONTINUOUS
 70
0
 71
3
 72
8
 73
4
 74
0
 42
0.0000001
 43
0.0000001
 44
0.0000000001
 40
0.0
 40
0.0
 40
0.0
 40
0.0
 40
1.0
 40
1.0
 40
1.0
 40
1.0
 10
22.1415741109
 20
18.2999940451
 30
0.0
 10
22.1647129694
 20
18.2788673331
 30
0.0
 10
22.1767854133
 20
18.2517043342
 30
0.0
 10
22.1767854133
 20
18.2174991061
 30
0.0
  0
SPLINE
  5
42B
100
AcDbEntity
  8
_1
100
AcDbSpline
 62
7
  6
CONTINUOUS
 70
0
 71
3
 72
8
 73
4
 74
0
 42
0.0000001
 43
0.0000001
 44
0.0000000001
 40
0.0
 40
0.0
 40
0.0
 40
0.0
 40
1.0
 40
1.0
 40
1.0
 40
1.0
 10
22.0359404723
 20
18.3321872344
 30
0.0
 10
22.0832238832
 20
18.3321872344
 30
0.0
 10
22.1184352079
 20
18.3211207976
 30
0.0
 10
22.1415741109
 20
18.2999940451
 30
0.0
  0
SPLINE
  5
42C
100
AcDbEntity
  8
_1
100
AcDbSpline
 62
7
  6
CONTINUOUS
 70
0
 71
3
 72
8
 73
4
 74
0
 42
0.0000001
 43
0.0000001
 44
0.0000000001
 40
0.0
 40
0.0
 40
0.0
 40
0.0
 40
1.0
 40
1.0
 40
1.0
 40
1.0
 10
21.1425803048
 20
18.3130726276
 30
0.0
 10
21.1697432438
 20
18.3251450052
 30
0.0
 10
21.2049545685
 20
18.3321872344
 30
0.0
 10
21.2472079435
 20
18.3321872344
 30
0.0
  0
SPLINE
  5
42D
100
AcDbEntity
  8
_1
100
AcDbSpline
 62
7
  6
CONTINUOUS
 70
0
 71
3
 72
8
 73
4
 74
0
 42
0.0000001
 43
0.0000001
 44
0.0000000001
 40
0.0
 40
0.0
 40
0.0
 40
0.0
 40
1.0
 40
1.0
 40
1.0
 40
1.0
 10
21.082811369
 20
18.2539113352
 30
0.0
 10
21.0952965656
 20
18.2808793475
 30
0.0
 10
21.1154170671
 20
18.3010001173
 30
0.0
 10
21.1425803048
 20
18.3130726276
 30
0.0
  0
SPLINE
  5
42E
100
AcDbEntity
  8
_1
100
AcDbSpline
 62
7
  6
CONTINUOUS
 70
0
 71
3
 72
8
 73
4
 74
0
 42
0.0000001
 43
0.0000001
 44
0.0000000001
 40
0.0
 40
0.0
 40
0.0
 40
0.0
 40
1.0
 40
1.0
 40
1.0
 40
1.0
 10
21.0641092697
 20
18.1490886499
 30
0.0
 10
21.0641092697
 20
18.1913421144
 30
0.0
 10
21.0701456705
 20
18.2265534391
 30
0.0
 10
21.0828113689
 20
18.2539113352
 30
0.0
  0
SPLINE
  5
42F
100
AcDbEntity
  8
_1
100
AcDbSpline
 62
7
  6
CONTINUOUS
 70
0
 71
3
 72
8
 73
4
 74
0
 42
0.0000001
 43
0.0000001
 44
0.0000000001
 40
0.0
 40
0.0
 40
0.0
 40
0.0
 40
1.0
 40
1.0
 40
1.0
 40
1.0
 10
21.106110367
 20
16.9003516334
 30
0.0
 10
21.078193728
 20
16.9287667023
 30
0.0
 10
21.0641092697
 20
16.9760503983
 30
0.0
 10
21.0641092697
 20
17.0404367251
 30
0.0
  0
SPLINE
  5
430
100
AcDbEntity
  8
_1
100
AcDbSpline
 62
7
  6
CONTINUOUS
 70
0
 71
3
 72
8
 73
4
 74
0
 42
0.0000001
 43
0.0000001
 44
0.0000000001
 40
0.0
 40
0.0
 40
0.0
 40
0.0
 40
1.0
 40
1.0
 40
1.0
 40
1.0
 10
21.2472079435
 20
16.8573381295
 30
0.0
 10
21.1818156877
 20
16.8573381295
 30
0.0
 10
21.1345319191
 20
16.8714226367
 30
0.0
 10
21.106110367
 20
16.9003516334
 30
0.0
  0
SPLINE
  5
431
100
AcDbEntity
  8
_1
100
AcDbSpline
 62
7
  6
CONTINUOUS
 70
0
 71
3
 72
8
 73
4
 74
0
 42
0.0000001
 43
0.0000001
 44
0.0000000001
 40
0.0
 40
0.0
 40
0.0
 40
0.0
 40
1.0
 40
1.0
 40
1.0
 40
1.0
 10
22.1647129694
 20
16.8895312873
 30
0.0
 10
22.1405680815
 20
16.8673984921
 30
0.0
 10
22.1053567569
 20
16.8573381295
 30
0.0
 10
22.0590789956
 20
16.8573381295
 30
0.0
  0
SPLINE
  5
432
100
AcDbEntity
  8
_1
100
AcDbSpline
 62
7
  6
CONTINUOUS
 70
0
 71
3
 72
8
 73
4
 74
0
 42
0.0000001
 43
0.0000001
 44
0.0000000001
 40
0.0
 40
0.0
 40
0.0
 40
0.0
 40
1.0
 40
1.0
 40
1.0
 40
1.0
 10
22.2009303013
 20
16.9750443687
 30
0.0
 10
22.2009303013
 20
16.9398330999
 30
0.0
 10
22.1888578573
 20
16.9116640826
 30
0.0
 10
22.1647129694
 20
16.8895312873
 30
0.0
  0
SPLINE
  5
433
100
AcDbEntity
  8
_1
100
AcDbSpline
 62
7
  6
CONTINUOUS
 70
0
 71
3
 72
8
 73
4
 74
0
 42
0.0000001
 43
0.0000001
 44
0.0000000001
 40
0.0
 40
0.0
 40
0.0
 40
0.0
 40
1.0
 40
1.0
 40
1.0
 40
1.0
 10
22.1647129638
 20
17.0615634848
 30
0.0
 10
22.1888578573
 20
17.0394306844
 30
0.0
 10
22.2009303013
 20
17.0112616671
 30
0.0
 10
22.2009303013
 20
16.9750443687
 30
0.0
  0
SPLINE
  5
434
100
AcDbEntity
  8
_1
100
AcDbSpline
 62
7
  6
CONTINUOUS
 70
0
 71
3
 72
8
 73
4
 74
0
 42
0.0000001
 43
0.0000001
 44
0.0000000001
 40
0.0
 40
0.0
 40
0.0
 40
0.0
 40
1.0
 40
1.0
 40
1.0
 40
1.0
 10
22.0590789953
 20
17.094762667
 30
0.0
 10
22.1053567568
 20
17.094762667
 30
0.0
 10
22.1405680815
 20
17.083696275
 30
0.0
 10
22.1647129638
 20
17.0615634848
 30
0.0
  0
SPLINE
  5
435
100
AcDbEntity
  8
_1
100
AcDbSpline
 62
7
  6
CONTINUOUS
 70
0
 71
3
 72
8
 73
4
 74
0
 42
0.0000001
 43
0.0000001
 44
0.0000000001
 40
0.0
 40
0.0
 40
0.0
 40
0.0
 40
1.0
 40
1.0
 40
1.0
 40
1.0
 10
22.1184352079
 20
17.6279619028
 30
0.0
 10
22.1184352079
 20
17.59375663
 30
0.0
 10
22.1073687711
 20
17.5665936758
 30
0.0
 10
22.08523617
 20
17.5454669882
 30
0.0
  0
SPLINE
  5
436
100
AcDbEntity
  8
_1
100
AcDbSpline
 62
7
  6
CONTINUOUS
 70
0
 71
3
 72
8
 73
4
 74
0
 42
0.0000001
 43
0.0000001
 44
0.0000000001
 40
0.0
 40
0.0
 40
0.0
 40
0.0
 40
1.0
 40
1.0
 40
1.0
 40
1.0
 10
22.0842301449
 20
17.7084446895
 30
0.0
 10
22.106362764
 20
17.6883240332
 30
0.0
 10
22.1184352079
 20
17.6611610343
 30
0.0
 10
22.1184352079
 20
17.6279619028
 30
0.0
  0
SPLINE
  5
437
100
AcDbEntity
  8
_1
100
AcDbSpline
 62
7
  6
CONTINUOUS
 70
0
 71
3
 72
8
 73
4
 74
0
 42
0.0000001
 43
0.0000001
 44
0.0000000001
 40
0.0
 40
0.0
 40
0.0
 40
0.0
 40
1.0
 40
1.0
 40
1.0
 40
1.0
 10
21.9826203028
 20
17.7396319201
 30
0.0
 10
22.027892057
 20
17.7396319201
 30
0.0
 10
22.0620973745
 20
17.7285654833
 30
0.0
 10
22.0842301449
 20
17.7084446895
 30
0.0
  0
SPLINE
  5
438
100
AcDbEntity
  8
_1
100
AcDbSpline
 62
7
  6
CONTINUOUS
 70
0
 71
3
 72
8
 73
4
 74
0
 42
0.0000001
 43
0.0000001
 44
0.0000000001
 40
0.0
 40
0.0
 40
0.0
 40
0.0
 40
1.0
 40
1.0
 40
1.0
 40
1.0
 10
23.5105734397
 20
18.1191551851
 30
0.0
 10
23.4846323171
 20
18.0967747559
 30
0.0
 10
23.4464033285
 20
18.0857083192
 30
0.0
 10
23.3961015382
 20
18.0857083192
 30
0.0
  0
SPLINE
  5
439
100
AcDbEntity
  8
_1
100
AcDbSpline
 62
7
  6
CONTINUOUS
 70
0
 71
3
 72
8
 73
4
 74
0
 42
0.0000001
 43
0.0000001
 44
0.0000000001
 40
0.0
 40
0.0
 40
0.0
 40
0.0
 40
1.0
 40
1.0
 40
1.0
 40
1.0
 10
23.5490189234
 20
18.2084447732
 30
0.0
 10
23.5490189234
 20
18.1712214341
 30
0.0
 10
23.5359404722
 20
18.1410403242
 30
0.0
 10
23.5105734397
 20
18.1191551851
 30
0.0
  0
SPLINE
  5
43A
100
AcDbEntity
  8
_1
100
AcDbSpline
 62
7
  6
CONTINUOUS
 70
0
 71
3
 72
8
 73
4
 74
0
 42
0.0000001
 43
0.0000001
 44
0.0000000001
 40
0.0
 40
0.0
 40
0.0
 40
0.0
 40
1.0
 40
1.0
 40
1.0
 40
1.0
 10
23.510540794
 20
18.2977028631
 30
0.0
 10
23.5359404722
 20
18.2748431256
 30
0.0
 10
23.5490189234
 20
18.2446621051
 30
0.0
 10
23.5490189233
 20
18.2084447732
 30
0.0
  0
SPLINE
  5
43B
100
AcDbEntity
  8
_1
100
AcDbSpline
 62
7
  6
CONTINUOUS
 70
0
 71
3
 72
8
 73
4
 74
0
 42
0.0000001
 43
0.0000001
 44
0.0000000001
 40
0.0
 40
0.0
 40
0.0
 40
0.0
 40
1.0
 40
1.0
 40
1.0
 40
1.0
 10
23.3961015382
 20
18.3321872344
 30
0.0
 10
23.447408978
 20
18.3321872344
 30
0.0
 10
23.485638682
 20
18.3201147904
 30
0.0
 10
23.510540794
 20
18.2977028631
 30
0.0
  0
SPLINE
  5
43C
100
AcDbEntity
  8
_1
100
AcDbSpline
 62
7
  6
CONTINUOUS
 70
0
 71
3
 72
8
 73
4
 74
0
 42
0.0000001
 43
0.0000001
 44
0.0000000001
 40
0.0
 40
0.0
 40
0.0
 40
0.0
 40
1.0
 40
1.0
 40
1.0
 40
1.0
 10
22.3337271848
 20
18.2989880135
 30
0.0
 10
22.3598840872
 20
18.3211207976
 30
0.0
 10
22.3971074262
 20
18.3321872344
 30
0.0
 10
22.4464032093
 20
18.3321872344
 30
0.0
  0
SPLINE
  5
43D
100
AcDbEntity
  8
_1
100
AcDbSpline
 62
7
  6
CONTINUOUS
 70
0
 71
3
 72
8
 73
4
 74
0
 42
0.0000001
 43
0.0000001
 44
0.0000000001
 40
0.0
 40
0.0
 40
0.0
 40
0.0
 40
1.0
 40
1.0
 40
1.0
 40
1.0
 10
22.2954978386
 20
18.2084447732
 30
0.0
 10
22.2954978386
 20
18.2466741194
 30
0.0
 10
22.3075702825
 20
18.2768552294
 30
0.0
 10
22.3337271849
 20
18.2989880135
 30
0.0
  0
SPLINE
  5
43E
100
AcDbEntity
  8
_1
100
AcDbSpline
 62
7
  6
CONTINUOUS
 70
0
 71
3
 72
8
 73
4
 74
0
 42
0.0000001
 43
0.0000001
 44
0.0000000001
 40
0.0
 40
0.0
 40
0.0
 40
0.0
 40
1.0
 40
1.0
 40
1.0
 40
1.0
 10
22.3324953585
 20
18.11865864
 30
0.0
 10
22.3075702825
 20
18.1410403242
 30
0.0
 10
22.2954978386
 20
18.1712214341
 30
0.0
 10
22.2954978386
 20
18.2084447732
 30
0.0
  0
SPLINE
  5
43F
100
AcDbEntity
  8
_1
100
AcDbSpline
 62
7
  6
CONTINUOUS
 70
0
 71
3
 72
8
 73
4
 74
0
 42
0.0000001
 43
0.0000001
 44
0.0000000001
 40
0.0
 40
0.0
 40
0.0
 40
0.0
 40
1.0
 40
1.0
 40
1.0
 40
1.0
 10
22.9222582022
 20
16.8321872232
 30
0.0
 10
22.8779924551
 20
16.8321872232
 30
0.0
 10
22.8417754808
 20
16.847277767
 30
0.0
 10
22.8136065641
 20
16.8774588545
 30
0.0
  0
SPLINE
  5
440
100
AcDbEntity
  8
_1
100
AcDbSpline
 62
7
  6
CONTINUOUS
 70
0
 71
3
 72
8
 73
4
 74
0
 42
0.0000001
 43
0.0000001
 44
0.0000000001
 40
0.0
 40
0.0
 40
0.0
 40
0.0
 40
1.0
 40
1.0
 40
1.0
 40
1.0
 10
23.0283736609
 20
16.8769329421
 30
0.0
 10
23.0007289091
 20
16.847277767
 30
0.0
 10
22.9655175844
 20
16.8321872232
 30
0.0
 10
22.9222582022
 20
16.8321872232
 30
0.0
  0
SPLINE
  5
441
100
AcDbEntity
  8
_1
100
AcDbSpline
 62
7
  6
CONTINUOUS
 70
0
 71
3
 72
8
 73
4
 74
0
 42
0.0000001
 43
0.0000001
 44
0.0000000001
 40
0.0
 40
0.0
 40
0.0
 40
0.0
 40
1.0
 40
1.0
 40
1.0
 40
1.0
 10
23.0283736609
 20
16.8769329421
 30
0.0
 10
23.0560610929
 20
16.9066339014
 30
0.0
 10
23.0701459089
 20
16.9519055327
 30
0.0
 10
23.0701459089
 20
17.014279778
 30
0.0
  0
SPLINE
  5
442
100
AcDbEntity
  8
_1
100
AcDbSpline
 62
7
  6
CONTINUOUS
 70
0
 71
3
 72
8
 73
4
 74
0
 42
0.0000001
 43
0.0000001
 44
0.0000000001
 40
0.0
 40
0.0
 40
0.0
 40
0.0
 40
1.0
 40
1.0
 40
1.0
 40
1.0
 10
22.7723591963
 20
17.0142797779
 30
0.0
 10
22.7723591963
 20
16.9529115733
 30
0.0
 10
22.7854376474
 20
16.9076399421
 30
0.0
 10
22.8136065641
 20
16.8774588545
 30
0.0
  0
SPLINE
  5
443
100
AcDbEntity
  8
_1
100
AcDbSpline
 62
7
  6
CONTINUOUS
 70
0
 71
3
 72
8
 73
4
 74
0
 42
0.0000001
 43
0.0000001
 44
0.0000000001
 40
0.0
 40
0.0
 40
0.0
 40
0.0
 40
1.0
 40
1.0
 40
1.0
 40
1.0
 10
22.3324953585
 20
18.11865864
 30
0.0
 10
22.3568660656
 20
18.0967747559
 30
0.0
 10
22.3950954118
 20
18.0857083192
 30
0.0
 10
22.4464032093
 20
18.0857083192
 30
0.0
  0
SPLINE
  5
444
100
AcDbEntity
  8
_1
100
AcDbSpline
 62
7
  6
CONTINUOUS
 70
0
 71
3
 72
8
 73
4
 74
0
 42
0.0000001
 43
0.0000001
 44
0.0000000001
 40
0.0
 40
0.0
 40
0.0
 40
0.0
 40
1.0
 40
1.0
 40
1.0
 40
1.0
 10
22.035940472
 20
18.1018049707
 30
0.0
 10
22.0832238831
 20
18.1018049707
 30
0.0
 10
22.1184352079
 20
18.1118653109
 30
0.0
 10
22.1415741109
 20
18.1329920634
 30
0.0
  0
SPLINE
  5
445
100
AcDbEntity
  8
_1
100
AcDbSpline
 62
7
  6
CONTINUOUS
 70
0
 71
3
 72
8
 73
4
 74
0
 42
0.0000001
 43
0.0000001
 44
0.0000000001
 40
0.0
 40
0.0
 40
0.0
 40
0.0
 40
1.0
 40
1.0
 40
1.0
 40
1.0
 10
21.9826203035
 20
17.5142797818
 30
0.0
 10
22.0288980646
 20
17.5142797819
 30
0.0
 10
22.0631033818
 20
17.5243401221
 30
0.0
 10
22.08523617
 20
17.5454669882
 30
0.0
  0
SPLINE
  5
446
100
AcDbEntity
  8
_1
100
AcDbSpline
 62
7
  6
CONTINUOUS
 70
0
 71
3
 72
8
 73
4
 74
0
 42
0.0000001
 43
0.0000001
 44
0.0000000001
 40
0.0
 40
0.0
 40
0.0
 40
0.0
 40
1.0
 40
1.0
 40
1.0
 40
1.0
 10
21.9133246311
 20
19.22846489
 30
0.0
 10
21.9414935482
 20
19.2586459772
 30
0.0
 10
21.9555780065
 20
19.303917603
 30
0.0
 10
21.9555780065
 20
19.3642797781
 30
0.0
  0
SPLINE
  5
447
100
AcDbEntity
  8
_1
100
AcDbSpline
 62
7
  6
CONTINUOUS
 70
0
 71
3
 72
8
 73
4
 74
0
 42
0.0000001
 43
0.0000001
 44
0.0000000001
 40
0.0
 40
0.0
 40
0.0
 40
0.0
 40
1.0
 40
1.0
 40
1.0
 40
1.0
 10
21.6567852867
 20
19.3622677077
 30
0.0
 10
21.6567852867
 20
19.3029115734
 30
0.0
 10
21.6698637378
 20
19.2576399421
 30
0.0
 10
21.6980146733
 20
19.2274417697
 30
0.0
  0
SPLINE
  5
448
100
AcDbEntity
  8
_1
100
AcDbSpline
 62
7
  6
CONTINUOUS
 70
0
 71
3
 72
8
 73
4
 74
0
 42
0.0000001
 43
0.0000001
 44
0.0000000001
 40
0.0
 40
0.0
 40
0.0
 40
0.0
 40
1.0
 40
1.0
 40
1.0
 40
1.0
 10
19.3272872646
 20
19.2269330725
 30
0.0
 10
19.3549744856
 20
19.2566339014
 30
0.0
 10
19.3690591228
 20
19.3019055327
 30
0.0
 10
19.3690591228
 20
19.3642797781
 30
0.0
  0
SPLINE
  5
449
100
AcDbEntity
  8
_1
100
AcDbSpline
 62
7
  6
CONTINUOUS
 70
0
 71
3
 72
8
 73
4
 74
0
 42
0.0000001
 43
0.0000001
 44
0.0000000001
 40
0.0
 40
0.0
 40
0.0
 40
0.0
 40
1.0
 40
1.0
 40
1.0
 40
1.0
 10
19.0712724102
 20
19.364279778
 30
0.0
 10
19.0712724102
 20
19.3029115734
 30
0.0
 10
19.0843508613
 20
19.2576399421
 30
0.0
 10
19.1125198258
 20
19.2274588991
 30
0.0
  0
SPLINE
  5
44A
100
AcDbEntity
  8
_1
100
AcDbSpline
 62
7
  6
CONTINUOUS
 70
0
 71
3
 72
8
 73
4
 74
0
 42
0.0000001
 43
0.0000001
 44
0.0000000001
 40
0.0
 40
0.0
 40
0.0
 40
0.0
 40
1.0
 40
1.0
 40
1.0
 40
1.0
 10
17.0889942615
 20
16.8767027634
 30
0.0
 10
17.1164232233
 20
16.9056278662
 30
0.0
 10
17.1305077264
 20
16.9519055327
 30
0.0
 10
17.1305077264
 20
17.0142797781
 30
0.0
  0
SPLINE
  5
44B
100
AcDbEntity
  8
_1
100
AcDbSpline
 62
7
  6
CONTINUOUS
 70
0
 71
3
 72
8
 73
4
 74
0
 42
0.0000001
 43
0.0000001
 44
0.0000000001
 40
0.0
 40
0.0
 40
0.0
 40
0.0
 40
1.0
 40
1.0
 40
1.0
 40
1.0
 10
17.6576707402
 20
17.5233341148
 30
0.0
 10
17.7834252158
 20
17.550497069
 30
0.0
 10
17.8769866565
 20
17.596774741
 30
0.0
 10
17.9396115701
 20
17.6629349429
 30
0.0
  0
SPLINE
  5
44C
100
AcDbEntity
  8
_1
100
AcDbSpline
 62
7
  6
CONTINUOUS
 70
0
 71
3
 72
8
 73
4
 74
0
 42
0.0000001
 43
0.0000001
 44
0.0000000001
 40
0.0
 40
0.0
 40
0.0
 40
0.0
 40
1.0
 40
1.0
 40
1.0
 40
1.0
 10
18.0590791443
 20
16.9519055327
 30
0.0
 10
18.0590791443
 20
16.9700141875
 30
0.0
 10
18.048012797
 20
17.0042194156
 30
0.0
 10
18.026886022
 20
17.0545212178
 30
0.0
  0
SPLINE
  5
44D
100
AcDbEntity
  8
_1
100
AcDbSpline
 62
7
  6
CONTINUOUS
 70
0
 71
3
 72
8
 73
4
 74
0
 42
0.0000001
 43
0.0000001
 44
0.0000000001
 40
0.0
 40
0.0
 40
0.0
 40
0.0
 40
1.0
 40
1.0
 40
1.0
 40
1.0
 10
20.2170268932
 20
17.0515031283
 30
0.0
 10
20.3055580297
 20
17.0515031283
 30
0.0
 10
20.3769866863
 20
17.0716238534
 30
0.0
 10
20.4323185764
 20
17.1128712473
 30
0.0
  0
SPLINE
  5
44E
100
AcDbEntity
  8
_1
100
AcDbSpline
 62
7
  6
CONTINUOUS
 70
0
 71
3
 72
8
 73
4
 74
0
 42
0.0000001
 43
0.0000001
 44
0.0000000001
 40
0.0
 40
0.0
 40
0.0
 40
0.0
 40
1.0
 40
1.0
 40
1.0
 40
1.0
 10
20.4323185764
 20
17.1128712473
 30
0.0
 10
20.4876506964
 20
17.1541188126
 30
0.0
 10
20.5158196131
 20
17.2054266547
 30
0.0
 10
20.5158196131
 20
17.2678009113
 30
0.0
  0
SPLINE
  5
44F
100
AcDbEntity
  8
_1
100
AcDbSpline
 62
7
  6
CONTINUOUS
 70
0
 71
3
 72
8
 73
4
 74
0
 42
0.0000001
 43
0.0000001
 44
0.0000000001
 40
0.0
 40
0.0
 40
0.0
 40
0.0
 40
1.0
 40
1.0
 40
1.0
 40
1.0
 10
20.515819613
 20
17.2678009113
 30
0.0
 10
20.5158196131
 20
17.3160906424
 30
0.0
 10
20.5007291475
 20
17.3563320925
 30
0.0
 10
20.4705479594
 20
17.3865132583
 30
0.0
  0
SPLINE
  5
450
100
AcDbEntity
  8
_1
100
AcDbSpline
 62
7
  6
CONTINUOUS
 70
0
 71
3
 72
8
 73
4
 74
0
 42
0.0000001
 43
0.0000001
 44
0.0000000001
 40
0.0
 40
0.0
 40
0.0
 40
0.0
 40
1.0
 40
1.0
 40
1.0
 40
1.0
 10
20.4705479594
 20
17.3865132583
 30
0.0
 10
20.4403669277
 20
17.4166942676
 30
0.0
 10
20.4021375814
 20
17.4408391555
 30
0.0
 10
20.3548538128
 20
17.4569357177
 30
0.0
  0
SPLINE
  5
451
100
AcDbEntity
  8
_1
100
AcDbSpline
 62
7
  6
CONTINUOUS
 70
0
 71
3
 72
8
 73
4
 74
0
 42
0.0000001
 43
0.0000001
 44
0.0000000001
 40
0.0
 40
0.0
 40
0.0
 40
0.0
 40
1.0
 40
1.0
 40
1.0
 40
1.0
 10
20.3548538128
 20
17.4569357177
 30
0.0
 10
20.3074968042
 20
17.4730572125
 30
0.0
 10
20.2439934191
 20
17.4901878783
 30
0.0
 10
20.1653112134
 20
17.5081397819
 30
0.0
  0
SPLINE
  5
452
100
AcDbEntity
  8
_1
100
AcDbSpline
 62
7
  6
CONTINUOUS
 70
0
 71
3
 72
8
 73
4
 74
0
 42
0.0000001
 43
0.0000001
 44
0.0000000001
 40
0.0
 40
0.0
 40
0.0
 40
0.0
 40
1.0
 40
1.0
 40
1.0
 40
1.0
 10
20.0138076564
 20
18.0937567299
 30
0.0
 10
19.9665239492
 20
18.0595514169
 30
0.0
 10
19.9433850685
 20
18.0193099668
 30
0.0
 10
19.9433850685
 20
17.9720262875
 30
0.0
  0
SPLINE
  5
453
100
AcDbEntity
  8
_1
100
AcDbSpline
 62
7
  6
CONTINUOUS
 70
0
 71
3
 72
8
 73
4
 74
0
 42
0.0000001
 43
0.0000001
 44
0.0000000001
 40
0.0
 40
0.0
 40
0.0
 40
0.0
 40
1.0
 40
1.0
 40
1.0
 40
1.0
 10
19.9433850685
 20
17.9720262875
 30
0.0
 10
19.9433850685
 20
17.9418451776
 30
0.0
 10
19.951433126
 20
17.9166942825
 30
0.0
 10
19.9672899461
 20
17.8953867742
 30
0.0
  0
SPLINE
  5
454
100
AcDbEntity
  8
_1
100
AcDbSpline
 62
7
  6
CONTINUOUS
 70
0
 71
3
 72
8
 73
4
 74
0
 42
0.0000001
 43
0.0000001
 44
0.0000000001
 40
0.0
 40
0.0
 40
0.0
 40
0.0
 40
1.0
 40
1.0
 40
1.0
 40
1.0
 10
19.9672899461
 20
17.8953867742
 30
0.0
 10
19.9836264292
 20
17.8734347214
 30
0.0
 10
20.0057593027
 20
17.8553260555
 30
0.0
 10
20.0337177352
 20
17.8398490154
 30
0.0
  0
SPLINE
  5
455
100
AcDbEntity
  8
_1
100
AcDbSpline
 62
7
  6
CONTINUOUS
 70
0
 71
3
 72
8
 73
4
 74
0
 42
0.0000001
 43
0.0000001
 44
0.0000000001
 40
0.0
 40
0.0
 40
0.0
 40
0.0
 40
1.0
 40
1.0
 40
1.0
 40
1.0
 10
20.0138076564
 20
18.0937567299
 30
0.0
 10
20.0388702929
 20
18.111887189
 30
0.0
 10
20.0681727349
 20
18.1252126416
 30
0.0
 10
20.1017149916
 20
18.1337330617
 30
0.0
  0
SPLINE
  5
456
100
AcDbEntity
  8
_1
100
AcDbSpline
 62
7
  6
CONTINUOUS
 70
0
 71
3
 72
8
 73
4
 74
0
 42
0.0000001
 43
0.0000001
 44
0.0000000001
 40
0.0
 40
0.0
 40
0.0
 40
0.0
 40
1.0
 40
1.0
 40
1.0
 40
1.0
 10
20.1017149916
 20
18.1337330617
 30
0.0
 10
20.1314539614
 20
18.1412873691
 30
0.0
 10
20.1645257689
 20
18.1450645318
 30
0.0
 10
20.2009304205
 20
18.1450645318
 30
0.0
  0
SPLINE
  5
457
100
AcDbEntity
  8
_1
100
AcDbSpline
 62
7
  6
CONTINUOUS
 70
0
 71
3
 72
8
 73
4
 74
0
 42
0.0000001
 43
0.0000001
 44
0.0000000001
 40
0.0
 40
0.0
 40
0.0
 40
0.0
 40
1.0
 40
1.0
 40
1.0
 40
1.0
 10
20.1017149369
 20
17.8091043129
 30
0.0
 10
20.0788304456
 20
17.8171135326
 30
0.0
 10
20.0563408555
 20
17.8273254613
 30
0.0
 10
20.0337177352
 20
17.8398490154
 30
0.0
  0
SPLINE
  5
458
100
AcDbEntity
  8
_1
100
AcDbSpline
 62
7
  6
CONTINUOUS
 70
0
 71
3
 72
8
 73
4
 74
0
 42
0.0000001
 43
0.0000001
 44
0.0000000001
 40
0.0
 40
0.0
 40
0.0
 40
0.0
 40
1.0
 40
1.0
 40
1.0
 40
1.0
 10
20.2170268932
 20
17.0515031283
 30
0.0
 10
20.1727945309
 20
17.0515031283
 30
0.0
 10
20.1342595639
 20
17.0562510949
 30
0.0
 10
20.1017152804
 20
17.0656812195
 30
0.0
  0
SPLINE
  5
459
100
AcDbEntity
  8
_1
100
AcDbSpline
 62
7
  6
CONTINUOUS
 70
0
 71
3
 72
8
 73
4
 74
0
 42
0.0000001
 43
0.0000001
 44
0.0000000001
 40
0.0
 40
0.0
 40
0.0
 40
0.0
 40
1.0
 40
1.0
 40
1.0
 40
1.0
 10
20.1017152804
 20
17.0656812195
 30
0.0
 10
20.0868869114
 20
17.06997793
 30
0.0
 10
20.073302237
 20
17.0752466789
 30
0.0
 10
20.0609889998
 20
17.0814812411
 30
0.0
  0
SPLINE
  5
45A
100
AcDbEntity
  8
_1
100
AcDbSpline
 62
7
  6
CONTINUOUS
 70
0
 71
3
 72
8
 73
4
 74
0
 42
0.0000001
 43
0.0000001
 44
0.0000000001
 40
0.0
 40
0.0
 40
0.0
 40
0.0
 40
1.0
 40
1.0
 40
1.0
 40
1.0
 10
19.8991193214
 20
17.5947626819
 30
0.0
 10
19.9557434987
 20
17.5684444133
 30
0.0
 10
20.0231154355
 20
17.5446550888
 30
0.0
 10
20.1017150959
 20
17.5238026474
 30
0.0
  0
SPLINE
  5
45B
100
AcDbEntity
  8
_1
100
AcDbSpline
 62
7
  6
CONTINUOUS
 70
0
 71
3
 72
8
 73
4
 74
0
 42
0.0000001
 43
0.0000001
 44
0.0000000001
 40
0.0
 40
0.0
 40
0.0
 40
0.0
 40
1.0
 40
1.0
 40
1.0
 40
1.0
 10
18.4145606266
 20
19.4094008305
 30
0.0
 10
18.3680529964
 20
19.3381228422
 30
0.0
 10
18.301654644
 20
19.2827908484
 30
0.0
 10
18.2131234258
 20
19.2425493815
 30
0.0
  0
SPLINE
  5
45C
100
AcDbEntity
  8
_1
100
AcDbSpline
 62
7
  6
CONTINUOUS
 70
0
 71
3
 72
8
 73
4
 74
0
 42
0.0000001
 43
0.0000001
 44
0.0000000001
 40
0.0
 40
0.0
 40
0.0
 40
0.0
 40
1.0
 40
1.0
 40
1.0
 40
1.0
 10
18.2131234258
 20
19.2425493815
 30
0.0
 10
18.1245922816
 20
19.2023079482
 30
0.0
 10
18.0189584863
 20
19.1821872232
 30
0.0
 10
17.8982340914
 20
19.1821872232
 30
0.0
  0
SPLINE
  5
45D
100
AcDbEntity
  8
_1
100
AcDbSpline
 62
7
  6
CONTINUOUS
 70
0
 71
3
 72
8
 73
4
 74
0
 42
0.0000001
 43
0.0000001
 44
0.0000000001
 40
0.0
 40
0.0
 40
0.0
 40
0.0
 40
1.0
 40
1.0
 40
1.0
 40
1.0
 10
17.8982340914
 20
19.1821872232
 30
0.0
 10
17.7523588461
 20
19.1821872232
 30
0.0
 10
17.6326405478
 20
19.2093502019
 30
0.0
 10
17.5380214067
 20
19.264593674
 30
0.0
  0
SPLINE
  5
45E
100
AcDbEntity
  8
_1
100
AcDbSpline
 62
7
  6
CONTINUOUS
 70
0
 71
3
 72
8
 73
4
 74
0
 42
0.0000001
 43
0.0000001
 44
0.0000000001
 40
0.0
 40
0.0
 40
0.0
 40
0.0
 40
1.0
 40
1.0
 40
1.0
 40
1.0
 10
17.5380214067
 20
19.264593674
 30
0.0
 10
17.4706687179
 20
19.303917603
 30
0.0
 10
17.4163427648
 20
19.3562314858
 30
0.0
 10
17.3740892373
 20
19.4226298854
 30
0.0
  0
SPLINE
  5
45F
100
AcDbEntity
  8
_1
100
AcDbSpline
 62
7
  6
CONTINUOUS
 70
0
 71
3
 72
8
 73
4
 74
0
 42
0.0000001
 43
0.0000001
 44
0.0000000001
 40
0.0
 40
0.0
 40
0.0
 40
0.0
 40
1.0
 40
1.0
 40
1.0
 40
1.0
 10
17.3740892373
 20
19.4226298854
 30
0.0
 10
17.331835713
 20
19.48902828
 30
0.0
 10
17.3117149879
 20
19.5534145956
 30
0.0
 10
17.3117149879
 20
19.6157888522
 30
0.0
  0
SPLINE
  5
460
100
AcDbEntity
  8
_1
100
AcDbSpline
 62
7
  6
CONTINUOUS
 70
0
 71
3
 72
8
 73
4
 74
0
 42
0.0000001
 43
0.0000001
 44
0.0000000001
 40
0.0
 40
0.0
 40
0.0
 40
0.0
 40
1.0
 40
1.0
 40
1.0
 40
1.0
 10
17.3117149879
 20
19.6157888522
 30
0.0
 10
17.3117149879
 20
19.6520061394
 30
0.0
 10
17.3237874207
 20
19.6821872046
 30
0.0
 10
17.348938327
 20
19.7083441516
 30
0.0
  0
SPLINE
  5
461
100
AcDbEntity
  8
_1
100
AcDbSpline
 62
7
  6
CONTINUOUS
 70
0
 71
3
 72
8
 73
4
 74
0
 42
0.0000001
 43
0.0000001
 44
0.0000000001
 40
0.0
 40
0.0
 40
0.0
 40
0.0
 40
1.0
 40
1.0
 40
1.0
 40
1.0
 10
17.348938327
 20
19.7083441516
 30
0.0
 10
17.3740892333
 20
19.7345010986
 30
0.0
 10
17.4062824023
 20
19.7475795945
 30
0.0
 10
17.4455178005
 20
19.7475795945
 30
0.0
  0
SPLINE
  5
462
100
AcDbEntity
  8
_1
100
AcDbSpline
 62
7
  6
CONTINUOUS
 70
0
 71
3
 72
8
 73
4
 74
0
 42
0.0000001
 43
0.0000001
 44
0.0000000001
 40
0.0
 40
0.0
 40
0.0
 40
0.0
 40
1.0
 40
1.0
 40
1.0
 40
1.0
 10
17.4455178005
 20
19.7475795945
 30
0.0
 10
17.4767049176
 20
19.7475795945
 30
0.0
 10
17.5028618646
 20
19.7375192096
 30
0.0
 10
17.524994666
 20
19.717398479
 30
0.0
  0
SPLINE
  5
463
100
AcDbEntity
  8
_1
100
AcDbSpline
 62
7
  6
CONTINUOUS
 70
0
 71
3
 72
8
 73
4
 74
0
 42
0.0000001
 43
0.0000001
 44
0.0000000001
 40
0.0
 40
0.0
 40
0.0
 40
0.0
 40
1.0
 40
1.0
 40
1.0
 40
1.0
 10
17.524994666
 20
19.717398479
 30
0.0
 10
17.5471274552
 20
19.6972777595
 30
0.0
 10
17.5652361211
 20
19.6670966943
 30
0.0
 10
17.5808281415
 20
19.6276580215
 30
0.0
  0
SPLINE
  5
464
100
AcDbEntity
  8
_1
100
AcDbSpline
 62
7
  6
CONTINUOUS
 70
0
 71
3
 72
8
 73
4
 74
0
 42
0.0000001
 43
0.0000001
 44
0.0000000001
 40
0.0
 40
0.0
 40
0.0
 40
0.0
 40
1.0
 40
1.0
 40
1.0
 40
1.0
 10
17.5808281415
 20
19.6276580215
 30
0.0
 10
17.5994413269
 20
19.5805775722
 30
0.0
 10
17.6195620519
 20
19.5413421517
 30
0.0
 10
17.64145935
 20
19.5099892137
 30
0.0
  0
SPLINE
  5
465
100
AcDbEntity
  8
_1
100
AcDbSpline
 62
7
  6
CONTINUOUS
 70
0
 71
3
 72
8
 73
4
 74
0
 42
0.0000001
 43
0.0000001
 44
0.0000000001
 40
0.0
 40
0.0
 40
0.0
 40
0.0
 40
1.0
 40
1.0
 40
1.0
 40
1.0
 10
17.64145935
 20
19.5099892137
 30
0.0
 10
17.6638276649
 20
19.4779618656
 30
0.0
 10
17.6940087301
 20
19.4518049409
 30
0.0
 10
17.7341480514
 20
19.4314812413
 30
0.0
  0
SPLINE
  5
466
100
AcDbEntity
  8
_1
100
AcDbSpline
 62
7
  6
CONTINUOUS
 70
0
 71
3
 72
8
 73
4
 74
0
 42
0.0000001
 43
0.0000001
 44
0.0000000001
 40
0.0
 40
0.0
 40
0.0
 40
0.0
 40
1.0
 40
1.0
 40
1.0
 40
1.0
 10
17.7341480514
 20
19.4314812414
 30
0.0
 10
17.773485623
 20
19.4115634908
 30
0.0
 10
17.8257995171
 20
19.4015031283
 30
0.0
 10
17.8901858103
 20
19.4015031283
 30
0.0
  0
SPLINE
  5
467
100
AcDbEntity
  8
_1
100
AcDbSpline
 62
7
  6
CONTINUOUS
 70
0
 71
3
 72
8
 73
4
 74
0
 42
0.0000001
 43
0.0000001
 44
0.0000000001
 40
0.0
 40
0.0
 40
0.0
 40
0.0
 40
1.0
 40
1.0
 40
1.0
 40
1.0
 10
17.8901858103
 20
19.4015031283
 30
0.0
 10
17.9787170363
 20
19.4015031283
 30
0.0
 10
18.0501456034
 20
19.4216238534
 30
0.0
 10
18.1054775925
 20
19.4628713544
 30
0.0
  0
SPLINE
  5
468
100
AcDbEntity
  8
_1
100
AcDbSpline
 62
7
  6
CONTINUOUS
 70
0
 71
3
 72
8
 73
4
 74
0
 42
0.0000001
 43
0.0000001
 44
0.0000000001
 40
0.0
 40
0.0
 40
0.0
 40
0.0
 40
1.0
 40
1.0
 40
1.0
 40
1.0
 10
18.1054775925
 20
19.4628713544
 30
0.0
 10
18.1608095241
 20
19.5041188126
 30
0.0
 10
18.1889785302
 20
19.5554266547
 30
0.0
 10
18.1889785302
 20
19.6178009113
 30
0.0
  0
SPLINE
  5
469
100
AcDbEntity
  8
_1
100
AcDbSpline
 62
7
  6
CONTINUOUS
 70
0
 71
3
 72
8
 73
4
 74
0
 42
0.0000001
 43
0.0000001
 44
0.0000000001
 40
0.0
 40
0.0
 40
0.0
 40
0.0
 40
1.0
 40
1.0
 40
1.0
 40
1.0
 10
18.1889785302
 20
19.6178009113
 30
0.0
 10
18.1889785302
 20
19.6660906424
 30
0.0
 10
18.1738880646
 20
19.7063320925
 30
0.0
 10
18.1437069659
 20
19.7365131689
 30
0.0
  0
SPLINE
  5
46A
100
AcDbEntity
  8
_1
100
AcDbSpline
 62
7
  6
CONTINUOUS
 70
0
 71
3
 72
8
 73
4
 74
0
 42
0.0000001
 43
0.0000001
 44
0.0000000001
 40
0.0
 40
0.0
 40
0.0
 40
0.0
 40
1.0
 40
1.0
 40
1.0
 40
1.0
 10
18.1437069659
 20
19.7365131689
 30
0.0
 10
18.1135258448
 20
19.7666942676
 30
0.0
 10
18.0752964986
 20
19.7908391555
 30
0.0
 10
18.0280128147
 20
19.806935704
 30
0.0
  0
SPLINE
  5
46B
100
AcDbEntity
  8
_1
100
AcDbSpline
 62
7
  6
CONTINUOUS
 70
0
 71
3
 72
8
 73
4
 74
0
 42
0.0000001
 43
0.0000001
 44
0.0000000001
 40
0.0
 40
0.0
 40
0.0
 40
0.0
 40
1.0
 40
1.0
 40
1.0
 40
1.0
 10
18.0280128147
 20
19.806935704
 30
0.0
 10
17.9807290507
 20
19.8230322798
 30
0.0
 10
17.9173488093
 20
19.8401348939
 30
0.0
 10
17.8388350413
 20
19.8580565264
 30
0.0
  0
SPLINE
  5
46C
100
AcDbEntity
  8
_1
100
AcDbSpline
 62
7
  6
CONTINUOUS
 70
0
 71
3
 72
8
 73
4
 74
0
 42
0.0000001
 43
0.0000001
 44
0.0000000001
 40
0.0
 40
0.0
 40
0.0
 40
0.0
 40
1.0
 40
1.0
 40
1.0
 40
1.0
 10
17.8388350413
 20
19.8580565264
 30
0.0
 10
17.732238121
 20
19.8823884477
 30
0.0
 10
17.6437069398
 20
19.911563461
 30
0.0
 10
17.5722783727
 20
19.9447626819
 30
0.0
  0
SPLINE
  5
46D
100
AcDbEntity
  8
_1
100
AcDbSpline
 62
7
  6
CONTINUOUS
 70
0
 71
3
 72
8
 73
4
 74
0
 42
0.0000001
 43
0.0000001
 44
0.0000000001
 40
0.0
 40
0.0
 40
0.0
 40
0.0
 40
1.0
 40
1.0
 40
1.0
 40
1.0
 10
17.5722783727
 20
19.9447626819
 30
0.0
 10
17.5008498055
 20
19.9779619028
 30
0.0
 10
17.4445117709
 20
20.0232334783
 30
0.0
 10
17.4022582253
 20
20.0805775767
 30
0.0
  0
SPLINE
  5
46E
100
AcDbEntity
  8
_1
100
AcDbSpline
 62
7
  6
CONTINUOUS
 70
0
 71
3
 72
8
 73
4
 74
0
 42
0.0000001
 43
0.0000001
 44
0.0000000001
 40
0.0
 40
0.0
 40
0.0
 40
0.0
 40
1.0
 40
1.0
 40
1.0
 40
1.0
 10
17.4022582253
 20
20.0805775767
 30
0.0
 10
17.3600047302
 20
20.1379216065
 30
0.0
 10
17.3398840052
 20
20.2093501737
 30
0.0
 10
17.3398840052
 20
20.2948632886
 30
0.0
  0
SPLINE
  5
46F
100
AcDbEntity
  8
_1
100
AcDbSpline
 62
7
  6
CONTINUOUS
 70
0
 71
3
 72
8
 73
4
 74
0
 42
0.0000001
 43
0.0000001
 44
0.0000000001
 40
0.0
 40
0.0
 40
0.0
 40
0.0
 40
1.0
 40
1.0
 40
1.0
 40
1.0
 10
17.3398840052
 20
20.2948632886
 30
0.0
 10
17.3398840052
 20
20.3753461888
 30
0.0
 10
17.3620168005
 20
20.4477807631
 30
0.0
 10
17.4065195001
 20
20.5109948404
 30
0.0
  0
SPLINE
  5
470
100
AcDbEntity
  8
_1
100
AcDbSpline
 62
7
  6
CONTINUOUS
 70
0
 71
3
 72
8
 73
4
 74
0
 42
0.0000001
 43
0.0000001
 44
0.0000000001
 40
0.0
 40
0.0
 40
0.0
 40
0.0
 40
1.0
 40
1.0
 40
1.0
 40
1.0
 10
17.4065195001
 20
20.5109948404
 30
0.0
 10
17.4505479929
 20
20.5735353281
 30
0.0
 10
17.513928279
 20
20.6218250146
 30
0.0
 10
17.5983639637
 20
20.6562060079
 30
0.0
  0
SPLINE
  5
471
100
AcDbEntity
  8
_1
100
AcDbSpline
 62
7
  6
CONTINUOUS
 70
0
 71
3
 72
8
 73
4
 74
0
 42
0.0000001
 43
0.0000001
 44
0.0000000001
 40
0.0
 40
0.0
 40
0.0
 40
0.0
 40
1.0
 40
1.0
 40
1.0
 40
1.0
 10
17.5983639637
 20
20.6562060079
 30
0.0
 10
17.6819363308
 20
20.6902354707
 30
0.0
 10
17.7805278522
 20
20.7073381295
 30
0.0
 10
17.8942099732
 20
20.7073381295
 30
0.0
  0
SPLINE
  5
472
100
AcDbEntity
  8
_1
100
AcDbSpline
 62
7
  6
CONTINUOUS
 70
0
 71
3
 72
8
 73
4
 74
0
 42
0.0000001
 43
0.0000001
 44
0.0000000001
 40
0.0
 40
0.0
 40
0.0
 40
0.0
 40
1.0
 40
1.0
 40
1.0
 40
1.0
 10
17.8942099732
 20
20.7073381295
 30
0.0
 10
17.9847532582
 20
20.7073381295
 30
0.0
 10
18.0622180474
 20
20.6952656855
 30
0.0
 10
18.1286163998
 20
20.6731329014
 30
0.0
  0
SPLINE
  5
473
100
AcDbEntity
  8
_1
100
AcDbSpline
 62
7
  6
CONTINUOUS
 70
0
 71
3
 72
8
 73
4
 74
0
 42
0.0000001
 43
0.0000001
 44
0.0000000001
 40
0.0
 40
0.0
 40
0.0
 40
0.0
 40
1.0
 40
1.0
 40
1.0
 40
1.0
 10
18.1286163998
 20
20.6731329014
 30
0.0
 10
18.1950147522
 20
20.6510001173
 30
0.0
 10
18.24934075
 20
20.6208190074
 30
0.0
 10
18.2933958679
 20
20.5833468298
 30
0.0
  0
SPLINE
  5
474
100
AcDbEntity
  8
_1
100
AcDbSpline
 62
7
  6
CONTINUOUS
 70
0
 71
3
 72
8
 73
4
 74
0
 42
0.0000001
 43
0.0000001
 44
0.0000000001
 40
0.0
 40
0.0
 40
0.0
 40
0.0
 40
1.0
 40
1.0
 40
1.0
 40
1.0
 10
18.2933958679
 20
20.5833468298
 30
0.0
 10
18.3368658793
 20
20.5463723292
 30
0.0
 10
18.369059093
 20
20.5071368863
 30
0.0
 10
18.3889803557
 20
20.4667963438
 30
0.0
  0
SPLINE
  5
475
100
AcDbEntity
  8
_1
100
AcDbSpline
 62
7
  6
CONTINUOUS
 70
0
 71
3
 72
8
 73
4
 74
0
 42
0.0000001
 43
0.0000001
 44
0.0000000001
 40
0.0
 40
0.0
 40
0.0
 40
0.0
 40
1.0
 40
1.0
 40
1.0
 40
1.0
 10
18.3889803557
 20
20.4667963438
 30
0.0
 10
18.4093005431
 20
20.425647979
 30
0.0
 10
18.4193608833
 20
20.3854065289
 30
0.0
 10
18.4193608832
 20
20.3471771826
 30
0.0
  0
SPLINE
  5
476
100
AcDbEntity
  8
_1
100
AcDbSpline
 62
7
  6
CONTINUOUS
 70
0
 71
3
 72
8
 73
4
 74
0
 42
0.0000001
 43
0.0000001
 44
0.0000000001
 40
0.0
 40
0.0
 40
0.0
 40
0.0
 40
1.0
 40
1.0
 40
1.0
 40
1.0
 10
18.4193608833
 20
20.3471771826
 30
0.0
 10
18.4193608833
 20
20.3109598508
 30
0.0
 10
18.4062824321
 20
20.2787667265
 30
0.0
 10
18.3811314724
 20
20.2505976982
 30
0.0
  0
SPLINE
  5
477
100
AcDbEntity
  8
_1
100
AcDbSpline
 62
7
  6
CONTINUOUS
 70
0
 71
3
 72
8
 73
4
 74
0
 42
0.0000001
 43
0.0000001
 44
0.0000000001
 40
0.0
 40
0.0
 40
0.0
 40
0.0
 40
1.0
 40
1.0
 40
1.0
 40
1.0
 10
18.3811314724
 20
20.2505976982
 30
0.0
 10
18.3559805525
 20
20.2224287143
 30
0.0
 10
18.3247934354
 20
20.2083441665
 30
0.0
 10
18.2875700963
 20
20.2083441665
 30
0.0
  0
SPLINE
  5
478
100
AcDbEntity
  8
_1
100
AcDbSpline
 62
7
  6
CONTINUOUS
 70
0
 71
3
 72
8
 73
4
 74
0
 42
0.0000001
 43
0.0000001
 44
0.0000000001
 40
0.0
 40
0.0
 40
0.0
 40
0.0
 40
1.0
 40
1.0
 40
1.0
 40
1.0
 10
18.2875700963
 20
20.2083441665
 30
0.0
 10
18.2533648682
 20
20.2083441665
 30
0.0
 10
18.2272079659
 20
20.2163924923
 30
0.0
 10
18.2090993222
 20
20.2334950852
 30
0.0
  0
SPLINE
  5
479
100
AcDbEntity
  8
_1
100
AcDbSpline
 62
7
  6
CONTINUOUS
 70
0
 71
3
 72
8
 73
4
 74
0
 42
0.0000001
 43
0.0000001
 44
0.0000000001
 40
0.0
 40
0.0
 40
0.0
 40
0.0
 40
1.0
 40
1.0
 40
1.0
 40
1.0
 10
18.2090993222
 20
20.2334950852
 30
0.0
 10
18.190990634
 20
20.2505977204
 30
0.0
 10
18.1718759608
 20
20.2787667265
 30
0.0
 10
18.1521566387
 20
20.3182053708
 30
0.0
  0
SPLINE
  5
47A
100
AcDbEntity
  8
_1
100
AcDbSpline
 62
7
  6
CONTINUOUS
 70
0
 71
3
 72
8
 73
4
 74
0
 42
0.0000001
 43
0.0000001
 44
0.0000000001
 40
0.0
 40
0.0
 40
0.0
 40
0.0
 40
1.0
 40
1.0
 40
1.0
 40
1.0
 10
18.1521566387
 20
20.3182053708
 30
0.0
 10
18.1245922816
 20
20.373334085
 30
0.0
 10
18.0923990679
 20
20.416593646
 30
0.0
 10
18.0549707162
 20
20.4475344239
 30
0.0
  0
SPLINE
  5
47B
100
AcDbEntity
  8
_1
100
AcDbSpline
 62
7
  6
CONTINUOUS
 70
0
 71
3
 72
8
 73
4
 74
0
 42
0.0000001
 43
0.0000001
 44
0.0000000001
 40
0.0
 40
0.0
 40
0.0
 40
0.0
 40
1.0
 40
1.0
 40
1.0
 40
1.0
 10
18.0549707162
 20
20.4475344239
 30
0.0
 10
18.0169463825
 20
20.4789678802
 30
0.0
 10
17.9565841627
 20
20.4950645318
 30
0.0
 10
17.8740892482
 20
20.4950645318
 30
0.0
  0
SPLINE
  5
47C
100
AcDbEntity
  8
_1
100
AcDbSpline
 62
7
  6
CONTINUOUS
 70
0
 71
3
 72
8
 73
4
 74
0
 42
0.0000001
 43
0.0000001
 44
0.0000000001
 40
0.0
 40
0.0
 40
0.0
 40
0.0
 40
1.0
 40
1.0
 40
1.0
 40
1.0
 10
17.8740892482
 20
20.4950645318
 30
0.0
 10
17.796624459
 20
20.4950645318
 30
0.0
 10
17.7342501801
 20
20.477961873
 30
0.0
 10
17.6869664932
 20
20.4437566556
 30
0.0
  0
SPLINE
  5
47D
100
AcDbEntity
  8
_1
100
AcDbSpline
 62
7
  6
CONTINUOUS
 70
0
 71
3
 72
8
 73
4
 74
0
 42
0.0000001
 43
0.0000001
 44
0.0000000001
 40
0.0
 40
0.0
 40
0.0
 40
0.0
 40
1.0
 40
1.0
 40
1.0
 40
1.0
 10
17.6869664932
 20
20.4437566556
 30
0.0
 10
17.6396827769
 20
20.4095514169
 30
0.0
 10
17.6165439409
 20
20.3693099668
 30
0.0
 10
17.6165439409
 20
20.3220262875
 30
0.0
  0
SPLINE
  5
47E
100
AcDbEntity
  8
_1
100
AcDbSpline
 62
7
  6
CONTINUOUS
 70
0
 71
3
 72
8
 73
4
 74
0
 42
0.0000001
 43
0.0000001
 44
0.0000000001
 40
0.0
 40
0.0
 40
0.0
 40
0.0
 40
1.0
 40
1.0
 40
1.0
 40
1.0
 10
17.6165439409
 20
20.3220262875
 30
0.0
 10
17.6165439409
 20
20.2918451776
 30
0.0
 10
17.6245922667
 20
20.2666942825
 30
0.0
 10
17.640448933
 20
20.2453868624
 30
0.0
  0
SPLINE
  5
47F
100
AcDbEntity
  8
_1
100
AcDbSpline
 62
7
  6
CONTINUOUS
 70
0
 71
3
 72
8
 73
4
 74
0
 42
0.0000001
 43
0.0000001
 44
0.0000000001
 40
0.0
 40
0.0
 40
0.0
 40
0.0
 40
1.0
 40
1.0
 40
1.0
 40
1.0
 10
17.640448933
 20
20.2453868624
 30
0.0
 10
17.656785391
 20
20.2234347214
 30
0.0
 10
17.6789182198
 20
20.2053260555
 30
0.0
 10
17.7068767421
 20
20.1898490148
 30
0.0
  0
SPLINE
  5
480
100
AcDbEntity
  8
_1
100
AcDbSpline
 62
7
  6
CONTINUOUS
 70
0
 71
3
 72
8
 73
4
 74
0
 42
0.0000001
 43
0.0000001
 44
0.0000000001
 40
0.0
 40
0.0
 40
0.0
 40
0.0
 40
1.0
 40
1.0
 40
1.0
 40
1.0
 10
17.7068767421
 20
20.1898490148
 30
0.0
 10
17.735256232
 20
20.1741389384
 30
0.0
 10
17.7634252381
 20
20.1620664944
 30
0.0
 10
17.7924276548
 20
20.1534166743
 30
0.0
  0
SPLINE
  5
481
100
AcDbEntity
  8
_1
100
AcDbSpline
 62
7
  6
CONTINUOUS
 70
0
 71
3
 72
8
 73
4
 74
0
 42
0.0000001
 43
0.0000001
 44
0.0000000001
 40
0.0
 40
0.0
 40
0.0
 40
0.0
 40
1.0
 40
1.0
 40
1.0
 40
1.0
 10
17.7924276548
 20
20.1534166743
 30
0.0
 10
17.8207693023
 20
20.1449639251
 30
0.0
 10
17.8690590334
 20
20.1318853845
 30
0.0
 10
17.9354449635
 20
20.1157374825
 30
0.0
  0
SPLINE
  5
482
100
AcDbEntity
  8
_1
100
AcDbSpline
 62
7
  6
CONTINUOUS
 70
0
 71
3
 72
8
 73
4
 74
0
 42
0.0000001
 43
0.0000001
 44
0.0000000001
 40
0.0
 40
0.0
 40
0.0
 40
0.0
 40
1.0
 40
1.0
 40
1.0
 40
1.0
 10
17.9354449635
 20
20.1157374825
 30
0.0
 10
18.0179523897
 20
20.0956681421
 30
0.0
 10
18.0934051645
 20
20.0745413651
 30
0.0
 10
18.1606539344
 20
20.0509541136
 30
0.0
  0
SPLINE
  5
483
100
AcDbEntity
  8
_1
100
AcDbSpline
 62
7
  6
CONTINUOUS
 70
0
 71
3
 72
8
 73
4
 74
0
 42
0.0000001
 43
0.0000001
 44
0.0000000001
 40
0.0
 40
0.0
 40
0.0
 40
0.0
 40
1.0
 40
1.0
 40
1.0
 40
1.0
 10
18.1606539344
 20
20.0509541137
 30
0.0
 10
18.2282139731
 20
20.0272576859
 30
0.0
 10
18.2855580819
 20
19.9990885904
 30
0.0
 10
18.3326051698
 20
19.9655550225
 30
0.0
  0
SPLINE
  5
484
100
AcDbEntity
  8
_1
100
AcDbSpline
 62
7
  6
CONTINUOUS
 70
0
 71
3
 72
8
 73
4
 74
0
 42
0.0000001
 43
0.0000001
 44
0.0000000001
 40
0.0
 40
0.0
 40
0.0
 40
0.0
 40
1.0
 40
1.0
 40
1.0
 40
1.0
 10
18.3326051698
 20
19.9655550225
 30
0.0
 10
18.3801254404
 20
19.9316841861
 30
0.0
 10
18.4173487795
 20
19.8894306769
 30
0.0
 10
18.4435057357
 20
19.8381228167
 30
0.0
  0
SPLINE
  5
485
100
AcDbEntity
  8
_1
100
AcDbSpline
 62
7
  6
CONTINUOUS
 70
0
 71
3
 72
8
 73
4
 74
0
 42
0.0000001
 43
0.0000001
 44
0.0000000001
 40
0.0
 40
0.0
 40
0.0
 40
0.0
 40
1.0
 40
1.0
 40
1.0
 40
1.0
 10
18.4435057357
 20
19.8381228167
 30
0.0
 10
18.4696626735
 20
19.7868149926
 30
0.0
 10
18.4837472212
 20
19.7244407584
 30
0.0
 10
18.4837472212
 20
19.6499940803
 30
0.0
  0
SPLINE
  5
486
100
AcDbEntity
  8
_1
100
AcDbSpline
 62
7
  6
CONTINUOUS
 70
0
 71
3
 72
8
 73
4
 74
0
 42
0.0000001
 43
0.0000001
 44
0.0000000001
 40
0.0
 40
0.0
 40
0.0
 40
0.0
 40
1.0
 40
1.0
 40
1.0
 40
1.0
 10
18.4837472212
 20
19.6499940803
 30
0.0
 10
18.4837472212
 20
19.5604568472
 30
0.0
 10
18.4606083405
 20
19.479973947
 30
0.0
 10
18.4145606266
 20
19.4094008305
 30
0.0
  0
SPLINE
  5
487
100
AcDbEntity
  8
_1
100
AcDbSpline
 62
7
  6
CONTINUOUS
 70
0
 71
3
 72
8
 73
4
 74
0
 42
0.0000001
 43
0.0000001
 44
0.0000000001
 40
0.0
 40
0.0
 40
0.0
 40
0.0
 40
1.0
 40
1.0
 40
1.0
 40
1.0
 10
19.3272872646
 20
19.2269330725
 30
0.0
 10
19.2996424806
 20
19.197277767
 30
0.0
 10
19.2644313347
 20
19.1821872232
 30
0.0
 10
19.2211717737
 20
19.1821872232
 30
0.0
  0
SPLINE
  5
488
100
AcDbEntity
  8
_1
100
AcDbSpline
 62
7
  6
CONTINUOUS
 70
0
 71
3
 72
8
 73
4
 74
0
 42
0.0000001
 43
0.0000001
 44
0.0000000001
 40
0.0
 40
0.0
 40
0.0
 40
0.0
 40
1.0
 40
1.0
 40
1.0
 40
1.0
 10
19.2211717737
 20
19.1821872232
 30
0.0
 10
19.1769062054
 20
19.1821872232
 30
0.0
 10
19.1406888735
 20
19.197277767
 30
0.0
 10
19.1125198258
 20
19.2274588991
 30
0.0
  0
SPLINE
  5
489
100
AcDbEntity
  8
_1
100
AcDbSpline
 62
7
  6
CONTINUOUS
 70
0
 71
3
 72
8
 73
4
 74
0
 42
0.0000001
 43
0.0000001
 44
0.0000000001
 40
0.0
 40
0.0
 40
0.0
 40
0.0
 40
1.0
 40
1.0
 40
1.0
 40
1.0
 10
18.745316602
 20
20.4357083192
 30
0.0
 10
18.6940087152
 20
20.4357083192
 30
0.0
 10
18.6557793689
 20
20.4467747559
 30
0.0
 10
18.6314086618
 20
20.46865864
 30
0.0
  0
SPLINE
  5
48A
100
AcDbEntity
  8
_1
100
AcDbSpline
 62
7
  6
CONTINUOUS
 70
0
 71
3
 72
8
 73
4
 74
0
 42
0.0000001
 43
0.0000001
 44
0.0000000001
 40
0.0
 40
0.0
 40
0.0
 40
0.0
 40
1.0
 40
1.0
 40
1.0
 40
1.0
 10
18.6314086618
 20
20.46865864
 30
0.0
 10
18.6064835859
 20
20.4910403242
 30
0.0
 10
18.5944111419
 20
20.5212214341
 30
0.0
 10
18.5944111419
 20
20.5584447732
 30
0.0
  0
SPLINE
  5
48B
100
AcDbEntity
  8
_1
100
AcDbSpline
 62
7
  6
CONTINUOUS
 70
0
 71
3
 72
8
 73
4
 74
0
 42
0.0000001
 43
0.0000001
 44
0.0000000001
 40
0.0
 40
0.0
 40
0.0
 40
0.0
 40
1.0
 40
1.0
 40
1.0
 40
1.0
 10
18.5944111419
 20
20.5584447732
 30
0.0
 10
18.5944111419
 20
20.5966741194
 30
0.0
 10
18.6064835858
 20
20.6268552294
 30
0.0
 10
18.6326405589
 20
20.6489880355
 30
0.0
  0
SPLINE
  5
48C
100
AcDbEntity
  8
_1
100
AcDbSpline
 62
7
  6
CONTINUOUS
 70
0
 71
3
 72
8
 73
4
 74
0
 42
0.0000001
 43
0.0000001
 44
0.0000000001
 40
0.0
 40
0.0
 40
0.0
 40
0.0
 40
1.0
 40
1.0
 40
1.0
 40
1.0
 10
18.6326405589
 20
20.6489880355
 30
0.0
 10
18.6587974799
 20
20.6711207976
 30
0.0
 10
18.696020819
 20
20.6821872344
 30
0.0
 10
18.7453166021
 20
20.6821872344
 30
0.0
  0
SPLINE
  5
48D
100
AcDbEntity
  8
_1
100
AcDbSpline
 62
7
  6
CONTINUOUS
 70
0
 71
3
 72
8
 73
4
 74
0
 42
0.0000001
 43
0.0000001
 44
0.0000000001
 40
0.0
 40
0.0
 40
0.0
 40
0.0
 40
1.0
 40
1.0
 40
1.0
 40
1.0
 10
19.6950147522
 20
20.6821872344
 30
0.0
 10
19.7463225496
 20
20.6821872344
 30
0.0
 10
19.7845520747
 20
20.6701147904
 30
0.0
 10
19.8094543862
 20
20.6477026835
 30
0.0
  0
SPLINE
  5
48E
100
AcDbEntity
  8
_1
100
AcDbSpline
 62
7
  6
CONTINUOUS
 70
0
 71
3
 72
8
 73
4
 74
0
 42
0.0000001
 43
0.0000001
 44
0.0000000001
 40
0.0
 40
0.0
 40
0.0
 40
0.0
 40
1.0
 40
1.0
 40
1.0
 40
1.0
 10
19.8094543862
 20
20.6477026835
 30
0.0
 10
19.8348538649
 20
20.6248431256
 30
0.0
 10
19.8479323161
 20
20.5946621051
 30
0.0
 10
19.8479323161
 20
20.5584447732
 30
0.0
  0
SPLINE
  5
48F
100
AcDbEntity
  8
_1
100
AcDbSpline
 62
7
  6
CONTINUOUS
 70
0
 71
3
 72
8
 73
4
 74
0
 42
0.0000001
 43
0.0000001
 44
0.0000000001
 40
0.0
 40
0.0
 40
0.0
 40
0.0
 40
1.0
 40
1.0
 40
1.0
 40
1.0
 10
19.8479323161
 20
20.5584447732
 30
0.0
 10
19.8479323161
 20
20.5212214341
 30
0.0
 10
19.8348538649
 20
20.4910403242
 30
0.0
 10
19.8094870734
 20
20.4691553168
 30
0.0
  0
SPLINE
  5
490
100
AcDbEntity
  8
_1
100
AcDbSpline
 62
7
  6
CONTINUOUS
 70
0
 71
3
 72
8
 73
4
 74
0
 42
0.0000001
 43
0.0000001
 44
0.0000000001
 40
0.0
 40
0.0
 40
0.0
 40
0.0
 40
1.0
 40
1.0
 40
1.0
 40
1.0
 10
19.8094870734
 20
20.4691553168
 30
0.0
 10
19.7835458887
 20
20.4467747559
 30
0.0
 10
19.7453165424
 20
20.4357083192
 30
0.0
 10
19.6950147522
 20
20.4357083192
 30
0.0
  0
SPLINE
  5
491
100
AcDbEntity
  8
_1
100
AcDbSpline
 62
7
  6
CONTINUOUS
 70
0
 71
3
 72
8
 73
4
 74
0
 42
0.0000001
 43
0.0000001
 44
0.0000000001
 40
0.0
 40
0.0
 40
0.0
 40
0.0
 40
1.0
 40
1.0
 40
1.0
 40
1.0
 10
17.0889942615
 20
16.8767027634
 30
0.0
 10
17.061091263
 20
16.847277767
 30
0.0
 10
17.025879983
 20
16.8321872232
 30
0.0
 10
16.9816143924
 20
16.8321872232
 30
0.0
  0
SPLINE
  5
492
100
AcDbEntity
  8
_1
100
AcDbSpline
 62
7
  6
CONTINUOUS
 70
0
 71
3
 72
8
 73
4
 74
0
 42
0.0000001
 43
0.0000001
 44
0.0000000001
 40
0.0
 40
0.0
 40
0.0
 40
0.0
 40
1.0
 40
1.0
 40
1.0
 40
1.0
 10
16.9816143924
 20
16.8321872232
 30
0.0
 10
16.9657171429
 20
16.8321872232
 30
0.0
 10
16.9511282617
 20
16.8339317097
 30
0.0
 10
16.9377759601
 20
16.837348896
 30
0.0
  0
SPLINE
  5
493
100
AcDbEntity
  8
_1
100
AcDbSpline
 62
7
  6
CONTINUOUS
 70
0
 71
3
 72
8
 73
4
 74
0
 42
0.0000001
 43
0.0000001
 44
0.0000000001
 40
0.0
 40
0.0
 40
0.0
 40
0.0
 40
1.0
 40
1.0
 40
1.0
 40
1.0
 10
16.9377759601
 20
16.837348896
 30
0.0
 10
16.9240133305
 20
16.8408710953
 30
0.0
 10
16.9115644507
 20
16.8461703811
 30
0.0
 10
16.9003507079
 20
16.8531681427
 30
0.0
  0
SPLINE
  5
494
100
AcDbEntity
  8
_1
100
AcDbSpline
 62
7
  6
CONTINUOUS
 70
0
 71
3
 72
8
 73
4
 74
0
 42
0.0000001
 43
0.0000001
 44
0.0000000001
 40
0.0
 40
0.0
 40
0.0
 40
0.0
 40
1.0
 40
1.0
 40
1.0
 40
1.0
 10
16.9003507079
 20
16.8531681427
 30
0.0
 10
16.8893963833
 20
16.8600040185
 30
0.0
 10
16.8796207097
 20
16.8684606943
 30
0.0
 10
16.8709504051
 20
16.87846489
 30
0.0
  0
SPLINE
  5
495
100
AcDbEntity
  8
_1
100
AcDbSpline
 62
7
  6
CONTINUOUS
 70
0
 71
3
 72
8
 73
4
 74
0
 42
0.0000001
 43
0.0000001
 44
0.0000000001
 40
0.0
 40
0.0
 40
0.0
 40
0.0
 40
1.0
 40
1.0
 40
1.0
 40
1.0
 10
16.8709504051
 20
16.87846489
 30
0.0
 10
16.8623101386
 20
16.8884344263
 30
0.0
 10
16.8550969157
 20
16.9000505504
 30
0.0
 10
16.8493107363
 20
16.9133132627
 30
0.0
  0
SPLINE
  5
496
100
AcDbEntity
  8
_1
100
AcDbSpline
 62
7
  6
CONTINUOUS
 70
0
 71
3
 72
8
 73
4
 74
0
 42
0.0000001
 43
0.0000001
 44
0.0000000001
 40
0.0
 40
0.0
 40
0.0
 40
0.0
 40
1.0
 40
1.0
 40
1.0
 40
1.0
 10
16.8493107363
 20
16.9133132627
 30
0.0
 10
16.8460354592
 20
16.9208206445
 30
0.0
 10
16.8432174276
 20
16.9288556172
 30
0.0
 10
16.8408566417
 20
16.9374181809
 30
0.0
  0
SPLINE
  5
497
100
AcDbEntity
  8
_1
100
AcDbSpline
 62
7
  6
CONTINUOUS
 70
0
 71
3
 72
8
 73
4
 74
0
 42
0.0000001
 43
0.0000001
 44
0.0000000001
 40
0.0
 40
0.0
 40
0.0
 40
0.0
 40
1.0
 40
1.0
 40
1.0
 40
1.0
 10
16.8408566417
 20
16.9374181809
 30
0.0
 10
16.8390160412
 20
16.9440940336
 30
0.0
 10
16.8374533835
 20
16.9510905893
 30
0.0
 10
16.8361686686
 20
16.9584078483
 30
0.0
  0
SPLINE
  5
498
100
AcDbEntity
  8
_1
100
AcDbSpline
 62
7
  6
CONTINUOUS
 70
0
 71
3
 72
8
 73
4
 74
0
 42
0.0000001
 43
0.0000001
 44
0.0000000001
 40
0.0
 40
0.0
 40
0.0
 40
0.0
 40
1.0
 40
1.0
 40
1.0
 40
1.0
 10
16.8361686686
 20
16.9584078483
 30
0.0
 10
16.8331995457
 20
16.9753188693
 30
0.0
 10
16.8317149842
 20
16.9939428458
 30
0.0
 10
16.8317149842
 20
17.0142797781
 30
0.0
  0
SPLINE
  5
499
100
AcDbEntity
  8
_1
100
AcDbSpline
 62
7
  6
CONTINUOUS
 70
0
 71
3
 72
8
 73
4
 74
0
 42
0.0000001
 43
0.0000001
 44
0.0000000001
 40
0.0
 40
0.0
 40
0.0
 40
0.0
 40
1.0
 40
1.0
 40
1.0
 40
1.0
 10
16.8317149842
 20
18.14908865
 30
0.0
 10
16.8317149842
 20
18.213474988
 30
0.0
 10
16.8457994984
 20
18.25975266
 30
0.0
 10
16.874974537
 20
18.2889276815
 30
0.0
  0
SPLINE
  5
49A
100
AcDbEntity
  8
_1
100
AcDbSpline
 62
7
  6
CONTINUOUS
 70
0
 71
3
 72
8
 73
4
 74
0
 42
0.0000001
 43
0.0000001
 44
0.0000000001
 40
0.0
 40
0.0
 40
0.0
 40
0.0
 40
1.0
 40
1.0
 40
1.0
 40
1.0
 10
16.874974537
 20
18.2889276816
 30
0.0
 10
16.9031435514
 20
18.3170966794
 30
0.0
 10
16.950427253
 20
18.3321872344
 30
0.0
 10
17.0148135686
 20
18.3321872344
 30
0.0
  0
SPLINE
  5
49B
100
AcDbEntity
  8
_1
100
AcDbSpline
 62
7
  6
CONTINUOUS
 70
0
 71
3
 72
8
 73
4
 74
0
 42
0.0000001
 43
0.0000001
 44
0.0000000001
 40
0.0
 40
0.0
 40
0.0
 40
0.0
 40
1.0
 40
1.0
 40
1.0
 40
1.0
 10
17.5007290581
 20
18.3321872344
 30
0.0
 10
17.5671274999
 20
18.3321872344
 30
0.0
 10
17.6244715193
 20
18.3291691234
 30
0.0
 10
17.6727534352
 20
18.3230703513
 30
0.0
  0
SPLINE
  5
49C
100
AcDbEntity
  8
_1
100
AcDbSpline
 62
7
  6
CONTINUOUS
 70
0
 71
3
 72
8
 73
4
 74
0
 42
0.0000001
 43
0.0000001
 44
0.0000000001
 40
0.0
 40
0.0
 40
0.0
 40
0.0
 40
1.0
 40
1.0
 40
1.0
 40
1.0
 10
17.6727534352
 20
18.3230703513
 30
0.0
 10
17.7200449744
 20
18.3170966794
 30
0.0
 10
17.7633045355
 20
18.3060302427
 30
0.0
 10
17.8016317034
 20
18.2891480334
 30
0.0
  0
SPLINE
  5
49D
100
AcDbEntity
  8
_1
100
AcDbSpline
 62
7
  6
CONTINUOUS
 70
0
 71
3
 72
8
 73
4
 74
0
 42
0.0000001
 43
0.0000001
 44
0.0000000001
 40
0.0
 40
0.0
 40
0.0
 40
0.0
 40
1.0
 40
1.0
 40
1.0
 40
1.0
 10
17.8016317034
 20
18.2891480334
 30
0.0
 10
17.8478115538
 20
18.2688069036
 30
0.0
 10
17.8880530039
 20
18.2416439941
 30
0.0
 10
17.9240161732
 20
18.2051742708
 30
0.0
  0
SPLINE
  5
49E
100
AcDbEntity
  8
_1
100
AcDbSpline
 62
7
  6
CONTINUOUS
 70
0
 71
3
 72
8
 73
4
 74
0
 42
0.0000001
 43
0.0000001
 44
0.0000000001
 40
0.0
 40
0.0
 40
0.0
 40
0.0
 40
1.0
 40
1.0
 40
1.0
 40
1.0
 10
17.9240161731
 20
18.2051742708
 30
0.0
 10
17.959481571
 20
18.1692093303
 30
0.0
 10
17.9866445699
 20
18.1269558658
 30
0.0
 10
18.0047532506
 20
18.0786660955
 30
0.0
  0
SPLINE
  5
49F
100
AcDbEntity
  8
_1
100
AcDbSpline
 62
7
  6
CONTINUOUS
 70
0
 71
3
 72
8
 73
4
 74
0
 42
0.0000001
 43
0.0000001
 44
0.0000000001
 40
0.0
 40
0.0
 40
0.0
 40
0.0
 40
1.0
 40
1.0
 40
1.0
 40
1.0
 10
18.0047532506
 20
18.0786660955
 30
0.0
 10
18.0228619018
 20
18.0303764035
 30
0.0
 10
18.032922242
 20
17.9800745239
 30
0.0
 10
18.032922242
 20
17.9267546227
 30
0.0
  0
SPLINE
  5
4A0
100
AcDbEntity
  8
_1
100
AcDbSpline
 62
7
  6
CONTINUOUS
 70
0
 71
3
 72
8
 73
4
 74
0
 42
0.0000001
 43
0.0000001
 44
0.0000000001
 40
0.0
 40
0.0
 40
0.0
 40
0.0
 40
1.0
 40
1.0
 40
1.0
 40
1.0
 10
18.032922242
 20
17.9267546227
 30
0.0
 10
18.032922242
 20
17.8160906126
 30
0.0
 10
18.0017351249
 20
17.7285654833
 30
0.0
 10
17.9396115701
 20
17.6629349429
 30
0.0
  0
SPLINE
  5
4A1
100
AcDbEntity
  8
_1
100
AcDbSpline
 62
7
  6
CONTINUOUS
 70
0
 71
3
 72
8
 73
4
 74
0
 42
0.0000001
 43
0.0000001
 44
0.0000000001
 40
0.0
 40
0.0
 40
0.0
 40
0.0
 40
1.0
 40
1.0
 40
1.0
 40
1.0
 10
17.6576707402
 20
17.5233341148
 30
0.0
 10
17.7099846342
 20
17.4951651087
 30
0.0
 10
17.7612924317
 20
17.4529115548
 30
0.0
 10
17.8093331978
 20
17.398365277
 30
0.0
  0
SPLINE
  5
4A2
100
AcDbEntity
  8
_1
100
AcDbSpline
 62
7
  6
CONTINUOUS
 70
0
 71
3
 72
8
 73
4
 74
0
 42
0.0000001
 43
0.0000001
 44
0.0000000001
 40
0.0
 40
0.0
 40
0.0
 40
0.0
 40
1.0
 40
1.0
 40
1.0
 40
1.0
 10
17.8093331978
 20
17.398365277
 30
0.0
 10
17.857871894
 20
17.3432536413
 30
0.0
 10
17.9001254478
 20
17.2849035253
 30
0.0
 10
17.9383548316
 20
17.2225292917
 30
0.0
  0
SPLINE
  5
4A3
100
AcDbEntity
  8
_1
100
AcDbSpline
 62
7
  6
CONTINUOUS
 70
0
 71
3
 72
8
 73
4
 74
0
 42
0.0000001
 43
0.0000001
 44
0.0000000001
 40
0.0
 40
0.0
 40
0.0
 40
0.0
 40
1.0
 40
1.0
 40
1.0
 40
1.0
 10
17.9383548316
 20
17.2225292917
 30
0.0
 10
17.9765842298
 20
17.1601550346
 30
0.0
 10
18.0057592431
 20
17.1048230296
 30
0.0
 10
18.026886022
 20
17.0545212178
 30
0.0
  0
SPLINE
  5
4A4
100
AcDbEntity
  8
_1
100
AcDbSpline
 62
7
  6
CONTINUOUS
 70
0
 71
3
 72
8
 73
4
 74
0
 42
0.0000001
 43
0.0000001
 44
0.0000000001
 40
0.0
 40
0.0
 40
0.0
 40
0.0
 40
1.0
 40
1.0
 40
1.0
 40
1.0
 10
18.0590791443
 20
16.9519055327
 30
0.0
 10
18.0590791443
 20
16.9317848077
 30
0.0
 10
18.0520369151
 20
16.9126701233
 30
0.0
 10
18.0399644709
 20
16.8935554336
 30
0.0
  0
SPLINE
  5
4A5
100
AcDbEntity
  8
_1
100
AcDbSpline
 62
7
  6
CONTINUOUS
 70
0
 71
3
 72
8
 73
4
 74
0
 42
0.0000001
 43
0.0000001
 44
0.0000000001
 40
0.0
 40
0.0
 40
0.0
 40
0.0
 40
1.0
 40
1.0
 40
1.0
 40
1.0
 10
18.0399644709
 20
16.8935554337
 30
0.0
 10
18.0278920272
 20
16.8744407449
 30
0.0
 10
18.0107894579
 20
16.8593502019
 30
0.0
 10
17.9897631393
 20
16.8490815354
 30
0.0
  0
SPLINE
  5
4A6
100
AcDbEntity
  8
_1
100
AcDbSpline
 62
7
  6
CONTINUOUS
 70
0
 71
3
 72
8
 73
4
 74
0
 42
0.0000001
 43
0.0000001
 44
0.0000000001
 40
0.0
 40
0.0
 40
0.0
 40
0.0
 40
1.0
 40
1.0
 40
1.0
 40
1.0
 10
17.9897631393
 20
16.8490815354
 30
0.0
 10
17.9675298968
 20
16.838223441
 30
0.0
 10
17.9433850089
 20
16.8321872232
 30
0.0
 10
17.9152160028
 20
16.8321872232
 30
0.0
  0
SPLINE
  5
4A7
100
AcDbEntity
  8
_1
100
AcDbSpline
 62
7
  6
CONTINUOUS
 70
0
 71
3
 72
8
 73
4
 74
0
 42
0.0000001
 43
0.0000001
 44
0.0000000001
 40
0.0
 40
0.0
 40
0.0
 40
0.0
 40
1.0
 40
1.0
 40
1.0
 40
1.0
 10
17.9152160028
 20
16.8321872232
 30
0.0
 10
17.8810103765
 20
16.8321872232
 30
0.0
 10
17.8528411127
 20
16.8402357014
 30
0.0
 10
17.8303039333
 20
16.8557615663
 30
0.0
  0
SPLINE
  5
4A8
100
AcDbEntity
  8
_1
100
AcDbSpline
 62
7
  6
CONTINUOUS
 70
0
 71
3
 72
8
 73
4
 74
0
 42
0.0000001
 43
0.0000001
 44
0.0000000001
 40
0.0
 40
0.0
 40
0.0
 40
0.0
 40
1.0
 40
1.0
 40
1.0
 40
1.0
 10
17.7713576015
 20
16.9156810528
 30
0.0
 10
17.7552606077
 20
16.9398261031
 30
0.0
 10
17.7331262236
 20
16.9750396719
 30
0.0
 10
17.7049544177
 20
17.0223280733
 30
0.0
  0
SPLINE
  5
4A9
100
AcDbEntity
  8
_1
100
AcDbSpline
 62
7
  6
CONTINUOUS
 70
0
 71
3
 72
8
 73
4
 74
0
 42
0.0000001
 43
0.0000001
 44
0.0000000001
 40
0.0
 40
0.0
 40
0.0
 40
0.0
 40
1.0
 40
1.0
 40
1.0
 40
1.0
 10
17.585236077
 20
17.2215232383
 30
0.0
 10
17.5417747699
 20
17.293836989
 30
0.0
 10
17.5037471692
 20
17.3502958703
 30
0.0
 10
17.4695419299
 20
17.3885252516
 30
0.0
  0
SPLINE
  5
4AA
100
AcDbEntity
  8
_1
100
AcDbSpline
 62
7
  6
CONTINUOUS
 70
0
 71
3
 72
8
 73
4
 74
0
 42
0.0000001
 43
0.0000001
 44
0.0000000001
 40
0.0
 40
0.0
 40
0.0
 40
0.0
 40
1.0
 40
1.0
 40
1.0
 40
1.0
 10
17.4695419299
 20
17.3885252516
 30
0.0
 10
17.4353367129
 20
17.4267546078
 30
0.0
 10
17.4011314848
 20
17.4529115548
 30
0.0
 10
17.3668546942
 20
17.4668209934
 30
0.0
  0
SPLINE
  5
4AB
100
AcDbEntity
  8
_1
100
AcDbSpline
 62
7
  6
CONTINUOUS
 70
0
 71
3
 72
8
 73
4
 74
0
 42
0.0000001
 43
0.0000001
 44
0.0000000001
 40
0.0
 40
0.0
 40
0.0
 40
0.0
 40
1.0
 40
1.0
 40
1.0
 40
1.0
 10
17.3668546942
 20
17.4668209934
 30
0.0
 10
17.3317149768
 20
17.4810806056
 30
0.0
 10
17.2874494085
 20
17.4881228348
 30
0.0
 10
17.2351355145
 20
17.4881228348
 30
0.0
  0
SPLINE
  5
4AC
100
AcDbEntity
  8
_1
100
AcDbSpline
 62
7
  6
CONTINUOUS
 70
0
 71
3
 72
8
 73
4
 74
0
 42
0.0000001
 43
0.0000001
 44
0.0000000001
 40
0.0
 40
0.0
 40
0.0
 40
0.0
 40
1.0
 40
1.0
 40
1.0
 40
1.0
 10
19.2341294328
 20
17.7396319201
 30
0.0
 10
19.279401187
 20
17.7396319201
 30
0.0
 10
19.3136063257
 20
17.7285654833
 30
0.0
 10
19.3357391365
 20
17.708444734
 30
0.0
  0
SPLINE
  5
4AD
100
AcDbEntity
  8
_1
100
AcDbSpline
 62
7
  6
CONTINUOUS
 70
0
 71
3
 72
8
 73
4
 74
0
 42
0.0000001
 43
0.0000001
 44
0.0000000001
 40
0.0
 40
0.0
 40
0.0
 40
0.0
 40
1.0
 40
1.0
 40
1.0
 40
1.0
 10
19.3357391365
 20
17.708444734
 30
0.0
 10
19.357871894
 20
17.6883240332
 30
0.0
 10
19.3699443379
 20
17.6611610343
 30
0.0
 10
19.3699443379
 20
17.6279619028
 30
0.0
  0
SPLINE
  5
4AE
100
AcDbEntity
  8
_1
100
AcDbSpline
 62
7
  6
CONTINUOUS
 70
0
 71
3
 72
8
 73
4
 74
0
 42
0.0000001
 43
0.0000001
 44
0.0000000001
 40
0.0
 40
0.0
 40
0.0
 40
0.0
 40
1.0
 40
1.0
 40
1.0
 40
1.0
 10
19.3699443379
 20
17.6279619028
 30
0.0
 10
19.3699443379
 20
17.59375663
 30
0.0
 10
19.3588779012
 20
17.5665936758
 30
0.0
 10
19.3367451638
 20
17.5454669435
 30
0.0
  0
SPLINE
  5
4AF
100
AcDbEntity
  8
_1
100
AcDbSpline
 62
7
  6
CONTINUOUS
 70
0
 71
3
 72
8
 73
4
 74
0
 42
0.0000001
 43
0.0000001
 44
0.0000000001
 40
0.0
 40
0.0
 40
0.0
 40
0.0
 40
1.0
 40
1.0
 40
1.0
 40
1.0
 10
19.3367451638
 20
17.5454669436
 30
0.0
 10
19.3146123329
 20
17.524340122
 30
0.0
 10
19.2804071942
 20
17.5142797818
 30
0.0
 10
19.2341294328
 20
17.5142797818
 30
0.0
  0
SPLINE
  5
4B0
100
AcDbEntity
  8
_1
100
AcDbSpline
 62
7
  6
CONTINUOUS
 70
0
 71
3
 72
8
 73
4
 74
0
 42
0.0000001
 43
0.0000001
 44
0.0000000001
 40
0.0
 40
0.0
 40
0.0
 40
0.0
 40
1.0
 40
1.0
 40
1.0
 40
1.0
 10
19.3105883041
 20
17.094762667
 30
0.0
 10
19.3568658868
 20
17.094762667
 30
0.0
 10
19.3920772114
 20
17.083696275
 30
0.0
 10
19.4162220938
 20
17.0615634848
 30
0.0
  0
SPLINE
  5
4B1
100
AcDbEntity
  8
_1
100
AcDbSpline
 62
7
  6
CONTINUOUS
 70
0
 71
3
 72
8
 73
4
 74
0
 42
0.0000001
 43
0.0000001
 44
0.0000000001
 40
0.0
 40
0.0
 40
0.0
 40
0.0
 40
1.0
 40
1.0
 40
1.0
 40
1.0
 10
19.4162220938
 20
17.0615634848
 30
0.0
 10
19.4403669873
 20
17.0394306844
 30
0.0
 10
19.4524392525
 20
17.0112616671
 30
0.0
 10
19.4524392525
 20
16.9750443687
 30
0.0
  0
SPLINE
  5
4B2
100
AcDbEntity
  8
_1
100
AcDbSpline
 62
7
  6
CONTINUOUS
 70
0
 71
3
 72
8
 73
4
 74
0
 42
0.0000001
 43
0.0000001
 44
0.0000000001
 40
0.0
 40
0.0
 40
0.0
 40
0.0
 40
1.0
 40
1.0
 40
1.0
 40
1.0
 10
19.4524392524
 20
16.9750443687
 30
0.0
 10
19.4524392524
 20
16.9398330999
 30
0.0
 10
19.4403669873
 20
16.9116640826
 30
0.0
 10
19.4162220994
 20
16.8895312873
 30
0.0
  0
SPLINE
  5
4B3
100
AcDbEntity
  8
_1
100
AcDbSpline
 62
7
  6
CONTINUOUS
 70
0
 71
3
 72
8
 73
4
 74
0
 42
0.0000001
 43
0.0000001
 44
0.0000000001
 40
0.0
 40
0.0
 40
0.0
 40
0.0
 40
1.0
 40
1.0
 40
1.0
 40
1.0
 10
19.4162220994
 20
16.8895312873
 30
0.0
 10
19.3920772115
 20
16.867398492
 30
0.0
 10
19.3568658868
 20
16.8573381295
 30
0.0
 10
19.3105883042
 20
16.8573381295
 30
0.0
  0
SPLINE
  5
4B4
100
AcDbEntity
  8
_1
100
AcDbSpline
 62
7
  6
CONTINUOUS
 70
0
 71
3
 72
8
 73
4
 74
0
 42
0.0000001
 43
0.0000001
 44
0.0000000001
 40
0.0
 40
0.0
 40
0.0
 40
0.0
 40
1.0
 40
1.0
 40
1.0
 40
1.0
 10
18.4987170736
 20
16.8573381295
 30
0.0
 10
18.4333246389
 20
16.8573381295
 30
0.0
 10
18.3860408703
 20
16.8714226367
 30
0.0
 10
18.3576193641
 20
16.9003516785
 30
0.0
  0
SPLINE
  5
4B5
100
AcDbEntity
  8
_1
100
AcDbSpline
 62
7
  6
CONTINUOUS
 70
0
 71
3
 72
8
 73
4
 74
0
 42
0.0000001
 43
0.0000001
 44
0.0000000001
 40
0.0
 40
0.0
 40
0.0
 40
0.0
 40
1.0
 40
1.0
 40
1.0
 40
1.0
 10
18.3576193641
 20
16.9003516785
 30
0.0
 10
18.329702858
 20
16.9287667023
 30
0.0
 10
18.3156183997
 20
16.9760503983
 30
0.0
 10
18.3156183997
 20
17.0404367251
 30
0.0
  0
SPLINE
  5
4B6
100
AcDbEntity
  8
_1
100
AcDbSpline
 62
7
  6
CONTINUOUS
 70
0
 71
3
 72
8
 73
4
 74
0
 42
0.0000001
 43
0.0000001
 44
0.0000000001
 40
0.0
 40
0.0
 40
0.0
 40
0.0
 40
1.0
 40
1.0
 40
1.0
 40
1.0
 10
18.3156183997
 20
18.14908865
 30
0.0
 10
18.3156183997
 20
18.1913421144
 30
0.0
 10
18.3216546217
 20
18.2265534391
 30
0.0
 10
18.3343203201
 20
18.2539113352
 30
0.0
  0
SPLINE
  5
4B7
100
AcDbEntity
  8
_1
100
AcDbSpline
 62
7
  6
CONTINUOUS
 70
0
 71
3
 72
8
 73
4
 74
0
 42
0.0000001
 43
0.0000001
 44
0.0000000001
 40
0.0
 40
0.0
 40
0.0
 40
0.0
 40
1.0
 40
1.0
 40
1.0
 40
1.0
 10
18.3343203201
 20
18.2539113352
 30
0.0
 10
18.3468055168
 20
18.2808793475
 30
0.0
 10
18.3669261971
 20
18.3010001173
 30
0.0
 10
18.3940892707
 20
18.3130725944
 30
0.0
  0
SPLINE
  5
4B8
100
AcDbEntity
  8
_1
100
AcDbSpline
 62
7
  6
CONTINUOUS
 70
0
 71
3
 72
8
 73
4
 74
0
 42
0.0000001
 43
0.0000001
 44
0.0000000001
 40
0.0
 40
0.0
 40
0.0
 40
0.0
 40
1.0
 40
1.0
 40
1.0
 40
1.0
 10
18.3940892707
 20
18.3130725944
 30
0.0
 10
18.421252195
 20
18.3251450052
 30
0.0
 10
18.4564635196
 20
18.3321872344
 30
0.0
 10
18.4987170735
 20
18.3321872344
 30
0.0
  0
SPLINE
  5
4B9
100
AcDbEntity
  8
_1
100
AcDbSpline
 62
7
  6
CONTINUOUS
 70
0
 71
3
 72
8
 73
4
 74
0
 42
0.0000001
 43
0.0000001
 44
0.0000000001
 40
0.0
 40
0.0
 40
0.0
 40
0.0
 40
1.0
 40
1.0
 40
1.0
 40
1.0
 10
19.2874494234
 20
18.3321872344
 30
0.0
 10
19.3347330132
 20
18.3321872344
 30
0.0
 10
19.3699443379
 20
18.3211207976
 30
0.0
 10
19.3930832409
 20
18.2999940451
 30
0.0
  0
SPLINE
  5
4BA
100
AcDbEntity
  8
_1
100
AcDbSpline
 62
7
  6
CONTINUOUS
 70
0
 71
3
 72
8
 73
4
 74
0
 42
0.0000001
 43
0.0000001
 44
0.0000000001
 40
0.0
 40
0.0
 40
0.0
 40
0.0
 40
1.0
 40
1.0
 40
1.0
 40
1.0
 10
19.3930832409
 20
18.2999940451
 30
0.0
 10
19.4162220994
 20
18.2788673331
 30
0.0
 10
19.4282945433
 20
18.2517043342
 30
0.0
 10
19.4282945433
 20
18.2174991061
 30
0.0
  0
SPLINE
  5
4BB
100
AcDbEntity
  8
_1
100
AcDbSpline
 62
7
  6
CONTINUOUS
 70
0
 71
3
 72
8
 73
4
 74
0
 42
0.0000001
 43
0.0000001
 44
0.0000000001
 40
0.0
 40
0.0
 40
0.0
 40
0.0
 40
1.0
 40
1.0
 40
1.0
 40
1.0
 10
19.4282945433
 20
18.2174991061
 30
0.0
 10
19.4282945433
 20
18.1822878709
 30
0.0
 10
19.4162220994
 20
18.1541187753
 30
0.0
 10
19.3930832409
 20
18.1329920634
 30
0.0
  0
SPLINE
  5
4BC
100
AcDbEntity
  8
_1
100
AcDbSpline
 62
7
  6
CONTINUOUS
 70
0
 71
3
 72
8
 73
4
 74
0
 42
0.0000001
 43
0.0000001
 44
0.0000000001
 40
0.0
 40
0.0
 40
0.0
 40
0.0
 40
1.0
 40
1.0
 40
1.0
 40
1.0
 10
19.3930832409
 20
18.1329920634
 30
0.0
 10
19.3699443379
 20
18.1118653109
 30
0.0
 10
19.3347330132
 20
18.1018049707
 30
0.0
 10
19.2874494234
 20
18.1018049707
 30
0.0
  0
SPLINE
  5
4BD
100
AcDbEntity
  8
_1
100
AcDbSpline
 62
7
  6
CONTINUOUS
 70
0
 71
3
 72
8
 73
4
 74
0
 42
0.0000001
 43
0.0000001
 44
0.0000000001
 40
0.0
 40
0.0
 40
0.0
 40
0.0
 40
1.0
 40
1.0
 40
1.0
 40
1.0
 10
20.1017149916
 20
16.8394341126
 30
0.0
 10
20.0101408264
 20
16.8508497197
 30
0.0
 10
19.9313121081
 20
16.8757969535
 30
0.0
 10
19.8648625701
 20
16.9145935824
 30
0.0
  0
SPLINE
  5
4BE
100
AcDbEntity
  8
_1
100
AcDbSpline
 62
7
  6
CONTINUOUS
 70
0
 71
3
 72
8
 73
4
 74
0
 42
0.0000001
 43
0.0000001
 44
0.0000000001
 40
0.0
 40
0.0
 40
0.0
 40
0.0
 40
1.0
 40
1.0
 40
1.0
 40
1.0
 10
19.8648625701
 20
16.9145935824
 30
0.0
 10
19.7975097337
 20
16.953917603
 30
0.0
 10
19.7431839147
 20
17.0062314858
 30
0.0
 10
19.7009303093
 20
17.0726299639
 30
0.0
  0
SPLINE
  5
4BF
100
AcDbEntity
  8
_1
100
AcDbSpline
 62
7
  6
CONTINUOUS
 70
0
 71
3
 72
8
 73
4
 74
0
 42
0.0000001
 43
0.0000001
 44
0.0000000001
 40
0.0
 40
0.0
 40
0.0
 40
0.0
 40
1.0
 40
1.0
 40
1.0
 40
1.0
 10
19.7009303093
 20
17.0726299639
 30
0.0
 10
19.658676807
 20
17.13902828
 30
0.0
 10
19.6385559479
 20
17.2034145956
 30
0.0
 10
19.6385559479
 20
17.2657888522
 30
0.0
  0
SPLINE
  5
4C0
100
AcDbEntity
  8
_1
100
AcDbSpline
 62
7
  6
CONTINUOUS
 70
0
 71
3
 72
8
 73
4
 74
0
 42
0.0000001
 43
0.0000001
 44
0.0000000001
 40
0.0
 40
0.0
 40
0.0
 40
0.0
 40
1.0
 40
1.0
 40
1.0
 40
1.0
 10
19.6385559479
 20
17.2657888522
 30
0.0
 10
19.6385559479
 20
17.3020061394
 30
0.0
 10
19.6506283918
 20
17.3321872046
 30
0.0
 10
19.6757792869
 20
17.3583441516
 30
0.0
  0
SPLINE
  5
4C1
100
AcDbEntity
  8
_1
100
AcDbSpline
 62
7
  6
CONTINUOUS
 70
0
 71
3
 72
8
 73
4
 74
0
 42
0.0000001
 43
0.0000001
 44
0.0000000001
 40
0.0
 40
0.0
 40
0.0
 40
0.0
 40
1.0
 40
1.0
 40
1.0
 40
1.0
 10
19.6757792869
 20
17.3583441516
 30
0.0
 10
19.7009301821
 20
17.3845010986
 30
0.0
 10
19.7331234852
 20
17.3975795945
 30
0.0
 10
19.7723588386
 20
17.3975795945
 30
0.0
  0
SPLINE
  5
4C2
100
AcDbEntity
  8
_1
100
AcDbSpline
 62
7
  6
CONTINUOUS
 70
0
 71
3
 72
8
 73
4
 74
0
 42
0.0000001
 43
0.0000001
 44
0.0000000001
 40
0.0
 40
0.0
 40
0.0
 40
0.0
 40
1.0
 40
1.0
 40
1.0
 40
1.0
 10
19.7723588386
 20
17.3975795945
 30
0.0
 10
19.8035461345
 20
17.3975795945
 30
0.0
 10
19.8297030369
 20
17.3875192096
 30
0.0
 10
19.8518356337
 20
17.3673985736
 30
0.0
  0
SPLINE
  5
4C3
100
AcDbEntity
  8
_1
100
AcDbSpline
 62
7
  6
CONTINUOUS
 70
0
 71
3
 72
8
 73
4
 74
0
 42
0.0000001
 43
0.0000001
 44
0.0000000001
 40
0.0
 40
0.0
 40
0.0
 40
0.0
 40
1.0
 40
1.0
 40
1.0
 40
1.0
 10
19.8518356337
 20
17.3673985736
 30
0.0
 10
19.8739684263
 20
17.3472777595
 30
0.0
 10
19.8920772711
 20
17.3170966943
 30
0.0
 10
19.9076691789
 20
17.2776580227
 30
0.0
  0
SPLINE
  5
4C4
100
AcDbEntity
  8
_1
100
AcDbSpline
 62
7
  6
CONTINUOUS
 70
0
 71
3
 72
8
 73
4
 74
0
 42
0.0000001
 43
0.0000001
 44
0.0000000001
 40
0.0
 40
0.0
 40
0.0
 40
0.0
 40
1.0
 40
1.0
 40
1.0
 40
1.0
 10
19.9076691789
 20
17.2776580227
 30
0.0
 10
19.9262822309
 20
17.2305775722
 30
0.0
 10
19.9464030901
 20
17.1913421517
 30
0.0
 10
19.9683004476
 20
17.1599892236
 30
0.0
  0
SPLINE
  5
4C5
100
AcDbEntity
  8
_1
100
AcDbSpline
 62
7
  6
CONTINUOUS
 70
0
 71
3
 72
8
 73
4
 74
0
 42
0.0000001
 43
0.0000001
 44
0.0000000001
 40
0.0
 40
0.0
 40
0.0
 40
0.0
 40
1.0
 40
1.0
 40
1.0
 40
1.0
 10
19.9683004476
 20
17.1599892236
 30
0.0
 10
19.9906688371
 20
17.1279618656
 30
0.0
 10
20.0208497682
 20
17.1018049409
 30
0.0
 10
20.0609889998
 20
17.0814812411
 30
0.0
  0
SPLINE
  5
4C6
100
AcDbEntity
  8
_1
100
AcDbSpline
 62
7
  6
CONTINUOUS
 70
0
 71
3
 72
8
 73
4
 74
0
 42
0.0000001
 43
0.0000001
 44
0.0000000001
 40
0.0
 40
0.0
 40
0.0
 40
0.0
 40
1.0
 40
1.0
 40
1.0
 40
1.0
 10
19.8991193214
 20
17.5947626819
 30
0.0
 10
19.8276906648
 20
17.6279619028
 30
0.0
 10
19.7713528314
 20
17.6732334783
 30
0.0
 10
19.7290993191
 20
17.730577486
 30
0.0
  0
SPLINE
  5
4C7
100
AcDbEntity
  8
_1
100
AcDbSpline
 62
7
  6
CONTINUOUS
 70
0
 71
3
 72
8
 73
4
 74
0
 42
0.0000001
 43
0.0000001
 44
0.0000000001
 40
0.0
 40
0.0
 40
0.0
 40
0.0
 40
1.0
 40
1.0
 40
1.0
 40
1.0
 10
19.7290993191
 20
17.730577486
 30
0.0
 10
19.6868457237
 20
17.7879216065
 30
0.0
 10
19.6667250434
 20
17.8593501737
 30
0.0
 10
19.6667250434
 20
17.9448632886
 30
0.0
  0
SPLINE
  5
4C8
100
AcDbEntity
  8
_1
100
AcDbSpline
 62
7
  6
CONTINUOUS
 70
0
 71
3
 72
8
 73
4
 74
0
 42
0.0000001
 43
0.0000001
 44
0.0000000001
 40
0.0
 40
0.0
 40
0.0
 40
0.0
 40
1.0
 40
1.0
 40
1.0
 40
1.0
 10
19.6667250434
 20
17.9448632886
 30
0.0
 10
19.6667250434
 20
18.0253461888
 30
0.0
 10
19.6888577381
 20
18.0977807631
 30
0.0
 10
19.7333604668
 20
18.1609949216
 30
0.0
  0
SPLINE
  5
4C9
100
AcDbEntity
  8
_1
100
AcDbSpline
 62
7
  6
CONTINUOUS
 70
0
 71
3
 72
8
 73
4
 74
0
 42
0.0000001
 43
0.0000001
 44
0.0000000001
 40
0.0
 40
0.0
 40
0.0
 40
0.0
 40
1.0
 40
1.0
 40
1.0
 40
1.0
 10
19.7333604668
 20
18.1609949216
 30
0.0
 10
19.7773888746
 20
18.2235353281
 30
0.0
 10
19.8407694736
 20
18.2718250146
 30
0.0
 10
19.9252048945
 20
18.3062059416
 30
0.0
  0
SPLINE
  5
4CA
100
AcDbEntity
  8
_1
100
AcDbSpline
 62
7
  6
CONTINUOUS
 70
0
 71
3
 72
8
 73
4
 74
0
 42
0.0000001
 43
0.0000001
 44
0.0000000001
 40
0.0
 40
0.0
 40
0.0
 40
0.0
 40
1.0
 40
1.0
 40
1.0
 40
1.0
 10
19.9252048945
 20
18.3062059416
 30
0.0
 10
19.9780340083
 20
18.3277172208
 30
0.0
 10
20.0368647015
 20
18.3424645986
 30
0.0
 10
20.1017149916
 20
18.3504036713
 30
0.0
  0
SPLINE
  5
4CB
100
AcDbEntity
  8
_1
100
AcDbSpline
 62
7
  6
CONTINUOUS
 70
0
 71
3
 72
8
 73
4
 74
0
 42
0.0000001
 43
0.0000001
 44
0.0000000001
 40
0.0
 40
0.0
 40
0.0
 40
0.0
 40
1.0
 40
1.0
 40
1.0
 40
1.0
 10
20.1017149916
 20
19.443702701
 30
0.0
 10
20.0599419638
 20
19.5008760343
 30
0.0
 10
20.0268828922
 20
19.5662053712
 30
0.0
 10
20.002712878
 20
19.6398849404
 30
0.0
  0
SPLINE
  5
4CC
100
AcDbEntity
  8
_1
100
AcDbSpline
 62
7
  6
CONTINUOUS
 70
0
 71
3
 72
8
 73
4
 74
0
 42
0.0000001
 43
0.0000001
 44
0.0000000001
 40
0.0
 40
0.0
 40
0.0
 40
0.0
 40
1.0
 40
1.0
 40
1.0
 40
1.0
 10
20.002712878
 20
19.6398849404
 30
0.0
 10
19.9716747773
 20
19.7345010986
 30
0.0
 10
19.9565841329
 20
19.8381228348
 30
0.0
 10
19.9565841329
 20
19.9487868001
 30
0.0
  0
SPLINE
  5
4CD
100
AcDbEntity
  8
_1
100
AcDbSpline
 62
7
  6
CONTINUOUS
 70
0
 71
3
 72
8
 73
4
 74
0
 42
0.0000001
 43
0.0000001
 44
0.0000000001
 40
0.0
 40
0.0
 40
0.0
 40
0.0
 40
1.0
 40
1.0
 40
1.0
 40
1.0
 10
19.9565841329
 20
19.9487868001
 30
0.0
 10
19.9565841329
 20
20.061462914
 30
0.0
 10
19.9726807845
 20
20.1660906126
 30
0.0
 10
20.0048739224
 20
20.2606580559
 30
0.0
  0
SPLINE
  5
4CE
100
AcDbEntity
  8
_1
100
AcDbSpline
 62
7
  6
CONTINUOUS
 70
0
 71
3
 72
8
 73
4
 74
0
 42
0.0000001
 43
0.0000001
 44
0.0000000001
 40
0.0
 40
0.0
 40
0.0
 40
0.0
 40
1.0
 40
1.0
 40
1.0
 40
1.0
 10
20.0048739224
 20
20.2606580559
 30
0.0
 10
20.0288329089
 20
20.3310376537
 30
0.0
 10
20.061150219
 20
20.3936162332
 30
0.0
 10
20.1017149916
 20
20.4484974435
 30
0.0
  0
SPLINE
  5
4CF
100
AcDbEntity
  8
_1
100
AcDbSpline
 62
7
  6
CONTINUOUS
 70
0
 71
3
 72
8
 73
4
 74
0
 42
0.0000001
 43
0.0000001
 44
0.0000000001
 40
0.0
 40
0.0
 40
0.0
 40
0.0
 40
1.0
 40
1.0
 40
1.0
 40
1.0
 10
20.6089584938
 20
50.7960235775
 30
0.0
 10
20.4657177659
 20
50.7309141163
 30
0.0
 10
20.2956139558
 20
50.6974082027
 30
0.0
 10
20.1017149906
 20
50.6955058366
 30
0.0
  0
SPLINE
  5
4D0
100
AcDbEntity
  8
_1
100
AcDbSpline
 62
7
  6
CONTINUOUS
 70
0
 71
3
 72
8
 73
4
 74
0
 42
0.0000001
 43
0.0000001
 44
0.0000000001
 40
0.0
 40
0.0
 40
0.0
 40
0.0
 40
1.0
 40
1.0
 40
1.0
 40
1.0
 10
20.9446871299
 20
51.0741092292
 30
0.0
 10
20.8671744576
 20
50.9553126507
 30
0.0
 10
20.756510388
 20
50.863092661
 30
0.0
 10
20.6089584938
 20
50.7960235775
 30
0.0
  0
SPLINE
  5
4D1
100
AcDbEntity
  8
_1
100
AcDbSpline
 62
7
  6
CONTINUOUS
 70
0
 71
3
 72
8
 73
4
 74
0
 42
0.0000001
 43
0.0000001
 44
0.0000000001
 40
0.0
 40
0.0
 40
0.0
 40
0.0
 40
1.0
 40
1.0
 40
1.0
 40
1.0
 10
21.0599978677
 20
51.4750980475
 30
0.0
 10
21.0599978677
 20
51.3258693256
 30
0.0
 10
21.0214333645
 20
51.1917311587
 30
0.0
 10
20.9446871299
 20
51.0741092292
 30
0.0
  0
SPLINE
  5
4D2
100
AcDbEntity
  8
_1
100
AcDbSpline
 62
7
  6
CONTINUOUS
 70
0
 71
3
 72
8
 73
4
 74
0
 42
0.0000001
 43
0.0000001
 44
0.0000000001
 40
0.0
 40
0.0
 40
0.0
 40
0.0
 40
1.0
 40
1.0
 40
1.0
 40
1.0
 10
20.9929289332
 20
51.7886459716
 30
0.0
 10
21.0365237704
 20
51.7031329014
 30
0.0
 10
21.0599978677
 20
51.5991758444
 30
0.0
 10
21.0599978677
 20
51.4750980475
 30
0.0
  0
SPLINE
  5
4D3
100
AcDbEntity
  8
_1
100
AcDbSpline
 62
7
  6
CONTINUOUS
 70
0
 71
3
 72
8
 73
4
 74
0
 42
0.0000001
 43
0.0000001
 44
0.0000000001
 40
0.0
 40
0.0
 40
0.0
 40
0.0
 40
1.0
 40
1.0
 40
1.0
 40
1.0
 10
20.8080946473
 20
52.0010330219
 30
0.0
 10
20.8872951976
 20
51.9445815571
 30
0.0
 10
20.949334096
 20
51.8741590419
 30
0.0
 10
20.9929289332
 20
51.7886459716
 30
0.0
  0
SPLINE
  5
4D4
100
AcDbEntity
  8
_1
100
AcDbSpline
 62
7
  6
CONTINUOUS
 70
0
 71
3
 72
8
 73
4
 74
0
 42
0.0000001
 43
0.0000001
 44
0.0000000001
 40
0.0
 40
0.0
 40
0.0
 40
0.0
 40
1.0
 40
1.0
 40
1.0
 40
1.0
 10
20.5215092132
 20
52.1433647932
 30
0.0
 10
20.6341092697
 20
52.1038707235
 30
0.0
 10
20.7296829334
 20
52.0569222309
 30
0.0
 10
20.8080946473
 20
52.0010330219
 30
0.0
  0
SPLINE
  5
4D5
100
AcDbEntity
  8
_1
100
AcDbSpline
 62
7
  6
CONTINUOUS
 70
0
 71
3
 72
8
 73
4
 74
0
 42
0.0000001
 43
0.0000001
 44
0.0000000001
 40
0.0
 40
0.0
 40
0.0
 40
0.0
 40
1.0
 40
1.0
 40
1.0
 40
1.0
 10
20.1461518239
 20
52.2513392639
 30
0.0
 10
20.2836677088
 20
52.2178897153
 30
0.0
 10
20.4094255806
 20
52.1826777291
 30
0.0
 10
20.5215092132
 20
52.1433647932
 30
0.0
  0
SPLINE
  5
4D6
100
AcDbEntity
  8
_1
100
AcDbSpline
 62
7
  6
CONTINUOUS
 70
0
 71
3
 72
8
 73
4
 74
0
 42
0.0000001
 43
0.0000001
 44
0.0000000001
 40
0.0
 40
0.0
 40
0.0
 40
0.0
 40
1.0
 40
1.0
 40
1.0
 40
1.0
 10
20.3453705082
 20
52.8043319535
 30
0.0
 10
20.2912412255
 20
52.8490788374
 30
0.0
 10
20.2099516378
 20
52.8751779275
 30
0.0
 10
20.1017148402
 20
52.8818401083
 30
0.0
  0
SPLINE
  5
4D7
100
AcDbEntity
  8
_1
100
AcDbSpline
 62
7
  6
CONTINUOUS
 70
0
 71
3
 72
8
 73
4
 74
0
 42
0.0000001
 43
0.0000001
 44
0.0000000001
 40
0.0
 40
0.0
 40
0.0
 40
0.0
 40
1.0
 40
1.0
 40
1.0
 40
1.0
 10
20.5073471258
 20
52.5887834958
 30
0.0
 10
20.4614065996
 20
52.6806647219
 30
0.0
 10
20.4077510944
 20
52.7527639904
 30
0.0
 10
20.3453705082
 20
52.8043319535
 30
0.0
  0
SPLINE
  5
4D8
100
AcDbEntity
  8
_1
100
AcDbSpline
 62
7
  6
CONTINUOUS
 70
0
 71
3
 72
8
 73
4
 74
0
 42
0.0000001
 43
0.0000001
 44
0.0000000001
 40
0.0
 40
0.0
 40
0.0
 40
0.0
 40
1.0
 40
1.0
 40
1.0
 40
1.0
 10
20.6022515183
 20
52.4475997224
 30
0.0
 10
20.5720703712
 20
52.4761041143
 30
0.0
 10
20.5402125827
 20
52.5230524578
 30
0.0
 10
20.5073471258
 20
52.5887834958
 30
0.0
  0
SPLINE
  5
4D9
100
AcDbEntity
  8
_1
100
AcDbSpline
 62
7
  6
CONTINUOUS
 70
0
 71
3
 72
8
 73
4
 74
0
 42
0.0000001
 43
0.0000001
 44
0.0000000001
 40
0.0
 40
0.0
 40
0.0
 40
0.0
 40
1.0
 40
1.0
 40
1.0
 40
1.0
 10
20.7330362907
 20
52.4056815245
 30
0.0
 10
20.6760274282
 20
52.4056815245
 30
0.0
 10
20.632432591
 20
52.4190954008
 30
0.0
 10
20.6022515183
 20
52.4475997224
 30
0.0
  0
SPLINE
  5
4DA
100
AcDbEntity
  8
_1
100
AcDbSpline
 62
7
  6
CONTINUOUS
 70
0
 71
3
 72
8
 73
4
 74
0
 42
0.0000001
 43
0.0000001
 44
0.0000000001
 40
0.0
 40
0.0
 40
0.0
 40
0.0
 40
1.0
 40
1.0
 40
1.0
 40
1.0
 10
20.8889718762
 20
52.4761041143
 30
0.0
 10
20.8470537177
 20
52.4291557708
 30
0.0
 10
20.7950751892
 20
52.4056815245
 30
0.0
 10
20.7330362907
 20
52.4056815245
 30
0.0
  0
SPLINE
  5
4DB
100
AcDbEntity
  8
_1
100
AcDbSpline
 62
7
  6
CONTINUOUS
 70
0
 71
3
 72
8
 73
4
 74
0
 42
0.0000001
 43
0.0000001
 44
0.0000000001
 40
0.0
 40
0.0
 40
0.0
 40
0.0
 40
1.0
 40
1.0
 40
1.0
 40
1.0
 10
20.9526874533
 20
52.6370698848
 30
0.0
 10
20.9526874533
 20
52.5767076649
 30
0.0
 10
20.9308900347
 20
52.5230524578
 30
0.0
 10
20.8889718762
 20
52.4761041143
 30
0.0
  0
SPLINE
  5
4DC
100
AcDbEntity
  8
_1
100
AcDbSpline
 62
7
  6
CONTINUOUS
 70
0
 71
3
 72
8
 73
4
 74
0
 42
0.0000001
 43
0.0000001
 44
0.0000000001
 40
0.0
 40
0.0
 40
0.0
 40
0.0
 40
1.0
 40
1.0
 40
1.0
 40
1.0
 10
20.9020531815
 20
52.836435124
 30
0.0
 10
20.9359200707
 20
52.7678545453
 30
0.0
 10
20.9526874533
 20
52.7007854619
 30
0.0
 10
20.9526874533
 20
52.6370698848
 30
0.0
  0
SPLINE
  5
4DD
100
AcDbEntity
  8
_1
100
AcDbSpline
 62
7
  6
CONTINUOUS
 70
0
 71
3
 72
8
 73
4
 74
0
 42
0.0000001
 43
0.0000001
 44
0.0000000001
 40
0.0
 40
0.0
 40
0.0
 40
0.0
 40
1.0
 40
1.0
 40
1.0
 40
1.0
 10
20.7427459101
 20
53.0306859634
 30
0.0
 10
20.8151959291
 20
52.9690617957
 30
0.0
 10
20.8688511363
 20
52.9036693909
 30
0.0
 10
20.9020531815
 20
52.836435124
 30
0.0
  0
SPLINE
  5
4DE
100
AcDbEntity
  8
_1
100
AcDbSpline
 62
7
  6
CONTINUOUS
 70
0
 71
3
 72
8
 73
4
 74
0
 42
0.0000001
 43
0.0000001
 44
0.0000000001
 40
0.0
 40
0.0
 40
0.0
 40
0.0
 40
1.0
 40
1.0
 40
1.0
 40
1.0
 10
20.4681133142
 20
53.180329416
 30
0.0
 10
20.5787773839
 20
53.1434414425
 30
0.0
 10
20.6693207136
 20
53.0931395926
 30
0.0
 10
20.7427459101
 20
53.0306859634
 30
0.0
  0
SPLINE
  5
4DF
100
AcDbEntity
  8
_1
100
AcDbSpline
 62
7
  6
CONTINUOUS
 70
0
 71
3
 72
8
 73
4
 74
0
 42
0.0000001
 43
0.0000001
 44
0.0000000001
 40
0.0
 40
0.0
 40
0.0
 40
0.0
 40
1.0
 40
1.0
 40
1.0
 40
1.0
 10
20.1017149916
 20
53.2371623122
 30
0.0
 10
20.242244262
 20
53.2351140649
 30
0.0
 10
20.3634307132
 20
53.2152235694
 30
0.0
 10
20.4681133142
 20
53.180329416
 30
0.0
  0
SPLINE
  5
4E0
100
AcDbEntity
  8
_1
100
AcDbSpline
 62
7
  6
CONTINUOUS
 70
0
 71
3
 72
8
 73
4
 74
0
 42
0.0000001
 43
0.0000001
 44
0.0000000001
 40
0.0
 40
0.0
 40
0.0
 40
0.0
 40
1.0
 40
1.0
 40
1.0
 40
1.0
 10
23.5767652503
 20
51.5136627742
 30
0.0
 10
23.5767652503
 20
51.4348565676
 30
0.0
 10
23.5566445103
 20
51.3493434974
 30
0.0
 10
23.5180797091
 20
51.2588002422
 30
0.0
  0
SPLINE
  5
4E1
100
AcDbEntity
  8
_1
100
AcDbSpline
 62
7
  6
CONTINUOUS
 70
0
 71
3
 72
8
 73
4
 74
0
 42
0.0000001
 43
0.0000001
 44
0.0000000001
 40
0.0
 40
0.0
 40
0.0
 40
0.0
 40
1.0
 40
1.0
 40
1.0
 40
1.0
 10
23.5122369683
 20
51.6670586379
 30
0.0
 10
23.5549678317
 20
51.626003448
 30
0.0
 10
23.5767652503
 20
51.5740249195
 30
0.0
 10
23.5767652503
 20
51.5136627742
 30
0.0
  0
SPLINE
  5
4E2
100
AcDbEntity
  8
_1
100
AcDbSpline
 62
7
  6
CONTINUOUS
 70
0
 71
3
 72
8
 73
4
 74
0
 42
0.0000001
 43
0.0000001
 44
0.0000000001
 40
0.0
 40
0.0
 40
0.0
 40
0.0
 40
1.0
 40
1.0
 40
1.0
 40
1.0
 10
23.360467743
 20
51.729960505
 30
0.0
 10
23.4191526881
 20
51.729960505
 30
0.0
 10
23.469454836
 20
51.7081630864
 30
0.0
 10
23.5122369683
 20
51.6670586379
 30
0.0
  0
SPLINE
  5
4E3
100
AcDbEntity
  8
_1
100
AcDbSpline
 62
7
  6
CONTINUOUS
 70
0
 71
3
 72
8
 73
4
 74
0
 42
0.0000001
 43
0.0000001
 44
0.0000000001
 40
0.0
 40
0.0
 40
0.0
 40
0.0
 40
1.0
 40
1.0
 40
1.0
 40
1.0
 10
23.2090388112
 20
51.6683302367
 30
0.0
 10
23.2397433034
 20
51.7081630864
 30
0.0
 10
23.2900448552
 20
51.729960505
 30
0.0
 10
23.360467743
 20
51.729960505
 30
0.0
  0
SPLINE
  5
4E4
100
AcDbEntity
  8
_1
100
AcDbSpline
 62
7
  6
CONTINUOUS
 70
0
 71
3
 72
8
 73
4
 74
0
 42
0.0000001
 43
0.0000001
 44
0.0000000001
 40
0.0
 40
0.0
 40
0.0
 40
0.0
 40
1.0
 40
1.0
 40
1.0
 40
1.0
 10
23.1288185973
 20
51.5110025366
 30
0.0
 10
23.1508763543
 20
51.5740249195
 30
0.0
 10
23.1777044049
 20
51.6276802012
 30
0.0
 10
23.2090388112
 20
51.6683302367
 30
0.0
  0
SPLINE
  5
4E5
100
AcDbEntity
  8
_1
100
AcDbSpline
 62
7
  6
CONTINUOUS
 70
0
 71
3
 72
8
 73
4
 74
0
 42
0.0000001
 43
0.0000001
 44
0.0000000001
 40
0.0
 40
0.0
 40
0.0
 40
0.0
 40
1.0
 40
1.0
 40
1.0
 40
1.0
 10
22.9060746224
 20
51.1967614721
 30
0.0
 10
23.0050011388
 20
51.267183859
 30
0.0
 10
23.0804540625
 20
51.3728176691
 30
0.0
 10
23.1288185973
 20
51.5110025366
 30
0.0
  0
SPLINE
  5
4E6
100
AcDbEntity
  8
_1
100
AcDbSpline
 62
7
  6
CONTINUOUS
 70
0
 71
3
 72
8
 73
4
 74
0
 42
0.0000001
 43
0.0000001
 44
0.0000000001
 40
0.0
 40
0.0
 40
0.0
 40
0.0
 40
1.0
 40
1.0
 40
1.0
 40
1.0
 10
22.5439013949
 20
51.0911275335
 30
0.0
 10
22.6864232531
 20
51.0911275335
 30
0.0
 10
22.8071476928
 20
51.1263387912
 30
0.0
 10
22.9060746224
 20
51.1967614721
 30
0.0
  0
SPLINE
  5
4E7
100
AcDbEntity
  8
_1
100
AcDbSpline
 62
7
  6
CONTINUOUS
 70
0
 71
3
 72
8
 73
4
 74
0
 42
0.0000001
 43
0.0000001
 44
0.0000000001
 40
0.0
 40
0.0
 40
0.0
 40
0.0
 40
1.0
 40
1.0
 40
1.0
 40
1.0
 10
22.1978753191
 20
51.1840462004
 30
0.0
 10
22.295745801
 20
51.1213086062
 30
0.0
 10
22.4114402047
 20
51.0911275335
 30
0.0
 10
22.5439013949
 20
51.0911275335
 30
0.0
  0
SPLINE
  5
4E8
100
AcDbEntity
  8
_1
100
AcDbSpline
 62
7
  6
CONTINUOUS
 70
0
 71
3
 72
8
 73
4
 74
0
 42
0.0000001
 43
0.0000001
 44
0.0000000001
 40
0.0
 40
0.0
 40
0.0
 40
0.0
 40
1.0
 40
1.0
 40
1.0
 40
1.0
 10
21.9704608512
 20
51.4683912131
 30
0.0
 10
22.0241161099
 20
51.3409598433
 30
0.0
 10
22.0995690337
 20
51.2470631563
 30
0.0
 10
22.1978753191
 20
51.1840462004
 30
0.0
  0
SPLINE
  5
4E9
100
AcDbEntity
  8
_1
100
AcDbSpline
 62
7
  6
CONTINUOUS
 70
0
 71
3
 72
8
 73
4
 74
0
 42
0.0000001
 43
0.0000001
 44
0.0000000001
 40
0.0
 40
0.0
 40
0.0
 40
0.0
 40
1.0
 40
1.0
 40
1.0
 40
1.0
 10
21.889977645
 20
51.9462583103
 30
0.0
 10
21.889977645
 20
51.7551114299
 30
0.0
 10
21.9168056956
 20
51.5958223381
 30
0.0
 10
21.9704608512
 20
51.4683912131
 30
0.0
  0
SPLINE
  5
4EA
100
AcDbEntity
  8
_1
100
AcDbSpline
 62
7
  6
CONTINUOUS
 70
0
 71
3
 72
8
 73
4
 74
0
 42
0.0000001
 43
0.0000001
 44
0.0000000001
 40
0.0
 40
0.0
 40
0.0
 40
0.0
 40
1.0
 40
1.0
 40
1.0
 40
1.0
 10
22.071470238
 20
52.6082486256
 30
0.0
 10
21.9503398648
 20
52.452629868
 30
0.0
 10
21.889977645
 20
52.2313018777
 30
0.0
 10
21.889977645
 20
51.9462583103
 30
0.0
  0
SPLINE
  5
4EB
100
AcDbEntity
  8
_1
100
AcDbSpline
 62
7
  6
CONTINUOUS
 70
0
 71
3
 72
8
 73
4
 74
0
 42
0.0000001
 43
0.0000001
 44
0.0000000001
 40
0.0
 40
0.0
 40
0.0
 40
0.0
 40
1.0
 40
1.0
 40
1.0
 40
1.0
 10
22.5606687775
 20
52.8416304924
 30
0.0
 10
22.3561080209
 20
52.8416304924
 30
0.0
 10
22.1917887441
 20
52.7628243603
 30
0.0
 10
22.071470238
 20
52.6082486256
 30
0.0
  0
SPLINE
  5
4EC
100
AcDbEntity
  8
_1
100
AcDbSpline
 62
7
  6
CONTINUOUS
 70
0
 71
3
 72
8
 73
4
 74
0
 42
0.0000001
 43
0.0000001
 44
0.0000000001
 40
0.0
 40
0.0
 40
0.0
 40
0.0
 40
1.0
 40
1.0
 40
1.0
 40
1.0
 10
22.8842771986
 20
52.7510871722
 30
0.0
 10
22.7970870248
 20
52.8114495315
 30
0.0
 10
22.6880999318
 20
52.8416304924
 30
0.0
 10
22.5606687775
 20
52.8416304924
 30
0.0
  0
SPLINE
  5
4ED
100
AcDbEntity
  8
_1
100
AcDbSpline
 62
7
  6
CONTINUOUS
 70
0
 71
3
 72
8
 73
4
 74
0
 42
0.0000001
 43
0.0000001
 44
0.0000000001
 40
0.0
 40
0.0
 40
0.0
 40
0.0
 40
1.0
 40
1.0
 40
1.0
 40
1.0
 10
23.1133124988
 20
52.4774232901
 30
0.0
 10
23.0485959759
 20
52.5985050835
 30
0.0
 10
22.9714669696
 20
52.6907250919
 30
0.0
 10
22.8842771986
 20
52.7510871722
 30
0.0
  0
SPLINE
  5
4EE
100
AcDbEntity
  8
_1
100
AcDbSpline
 62
7
  6
CONTINUOUS
 70
0
 71
3
 72
8
 73
4
 74
0
 42
0.0000001
 43
0.0000001
 44
0.0000000001
 40
0.0
 40
0.0
 40
0.0
 40
0.0
 40
1.0
 40
1.0
 40
1.0
 40
1.0
 10
23.2196224225
 20
52.3218450586
 30
0.0
 10
23.1877644769
 20
52.3520263173
 30
0.0
 10
23.152553629
 20
52.4040048458
 30
0.0
 10
23.1133124988
 20
52.4774232901
 30
0.0
  0
SPLINE
  5
4EF
100
AcDbEntity
  8
_1
100
AcDbSpline
 62
7
  6
CONTINUOUS
 70
0
 71
3
 72
8
 73
4
 74
0
 42
0.0000001
 43
0.0000001
 44
0.0000000001
 40
0.0
 40
0.0
 40
0.0
 40
0.0
 40
1.0
 40
1.0
 40
1.0
 40
1.0
 10
23.509696353
 20
52.3419659131
 30
0.0
 10
23.469454836
 20
52.2983709612
 30
0.0
 10
23.4208299628
 20
52.2765735426
 30
0.0
 10
23.3638211003
 20
52.2765735426
 30
0.0
  0
SPLINE
  5
4F0
100
AcDbEntity
  8
_1
100
AcDbSpline
 62
7
  6
CONTINUOUS
 70
0
 71
3
 72
8
 73
4
 74
0
 42
0.0000001
 43
0.0000001
 44
0.0000000001
 40
0.0
 40
0.0
 40
0.0
 40
0.0
 40
1.0
 40
1.0
 40
1.0
 40
1.0
 10
23.5700585357
 20
52.4928713479
 30
0.0
 10
23.5700585356
 20
52.4358626344
 30
0.0
 10
23.5499377957
 20
52.3855607845
 30
0.0
 10
23.509696353
 20
52.3419659131
 30
0.0
  0
SPLINE
  5
4F1
100
AcDbEntity
  8
_1
100
AcDbSpline
 62
7
  6
CONTINUOUS
 70
0
 71
3
 72
8
 73
4
 74
0
 42
0.0000001
 43
0.0000001
 44
0.0000000001
 40
0.0
 40
0.0
 40
0.0
 40
0.0
 40
1.0
 40
1.0
 40
1.0
 40
1.0
 10
23.0883251276
 20
53.1172848456
 30
0.0
 10
23.2430966607
 20
53.0378075578
 30
0.0
 10
23.3621444217
 20
52.9405575134
 30
0.0
 10
23.4454228024
 20
52.8227900505
 30
0.0
  0
SPLINE
  5
4F2
100
AcDbEntity
  8
_1
100
AcDbSpline
 62
7
  6
CONTINUOUS
 70
0
 71
3
 72
8
 73
4
 74
0
 42
0.0000001
 43
0.0000001
 44
0.0000000001
 40
0.0
 40
0.0
 40
0.0
 40
0.0
 40
1.0
 40
1.0
 40
1.0
 40
1.0
 10
22.5573154202
 20
53.2373381295
 30
0.0
 10
22.7551688662
 20
53.2373381295
 30
0.0
 10
22.9329021683
 20
53.1970966496
 30
0.0
 10
23.0883251276
 20
53.1172848456
 30
0.0
  0
SPLINE
  5
4F3
100
AcDbEntity
  8
_1
100
AcDbSpline
 62
7
  6
CONTINUOUS
 70
0
 71
3
 72
8
 73
4
 74
0
 42
0.0000001
 43
0.0000001
 44
0.0000000001
 40
0.0
 40
0.0
 40
0.0
 40
0.0
 40
1.0
 40
1.0
 40
1.0
 40
1.0
 10
22.096506575
 20
53.1494269035
 30
0.0
 10
22.2404136172
 20
53.2071570196
 30
0.0
 10
22.3929961434
 20
53.2373381295
 30
0.0
 10
22.5573154202
 20
53.2373381295
 30
0.0
  0
SPLINE
  5
4F4
100
AcDbEntity
  8
_1
100
AcDbSpline
 62
7
  6
CONTINUOUS
 70
0
 71
3
 72
8
 73
4
 74
0
 42
0.0000001
 43
0.0000001
 44
0.0000000001
 40
0.0
 40
0.0
 40
0.0
 40
0.0
 40
1.0
 40
1.0
 40
1.0
 40
1.0
 10
21.7189516908
 20
52.8952858125
 30
0.0
 10
21.8262620679
 20
53.0059497692
 30
0.0
 10
21.9520165435
 20
53.091462914
 30
0.0
 10
22.096506575
 20
53.1494269035
 30
0.0
  0
SPLINE
  5
4F5
100
AcDbEntity
  8
_1
100
AcDbSpline
 62
7
  6
CONTINUOUS
 70
0
 71
3
 72
8
 73
4
 74
0
 42
0.0000001
 43
0.0000001
 44
0.0000000001
 40
0.0
 40
0.0
 40
0.0
 40
0.0
 40
1.0
 40
1.0
 40
1.0
 40
1.0
 10
21.4710655228
 20
52.4944503007
 30
0.0
 10
21.5278049222
 20
52.650483612
 30
0.0
 10
21.6116412392
 20
52.7846217789
 30
0.0
 10
21.7189516908
 20
52.8952858125
 30
0.0
  0
SPLINE
  5
4F6
100
AcDbEntity
  8
_1
100
AcDbSpline
 62
7
  6
CONTINUOUS
 70
0
 71
3
 72
8
 73
4
 74
0
 42
0.0000001
 43
0.0000001
 44
0.0000000001
 40
0.0
 40
0.0
 40
0.0
 40
0.0
 40
1.0
 40
1.0
 40
1.0
 40
1.0
 10
21.385283064
 20
51.9630256184
 30
0.0
 10
21.385283064
 20
52.1608794369
 30
0.0
 10
21.4137874952
 20
52.3369357624
 30
0.0
 10
21.4710655228
 20
52.4944503007
 30
0.0
  0
SPLINE
  5
4F7
100
AcDbEntity
  8
_1
100
AcDbSpline
 62
7
  6
CONTINUOUS
 70
0
 71
3
 72
8
 73
4
 74
0
 42
0.0000001
 43
0.0000001
 44
0.0000000001
 40
0.0
 40
0.0
 40
0.0
 40
0.0
 40
1.0
 40
1.0
 40
1.0
 40
1.0
 10
21.4186437159
 20
51.6175822491
 30
0.0
 10
21.3953434339
 20
51.72493032
 30
0.0
 10
21.385283064
 20
51.8406245001
 30
0.0
 10
21.385283064
 20
51.9630256184
 30
0.0
  0
SPLINE
  5
4F8
100
AcDbEntity
  8
_1
100
AcDbSpline
 62
7
  6
CONTINUOUS
 70
0
 71
3
 72
8
 73
4
 74
0
 42
0.0000001
 43
0.0000001
 44
0.0000000001
 40
0.0
 40
0.0
 40
0.0
 40
0.0
 40
1.0
 40
1.0
 40
1.0
 40
1.0
 10
21.5220934897
 20
51.3104531622
 30
0.0
 10
21.4758263937
 20
51.4063522109
 30
0.0
 10
21.4422916284
 20
51.5086325892
 30
0.0
 10
21.4186437159
 20
51.6175822491
 30
0.0
  0
SPLINE
  5
4F9
100
AcDbEntity
  8
_1
100
AcDbSpline
 62
7
  6
CONTINUOUS
 70
0
 71
3
 72
8
 73
4
 74
0
 42
0.0000001
 43
0.0000001
 44
0.0000000001
 40
0.0
 40
0.0
 40
0.0
 40
0.0
 40
1.0
 40
1.0
 40
1.0
 40
1.0
 10
21.6886597483
 20
51.0524690166
 30
0.0
 10
21.6233782879
 20
51.1296922602
 30
0.0
 10
21.5680464021
 20
51.2152053305
 30
0.0
 10
21.5220934897
 20
51.3104531622
 30
0.0
  0
SPLINE
  5
4FA
100
AcDbEntity
  8
_1
100
AcDbSpline
 62
7
  6
CONTINUOUS
 70
0
 71
3
 72
8
 73
4
 74
0
 42
0.0000001
 43
0.0000001
 44
0.0000000001
 40
0.0
 40
0.0
 40
0.0
 40
0.0
 40
1.0
 40
1.0
 40
1.0
 40
1.0
 10
21.9268657645
 20
50.846325385
 30
0.0
 10
21.8396760932
 20
50.8983039186
 30
0.0
 10
21.7608698121
 20
50.9670497366
 30
0.0
 10
21.6886597483
 20
51.0524690166
 30
0.0
  0
SPLINE
  5
4FB
100
AcDbEntity
  8
_1
100
AcDbSpline
 62
7
  6
CONTINUOUS
 70
0
 71
3
 72
8
 73
4
 74
0
 42
0.0000001
 43
0.0000001
 44
0.0000000001
 40
0.0
 40
0.0
 40
0.0
 40
0.0
 40
1.0
 40
1.0
 40
1.0
 40
1.0
 10
22.2169005118
 20
50.732131718
 30
0.0
 10
22.1096291056
 20
50.7557821267
 30
0.0
 10
22.0140554419
 20
50.7943468476
 30
0.0
 10
21.9268657645
 20
50.846325385
 30
0.0
  0
SPLINE
  5
4FC
100
AcDbEntity
  8
_1
100
AcDbSpline
 62
7
  6
CONTINUOUS
 70
0
 71
3
 72
8
 73
4
 74
0
 42
0.0000001
 43
0.0000001
 44
0.0000000001
 40
0.0
 40
0.0
 40
0.0
 40
0.0
 40
1.0
 40
1.0
 40
1.0
 40
1.0
 10
22.5707288495
 20
50.6954199523
 30
0.0
 10
22.4399443379
 20
50.6954199523
 30
0.0
 10
22.3225732556
 20
50.7088337704
 30
0.0
 10
22.2169005118
 20
50.732131718
 30
0.0
  0
SPLINE
  5
4FD
100
AcDbEntity
  8
_1
100
AcDbSpline
 62
7
  6
CONTINUOUS
 70
0
 71
3
 72
8
 73
4
 74
0
 42
0.0000001
 43
0.0000001
 44
0.0000000001
 40
0.0
 40
0.0
 40
0.0
 40
0.0
 40
1.0
 40
1.0
 40
1.0
 40
1.0
 10
23.0199666484
 20
50.7778778884
 30
0.0
 10
22.8909840098
 20
50.7239243137
 30
0.0
 10
22.741755437
 20
50.6954199523
 30
0.0
 10
22.5707288495
 20
50.6954199523
 30
0.0
  0
SPLINE
  5
4FE
100
AcDbEntity
  8
_1
100
AcDbSpline
 62
7
  6
CONTINUOUS
 70
0
 71
3
 72
8
 73
4
 74
0
 42
0.0000001
 43
0.0000001
 44
0.0000000001
 40
0.0
 40
0.0
 40
0.0
 40
0.0
 40
1.0
 40
1.0
 40
1.0
 40
1.0
 10
23.336552178
 20
50.9909414595
 30
0.0
 10
23.2531567326
 20
50.9033341036
 30
0.0
 10
23.147522997
 20
50.8312348445
 30
0.0
 10
23.0199666484
 20
50.7778778884
 30
0.0
  0
SPLINE
  5
4FF
100
AcDbEntity
  8
_1
100
AcDbSpline
 62
7
  6
CONTINUOUS
 70
0
 71
3
 72
8
 73
4
 74
0
 42
0.0000001
 43
0.0000001
 44
0.0000000001
 40
0.0
 40
0.0
 40
0.0
 40
0.0
 40
1.0
 40
1.0
 40
1.0
 40
1.0
 10
23.5180797091
 20
51.2588002422
 30
0.0
 10
23.4795149079
 20
51.168256987
 30
0.0
 10
23.4191526881
 20
51.0777137317
 30
0.0
 10
23.336552178
 20
50.9909414595
 30
0.0
  0
SPLINE
  5
500
100
AcDbEntity
  8
_1
100
AcDbSpline
 62
7
  6
CONTINUOUS
 70
0
 71
3
 72
9
 73
5
 74
0
 42
0.0000001
 43
0.0000001
 44
0.0000000001
 40
0.0
 40
0.0
 40
0.0
 40
0.0
 40
0.9999996218
 40
1.0
 40
1.0
 40
1.0
 40
1.0
 10
19.5843593846
 20
53.1521179724
 30
0.0
 10
19.7236465326
 20
53.2088336982
 30
0.0
 10
19.8879658582
 20
53.2373381239
 30
0.0
 10
20.0774360055
 20
53.2373381295
 30
0.0
 10
20.0774360771
 20
53.2373381295
 30
0.0
  0
SPLINE
  5
501
100
AcDbEntity
  8
_1
100
AcDbSpline
 62
7
  6
CONTINUOUS
 70
0
 71
3
 72
8
 73
4
 74
0
 42
0.0000001
 43
0.0000001
 44
0.0000000001
 40
0.0
 40
0.0
 40
0.0
 40
0.0
 40
1.0
 40
1.0
 40
1.0
 40
1.0
 10
19.2646186367
 20
52.9100993101
 30
0.0
 10
19.3379994145
 20
53.0143334605
 30
0.0
 10
19.4436331502
 20
53.0948162713
 30
0.0
 10
19.5843593846
 20
53.1521179724
 30
0.0
  0
SPLINE
  5
502
100
AcDbEntity
  8
_1
100
AcDbSpline
 62
7
  6
CONTINUOUS
 70
0
 71
3
 72
8
 73
4
 74
0
 42
0.0000001
 43
0.0000001
 44
0.0000000001
 40
0.0
 40
0.0
 40
0.0
 40
0.0
 40
1.0
 40
1.0
 40
1.0
 40
1.0
 10
19.1535593978
 20
52.5498800614
 30
0.0
 10
19.1535593978
 20
52.6840182283
 30
0.0
 10
19.1904475203
 20
52.8047425189
 30
0.0
 10
19.2646186366
 20
52.9100993101
 30
0.0
  0
SPLINE
  5
503
100
AcDbEntity
  8
_1
100
AcDbSpline
 62
7
  6
CONTINUOUS
 70
0
 71
3
 72
8
 73
4
 74
0
 42
0.0000001
 43
0.0000001
 44
0.0000000001
 40
0.0
 40
0.0
 40
0.0
 40
0.0
 40
1.0
 40
1.0
 40
1.0
 40
1.0
 10
19.2575164192
 20
52.1927371993
 30
0.0
 10
19.187093865
 20
52.2883105912
 30
0.0
 10
19.1535593978
 20
52.4073582031
 30
0.0
 10
19.1535593978
 20
52.5498800614
 30
0.0
  0
SPLINE
  5
504
100
AcDbEntity
  8
_1
100
AcDbSpline
 62
7
  6
CONTINUOUS
 70
0
 71
3
 72
8
 73
4
 74
0
 42
0.0000001
 43
0.0000001
 44
0.0000000001
 40
0.0
 40
0.0
 40
0.0
 40
0.0
 40
1.0
 40
1.0
 40
1.0
 40
1.0
 10
19.540883221
 20
51.9663791072
 30
0.0
 10
19.4218357316
 20
52.0217110851
 30
0.0
 10
19.3279390445
 20
52.0971637108
 30
0.0
 10
19.2575164192
 20
52.1927371993
 30
0.0
  0
SPLINE
  5
505
100
AcDbEntity
  8
_1
100
AcDbSpline
 62
7
  6
CONTINUOUS
 70
0
 71
3
 72
8
 73
4
 74
0
 42
0.0000001
 43
0.0000001
 44
0.0000000001
 40
0.0
 40
0.0
 40
0.0
 40
0.0
 40
1.0
 40
1.0
 40
1.0
 40
1.0
 10
19.9851443126
 20
51.8218688071
 30
0.0
 10
19.8074828497
 20
51.8624219932
 30
0.0
 10
19.6599309555
 20
51.9110470154
 30
0.0
 10
19.540883221
 20
51.9663791072
 30
0.0
  0
SPLINE
  5
506
100
AcDbEntity
  8
_1
100
AcDbSpline
 62
7
  6
CONTINUOUS
 70
0
 71
3
 72
8
 73
4
 74
0
 42
0.0000001
 43
0.0000001
 44
0.0000000001
 40
0.0
 40
0.0
 40
0.0
 40
0.0
 40
1.0
 40
1.0
 40
1.0
 40
1.0
 10
19.8106662603
 20
51.1109099224
 30
0.0
 10
19.8762286854
 20
51.0777137699
 30
0.0
 10
19.9634182347
 20
51.0609464994
 30
0.0
 10
20.0707287774
 20
51.0609464609
 30
0.0
  0
SPLINE
  5
507
100
AcDbEntity
  8
_1
100
AcDbSpline
 62
7
  6
CONTINUOUS
 70
0
 71
3
 72
8
 73
4
 74
0
 42
0.0000001
 43
0.0000001
 44
0.0000000001
 40
0.0
 40
0.0
 40
0.0
 40
0.0
 40
1.0
 40
1.0
 40
1.0
 40
1.0
 10
19.6561849724
 20
51.2417565505
 30
0.0
 10
19.6934654227
 20
51.1883776896
 30
0.0
 10
19.7437672725
 20
51.1447828152
 30
0.0
 10
19.8106662603
 20
51.1109099224
 30
0.0
  0
SPLINE
  5
508
100
AcDbEntity
  8
_1
100
AcDbSpline
 62
7
  6
CONTINUOUS
 70
0
 71
3
 72
8
 73
4
 74
0
 42
0.0000001
 43
0.0000001
 44
0.0000000001
 40
0.0
 40
0.0
 40
0.0
 40
0.0
 40
1.0
 40
1.0
 40
1.0
 40
1.0
 10
19.5551329356
 20
51.4378712725
 30
0.0
 10
19.5861550084
 20
51.3594038673
 30
0.0
 10
19.6196894756
 20
51.2940114998
 30
0.0
 10
19.6561849724
 20
51.2417565505
 30
0.0
  0
SPLINE
  5
509
100
AcDbEntity
  8
_1
100
AcDbSpline
 62
7
  6
CONTINUOUS
 70
0
 71
3
 72
8
 73
4
 74
0
 42
0.0000001
 43
0.0000001
 44
0.0000000001
 40
0.0
 40
0.0
 40
0.0
 40
0.0
 40
1.0
 40
1.0
 40
1.0
 40
1.0
 10
19.462077144
 20
51.5874386471
 30
0.0
 10
19.498965036
 20
51.5539041796
 30
0.0
 10
19.5291461459
 20
51.5036024042
 30
0.0
 10
19.5551329356
 20
51.4378712725
 30
0.0
  0
SPLINE
  5
50A
100
AcDbEntity
  8
_1
100
AcDbSpline
 62
7
  6
CONTINUOUS
 70
0
 71
3
 72
8
 73
4
 74
0
 42
0.0000001
 43
0.0000001
 44
0.0000000001
 40
0.0
 40
0.0
 40
0.0
 40
0.0
 40
1.0
 40
1.0
 40
1.0
 40
1.0
 10
19.3296157232
 20
51.6377405711
 30
0.0
 10
19.3815942517
 20
51.6377405711
 30
0.0
 10
19.4251890889
 20
51.620973263
 30
0.0
 10
19.462077144
 20
51.5874386471
 30
0.0
  0
SPLINE
  5
50B
100
AcDbEntity
  8
_1
100
AcDbSpline
 62
7
  6
CONTINUOUS
 70
0
 71
3
 72
8
 73
4
 74
0
 42
0.0000001
 43
0.0000001
 44
0.0000000001
 40
0.0
 40
0.0
 40
0.0
 40
0.0
 40
1.0
 40
1.0
 40
1.0
 40
1.0
 10
19.1686498424
 20
51.5723481291
 30
0.0
 10
19.2105679622
 20
51.615943078
 30
0.0
 10
19.2642234674
 20
51.6377405711
 30
0.0
 10
19.3296157232
 20
51.6377405711
 30
0.0
  0
SPLINE
  5
50C
100
AcDbEntity
  8
_1
100
AcDbSpline
 62
7
  6
CONTINUOUS
 70
0
 71
3
 72
8
 73
4
 74
0
 42
0.0000001
 43
0.0000001
 44
0.0000000001
 40
0.0
 40
0.0
 40
0.0
 40
0.0
 40
1.0
 40
1.0
 40
1.0
 40
1.0
 10
19.1066110543
 20
51.418089334
 30
0.0
 10
19.1066110543
 20
51.4784514793
 30
0.0
 10
19.1267317942
 20
51.5287532546
 30
0.0
 10
19.1686498424
 20
51.5723481291
 30
0.0
  0
SPLINE
  5
50D
100
AcDbEntity
  8
_1
100
AcDbSpline
 62
7
  6
CONTINUOUS
 70
0
 71
3
 72
8
 73
4
 74
0
 42
0.0000001
 43
0.0000001
 44
0.0000000001
 40
0.0
 40
0.0
 40
0.0
 40
0.0
 40
1.0
 40
1.0
 40
1.0
 40
1.0
 10
19.2105680683
 20
51.096157786
 30
0.0
 10
19.1401456705
 20
51.2068217137
 30
0.0
 10
19.1066110543
 20
51.3141322397
 30
0.0
 10
19.1066110543
 20
51.418089334
 30
0.0
  0
SPLINE
  5
50E
100
AcDbEntity
  8
_1
100
AcDbSpline
 62
7
  6
CONTINUOUS
 70
0
 71
3
 72
8
 73
4
 74
0
 42
0.0000001
 43
0.0000001
 44
0.0000000001
 40
0.0
 40
0.0
 40
0.0
 40
0.0
 40
1.0
 40
1.0
 40
1.0
 40
1.0
 10
19.4837883869
 20
50.832764014
 30
0.0
 10
19.3715338817
 20
50.8983039186
 30
0.0
 10
19.280990552
 20
50.9854937234
 30
0.0
 10
19.2105680683
 20
51.096157786
 30
0.0
  0
SPLINE
  5
50F
100
AcDbEntity
  8
_1
100
AcDbSpline
 62
7
  6
CONTINUOUS
 70
0
 71
3
 72
8
 73
4
 74
0
 42
0.0000001
 43
0.0000001
 44
0.0000000001
 40
0.0
 40
0.0
 40
0.0
 40
0.0
 40
1.0
 40
1.0
 40
1.0
 40
1.0
 10
18.6974896931
 20
52.8634280565
 30
0.0
 10
18.6589248887
 20
52.8282167651
 30
0.0
 10
18.6002394965
 20
52.8114495315
 30
0.0
 10
18.5214333645
 20
52.8114495315
 30
0.0
  0
SPLINE
  5
510
100
AcDbEntity
  8
_1
100
AcDbSpline
 62
7
  6
CONTINUOUS
 70
0
 71
3
 72
8
 73
4
 74
0
 42
0.0000001
 43
0.0000001
 44
0.0000000001
 40
0.0
 40
0.0
 40
0.0
 40
0.0
 40
1.0
 40
1.0
 40
1.0
 40
1.0
 10
18.756175082
 20
53.0042730906
 30
0.0
 10
18.756175082
 20
52.9455876984
 30
0.0
 10
18.7360543421
 20
52.8986392059
 30
0.0
 10
18.6974896931
 20
52.8634280565
 30
0.0
  0
SPLINE
  5
511
100
AcDbEntity
  8
_1
100
AcDbSpline
 62
7
  6
CONTINUOUS
 70
0
 71
3
 72
8
 73
4
 74
0
 42
0.0000001
 43
0.0000001
 44
0.0000000001
 40
0.0
 40
0.0
 40
0.0
 40
0.0
 40
1.0
 40
1.0
 40
1.0
 40
1.0
 10
18.6974896931
 20
53.1417646183
 30
0.0
 10
18.7360543421
 20
53.1065534689
 30
0.0
 10
18.756175082
 20
53.0612818041
 30
0.0
 10
18.756175082
 20
53.0042730906
 30
0.0
  0
SPLINE
  5
512
100
AcDbEntity
  8
_1
100
AcDbSpline
 62
7
  6
CONTINUOUS
 70
0
 71
3
 72
8
 73
4
 74
0
 42
0.0000001
 43
0.0000001
 44
0.0000000001
 40
0.0
 40
0.0
 40
0.0
 40
0.0
 40
1.0
 40
1.0
 40
1.0
 40
1.0
 10
17.0324996895
 20
53.1635621824
 30
0.0
 10
17.0777713171
 20
53.1836829223
 30
0.0
 10
17.1364567837
 20
53.195419971
 30
0.0
 10
17.206879299
 20
53.195419971
 30
0.0
  0
SPLINE
  5
513
100
AcDbEntity
  8
_1
100
AcDbSpline
 62
7
  6
CONTINUOUS
 70
0
 71
3
 72
8
 73
4
 74
0
 42
0.0000001
 43
0.0000001
 44
0.0000000001
 40
0.0
 40
0.0
 40
0.0
 40
0.0
 40
1.0
 40
1.0
 40
1.0
 40
1.0
 10
16.9328848549
 20
53.0649601501
 30
0.0
 10
16.9536935201
 20
53.1099068262
 30
0.0
 10
16.9872280619
 20
53.1434414425
 30
0.0
 10
17.0324996895
 20
53.1635621824
 30
0.0
  0
SPLINE
  5
514
100
AcDbEntity
  8
_1
100
AcDbSpline
 62
7
  6
CONTINUOUS
 70
0
 71
3
 72
8
 73
4
 74
0
 42
0.0000001
 43
0.0000001
 44
0.0000000001
 40
0.0
 40
0.0
 40
0.0
 40
0.0
 40
1.0
 40
1.0
 40
1.0
 40
1.0
 10
16.9017149916
 20
52.8902556636
 30
0.0
 10
16.9017149916
 20
52.9606781044
 30
0.0
 10
16.911775343
 20
53.0193636455
 30
0.0
 10
16.9328848549
 20
53.0649601501
 30
0.0
  0
SPLINE
  5
515
100
AcDbEntity
  8
_1
100
AcDbSpline
 62
7
  6
CONTINUOUS
 70
0
 71
3
 72
8
 73
4
 74
0
 42
0.0000001
 43
0.0000001
 44
0.0000000001
 40
0.0
 40
0.0
 40
0.0
 40
0.0
 40
1.0
 40
1.0
 40
1.0
 40
1.0
 10
16.9717166106
 20
50.8090274608
 30
0.0
 10
16.9251891634
 20
50.8563857508
 30
0.0
 10
16.9017149917
 20
50.9351919108
 30
0.0
 10
16.9017149916
 20
51.0425024555
 30
0.0
  0
SPLINE
  5
516
100
AcDbEntity
  8
_1
100
AcDbSpline
 62
7
  6
CONTINUOUS
 70
0
 71
3
 72
8
 73
4
 74
0
 42
0.0000001
 43
0.0000001
 44
0.0000000001
 40
0.0
 40
0.0
 40
0.0
 40
0.0
 40
1.0
 40
1.0
 40
1.0
 40
1.0
 10
17.206879299
 20
50.7373381295
 30
0.0
 10
17.097892057
 20
50.7373381295
 30
0.0
 10
17.0190858877
 20
50.7608123082
 30
0.0
 10
16.9717166106
 20
50.8090274608
 30
0.0
  0
SPLINE
  5
517
100
AcDbEntity
  8
_1
100
AcDbSpline
 62
7
  6
CONTINUOUS
 70
0
 71
3
 72
8
 73
4
 74
0
 42
0.0000001
 43
0.0000001
 44
0.0000000001
 40
0.0
 40
0.0
 40
0.0
 40
0.0
 40
1.0
 40
1.0
 40
1.0
 40
1.0
 10
18.7964165619
 20
50.9335151949
 30
0.0
 10
18.7964165619
 20
50.8748297468
 30
0.0
 10
18.776295822
 20
50.8278813847
 30
0.0
 10
18.7360543421
 20
50.7909933925
 30
0.0
  0
SPLINE
  5
518
100
AcDbEntity
  8
_1
100
AcDbSpline
 62
7
  6
CONTINUOUS
 70
0
 71
3
 72
8
 73
4
 74
0
 42
0.0000001
 43
0.0000001
 44
0.0000000001
 40
0.0
 40
0.0
 40
0.0
 40
0.0
 40
1.0
 40
1.0
 40
1.0
 40
1.0
 10
18.7360543328
 20
51.0777137216
 30
0.0
 10
18.776295822
 20
51.0408257209
 30
0.0
 10
18.7964165619
 20
50.9938773588
 30
0.0
 10
18.7964165619
 20
50.9335151949
 30
0.0
  0
SPLINE
  5
519
100
AcDbEntity
  8
_1
100
AcDbSpline
 62
7
  6
CONTINUOUS
 70
0
 71
3
 72
8
 73
4
 74
0
 42
0.0000001
 43
0.0000001
 44
0.0000000001
 40
0.0
 40
0.0
 40
0.0
 40
0.0
 40
1.0
 40
1.0
 40
1.0
 40
1.0
 10
18.6035928894
 20
51.8842193746
 30
0.0
 10
18.5667048803
 20
51.8490081169
 30
0.0
 10
18.5096961668
 20
51.8322408833
 30
0.0
 10
18.4325667134
 20
51.8322408833
 30
0.0
  0
SPLINE
  5
51A
100
AcDbEntity
  8
_1
100
AcDbSpline
 62
7
  6
CONTINUOUS
 70
0
 71
3
 72
8
 73
4
 74
0
 42
0.0000001
 43
0.0000001
 44
0.0000000001
 40
0.0
 40
0.0
 40
0.0
 40
0.0
 40
1.0
 40
1.0
 40
1.0
 40
1.0
 10
18.6589248887
 20
52.0217110851
 30
0.0
 10
18.6589248887
 20
51.9647022971
 30
0.0
 10
18.6404809764
 20
51.9194307067
 30
0.0
 10
18.6035928894
 20
51.8842193746
 30
0.0
  0
SPLINE
  5
51B
100
AcDbEntity
  8
_1
100
AcDbSpline
 62
7
  6
CONTINUOUS
 70
0
 71
3
 72
8
 73
4
 74
0
 42
0.0000001
 43
0.0000001
 44
0.0000000001
 40
0.0
 40
0.0
 40
0.0
 40
0.0
 40
1.0
 40
1.0
 40
1.0
 40
1.0
 10
18.6019161381
 20
52.1558492112
 30
0.0
 10
18.6388041487
 20
52.1223146357
 30
0.0
 10
18.6589248887
 20
52.0770429709
 30
0.0
 10
18.6589248887
 20
52.0217110851
 30
0.0
  0
SPLINE
  5
51C
100
AcDbEntity
  8
_1
100
AcDbSpline
 62
7
  6
CONTINUOUS
 70
0
 71
3
 72
8
 73
4
 74
0
 42
0.0000001
 43
0.0000001
 44
0.0000000001
 40
0.0
 40
0.0
 40
0.0
 40
0.0
 40
1.0
 40
1.0
 40
1.0
 40
1.0
 10
23.5700585357
 20
52.4928713479
 30
0.0
 10
23.5700585357
 20
52.5968284049
 30
0.0
 10
23.5281403771
 20
52.7058156469
 30
0.0
 10
23.4454228024
 20
52.8227900505
 30
0.0
  0
SPLINE
  5
51D
100
AcDbEntity
  8
_1
100
AcDbSpline
 62
7
  6
CONTINUOUS
 70
0
 71
3
 72
8
 73
4
 74
0
 42
0.0000001
 43
0.0000001
 44
0.0000000001
 40
0.0
 40
0.0
 40
0.0
 40
0.0
 40
1.0
 40
1.0
 40
1.0
 40
1.0
 10
23.2196224225
 20
52.3218450586
 30
0.0
 10
23.251480054
 20
52.2916640975
 30
0.0
 10
23.3001055232
 20
52.2765735426
 30
0.0
 10
23.3638211003
 20
52.2765735426
 30
0.0
  0
SPLINE
  5
51E
100
AcDbEntity
  8
_1
100
AcDbSpline
 62
7
  6
CONTINUOUS
 70
0
 71
3
 72
8
 73
4
 74
0
 42
0.0000001
 43
0.0000001
 44
0.0000000001
 40
0.0
 40
0.0
 40
0.0
 40
0.0
 40
1.0
 40
1.0
 40
1.0
 40
1.0
 10
18.6019161381
 20
52.1558492112
 30
0.0
 10
18.5650282017
 20
52.1893837192
 30
0.0
 10
18.5080194882
 20
52.2078277805
 30
0.0
 10
18.4325667135
 20
52.2078277805
 30
0.0
  0
SPLINE
  5
51F
100
AcDbEntity
  8
_1
100
AcDbSpline
 62
7
  6
CONTINUOUS
 70
0
 71
3
 72
8
 73
4
 74
0
 42
0.0000001
 43
0.0000001
 44
0.0000000001
 40
0.0
 40
0.0
 40
0.0
 40
0.0
 40
1.0
 40
1.0
 40
1.0
 40
1.0
 10
18.7360543328
 20
51.0777137216
 30
0.0
 10
18.6958128622
 20
51.1146017053
 30
0.0
 10
18.6371274701
 20
51.1330456921
 30
0.0
 10
18.5599980167
 20
51.1330456921
 30
0.0
  0
SPLINE
  5
520
100
AcDbEntity
  8
_1
100
AcDbSpline
 62
7
  6
CONTINUOUS
 70
0
 71
3
 72
8
 73
4
 74
0
 42
0.0000001
 43
0.0000001
 44
0.0000000001
 40
0.0
 40
0.0
 40
0.0
 40
0.0
 40
1.0
 40
1.0
 40
1.0
 40
1.0
 10
18.5599980167
 20
50.7373381295
 30
0.0
 10
18.6371274701
 20
50.7373381295
 30
0.0
 10
18.6958128622
 20
50.7541054004
 30
0.0
 10
18.7360543421
 20
50.7909933925
 30
0.0
  0
SPLINE
  5
521
100
AcDbEntity
  8
_1
100
AcDbSpline
 62
7
  6
CONTINUOUS
 70
0
 71
3
 72
8
 73
4
 74
0
 42
0.0000001
 43
0.0000001
 44
0.0000000001
 40
0.0
 40
0.0
 40
0.0
 40
0.0
 40
1.0
 40
1.0
 40
1.0
 40
1.0
 10
19.7652139188
 20
52.3748563353
 30
0.0
 10
19.8125131837
 20
52.348672811
 30
0.0
 10
19.8594613782
 20
52.3285520711
 30
0.0
 10
19.9077988172
 20
52.3141357146
 30
0.0
  0
SPLINE
  5
522
100
AcDbEntity
  8
_1
100
AcDbSpline
 62
7
  6
CONTINUOUS
 70
0
 71
3
 72
8
 73
4
 74
0
 42
0.0000001
 43
0.0000001
 44
0.0000000001
 40
0.0
 40
0.0
 40
0.0
 40
0.0
 40
1.0
 40
1.0
 40
1.0
 40
1.0
 10
19.6545008901
 20
52.4674194235
 30
0.0
 10
19.6817283741
 20
52.4308324494
 30
0.0
 10
19.7186164966
 20
52.4006513395
 30
0.0
 10
19.7652139188
 20
52.3748563353
 30
0.0
  0
SPLINE
  5
523
100
AcDbEntity
  8
_1
100
AcDbSpline
 62
7
  6
CONTINUOUS
 70
0
 71
3
 72
8
 73
4
 74
0
 42
0.0000001
 43
0.0000001
 44
0.0000000001
 40
0.0
 40
0.0
 40
0.0
 40
0.0
 40
1.0
 40
1.0
 40
1.0
 40
1.0
 10
19.6146594396
 20
52.5951517262
 30
0.0
 10
19.6146594396
 20
52.5448498764
 30
0.0
 10
19.6280731669
 20
52.5029317179
 30
0.0
 10
19.6545008901
 20
52.4674194235
 30
0.0
  0
SPLINE
  5
524
100
AcDbEntity
  8
_1
100
AcDbSpline
 62
7
  6
CONTINUOUS
 70
0
 71
3
 72
8
 73
4
 74
0
 42
0.0000001
 43
0.0000001
 44
0.0000000001
 40
0.0
 40
0.0
 40
0.0
 40
0.0
 40
1.0
 40
1.0
 40
1.0
 40
1.0
 10
19.7320302239
 20
52.7980356552
 30
0.0
 10
19.6532239428
 20
52.7410269418
 30
0.0
 10
19.6146594396
 20
52.6739578583
 30
0.0
 10
19.6146594396
 20
52.5951517262
 30
0.0
  0
SPLINE
  5
525
100
AcDbEntity
  8
_1
100
AcDbSpline
 62
7
  6
CONTINUOUS
 70
0
 71
3
 72
8
 73
4
 74
0
 42
0.0000001
 43
0.0000001
 44
0.0000000001
 40
0.0
 40
0.0
 40
0.0
 40
0.0
 40
1.0
 40
1.0
 40
1.0
 40
1.0
 10
20.0438977439
 20
52.8835488
 30
0.0
 10
19.9147916022
 20
52.8835482626
 30
0.0
 10
19.8108357622
 20
52.8550438313
 30
0.0
 10
19.7320302239
 20
52.7980356552
 30
0.0
  0
SPLINE
  5
526
100
AcDbEntity
  8
_1
100
AcDbSpline
 62
7
  6
CONTINUOUS
 70
0
 71
3
 72
8
 73
4
 74
0
 42
0.0000001
 43
0.0000001
 44
0.0000000001
 40
0.0
 40
0.0
 40
0.0
 40
0.0
 40
1.0
 40
1.0
 40
1.0
 40
1.0
 10
18.6974896931
 20
53.1417646183
 30
0.0
 10
18.6589248887
 20
53.1769759097
 30
0.0
 10
18.6002394965
 20
53.195419971
 30
0.0
 10
18.5214333644
 20
53.195419971
 30
0.0
  0
SPLINE
  5
527
100
AcDbEntity
  8
_1
100
AcDbSpline
 62
7
  6
CONTINUOUS
 70
0
 71
3
 72
8
 73
4
 74
0
 42
0.0000001
 43
0.0000001
 44
0.0000000001
 40
0.0
 40
0.0
 40
0.0
 40
0.0
 40
1.0
 40
1.0
 40
1.0
 40
1.0
 10
20.1017152677
 20
52.2622722721
 30
0.0
 10
20.0137542263
 20
52.2841696346
 30
0.0
 10
19.948459352
 20
52.3020089496
 30
0.0
 10
19.9077988172
 20
52.3141357146
 30
0.0
  0
SPLINE
  5
528
100
AcDbEntity
  8
_1
100
AcDbSpline
 62
7
  6
CONTINUOUS
 70
0
 71
3
 72
8
 73
4
 74
0
 42
0.0000001
 43
0.0000001
 44
0.0000000001
 40
0.0
 40
0.0
 40
0.0
 40
0.0
 40
1.0
 40
1.0
 40
1.0
 40
1.0
 10
20.1017158637
 20
51.7939394903
 30
0.0
 10
20.1801535679
 20
51.7741315632
 30
0.0
 10
20.2465660882
 20
51.7550076842
 30
0.0
 10
20.3004406801
 20
51.7366674431
 30
0.0
  0
SPLINE
  5
529
100
AcDbEntity
  8
_1
100
AcDbSpline
 62
7
  6
CONTINUOUS
 70
0
 71
3
 72
8
 73
4
 74
0
 42
0.0000001
 43
0.0000001
 44
0.0000000001
 40
0.0
 40
0.0
 40
0.0
 40
0.0
 40
1.0
 40
1.0
 40
1.0
 40
1.0
 10
20.1017150141
 20
51.0614537978
 30
0.0
 10
20.2350439348
 20
51.0658838201
 30
0.0
 10
20.3438737887
 20
51.0993599983
 30
0.0
 10
20.4295485662
 20
51.1632267306
 30
0.0
  0
SPLINE
  5
52A
100
AcDbEntity
  8
_1
100
AcDbSpline
 62
7
  6
CONTINUOUS
 70
0
 71
3
 72
8
 73
4
 74
0
 42
0.0000001
 43
0.0000001
 44
0.0000000001
 40
0.0
 40
0.0
 40
0.0
 40
0.0
 40
1.0
 40
1.0
 40
1.0
 40
1.0
 10
20.4295485662
 20
51.1632267306
 30
0.0
 10
20.5217685214
 20
51.2319726013
 30
0.0
 10
20.5687170139
 20
51.3174856716
 30
0.0
 10
20.5687170139
 20
51.4214427658
 30
0.0
  0
SPLINE
  5
52B
100
AcDbEntity
  8
_1
100
AcDbSpline
 62
7
  6
CONTINUOUS
 70
0
 71
3
 72
8
 73
4
 74
0
 42
0.0000001
 43
0.0000001
 44
0.0000000001
 40
0.0
 40
0.0
 40
0.0
 40
0.0
 40
1.0
 40
1.0
 40
1.0
 40
1.0
 10
20.5687170139
 20
51.4214427658
 30
0.0
 10
20.5687170139
 20
51.5019256511
 30
0.0
 10
20.543566238
 20
51.5689947345
 30
0.0
 10
20.4932644068
 20
51.6192965285
 30
0.0
  0
SPLINE
  5
52C
100
AcDbEntity
  8
_1
100
AcDbSpline
 62
7
  6
CONTINUOUS
 70
0
 71
3
 72
8
 73
4
 74
0
 42
0.0000001
 43
0.0000001
 44
0.0000000001
 40
0.0
 40
0.0
 40
0.0
 40
0.0
 40
1.0
 40
1.0
 40
1.0
 40
1.0
 10
20.4932644068
 20
51.6192965285
 30
0.0
 10
20.4429625383
 20
51.6695983597
 30
0.0
 10
20.3792469612
 20
51.7098398396
 30
0.0
 10
20.3004406801
 20
51.7366674431
 30
0.0
  0
SPLINE
  5
52D
100
AcDbEntity
  8
_1
100
AcDbSpline
 62
7
  6
CONTINUOUS
 70
0
 71
3
 72
8
 73
4
 74
0
 42
0.0000001
 43
0.0000001
 44
0.0000000001
 40
0.0
 40
0.0
 40
0.0
 40
0.0
 40
1.0
 40
1.0
 40
1.0
 40
1.0
 10
19.4837883869
 20
50.832764014
 30
0.0
 10
19.6413667714
 20
50.7407617173
 30
0.0
 10
19.8407133668
 20
50.6954889485
 30
0.0
 10
20.0835873666
 20
50.6954200311
 30
0.0
  0
SPLINE
  5
52E
100
AcDbEntity
  8
_1
100
AcDbSpline
 62
7
  6
CONTINUOUS
 70
0
 71
3
 72
9
 73
5
 74
0
 42
0.0000001
 43
0.0000001
 44
0.0000000001
 40
0.0
 40
0.0
 40
0.0
 40
0.0
 40
0.5505692058
 40
1.0
 40
1.0
 40
1.0
 40
1.0
 10
33.587561563
 20
82.5808992329
 30
0.0
 10
33.5962312644
 20
82.5956990262
 30
0.0
 10
33.6140261008
 20
82.6254215432
 30
0.0
 10
33.6479742483
 20
82.6281521626
 30
0.0
 10
33.6619756255
 20
82.6281521626
 30
0.0
  0
SPLINE
  5
52F
100
AcDbEntity
  8
_1
100
AcDbSpline
 62
7
  6
CONTINUOUS
 70
0
 71
3
 72
9
 73
5
 74
0
 42
0.0000001
 43
0.0000001
 44
0.0000000001
 40
0.0
 40
0.0
 40
0.0
 40
0.0
 40
0.5513881226
 40
1.0
 40
1.0
 40
1.0
 40
1.0
 10
33.5160000396
 20
82.950861147
 30
0.0
 10
33.3514193381
 20
82.950861147
 30
0.0
 10
33.0423690907
 20
82.8518193986
 30
0.0
 10
32.8616597476
 20
82.5788542104
 30
0.0
 10
32.838584024
 20
82.4469539205
 30
0.0
  0
SPLINE
  5
530
100
AcDbEntity
  8
_1
100
AcDbSpline
 62
7
  6
CONTINUOUS
 70
0
 71
3
 72
9
 73
5
 74
0
 42
0.0000001
 43
0.0000001
 44
0.0000000001
 40
0.0
 40
0.0
 40
0.0
 40
0.0
 40
0.6226978868
 40
1.0
 40
1.0
 40
1.0
 40
1.0
 10
32.696577188
 20
81.8512693501
 30
0.0
 10
32.6809119796
 20
81.8273499525
 30
0.0
 10
32.6549654663
 20
81.786176095
 30
0.0
 10
32.6078618338
 20
81.7717703267
 30
0.0
 10
32.590537149
 20
81.7717703267
 30
0.0
  0
SPLINE
  5
531
100
AcDbEntity
  8
_1
100
AcDbSpline
 62
7
  6
CONTINUOUS
 70
0
 71
3
 72
9
 73
5
 74
0
 42
0.0000001
 43
0.0000001
 44
0.0000000001
 40
0.0
 40
0.0
 40
0.0
 40
0.0
 40
0.558878986
 40
1.0
 40
1.0
 40
1.0
 40
1.0
 10
32.6888877349
 20
81.4211560689
 30
0.0
 10
32.8587393961
 20
81.4211560689
 30
0.0
 10
33.1692905083
 20
81.5048007952
 30
0.0
 10
33.3844566829
 20
81.7672383088
 30
0.0
 10
33.4077275787
 20
81.8992664204
 30
0.0
  0
SPLINE
  5
532
100
AcDbEntity
  8
_1
100
AcDbSpline
 62
7
  6
CONTINUOUS
 70
0
 71
3
 72
31
 73
27
 74
0
 42
0.0000001
 43
0.0000001
 44
0.0000000001
 40
0.0
 40
0.0
 40
0.0
 40
0.0
 40
0.0417601985
 40
0.0754116027
 40
0.1022300751
 40
0.1143430989
 40
0.1266066547
 40
0.1447805404
 40
0.163600369
 40
0.2103952316
 40
0.2703248391
 40
0.3384361749
 40
0.4090144513
 40
0.4782513298
 40
0.5125868753
 40
0.547710895
 40
0.5851021745
 40
0.6052578527
 40
0.6267101228
 40
0.6505527171
 40
0.6733603811
 40
0.7167939891
 40
0.759056753
 40
0.8019047352
 40
0.8940267492
 40
1.0
 40
1.0
 40
1.0
 40
1.0
 10
28.7406016021
 20
85.3802322408
 30
0.0
 10
28.6863404273
 20
85.3802322408
 30
0.0
 10
28.5878984622
 20
85.3723671393
 30
0.0
 10
28.4599298255
 20
85.3318932067
 30
0.0
 10
28.3829019291
 20
85.270923554
 30
0.0
 10
28.3530352644
 20
85.2102629565
 30
0.0
 10
28.3449641197
 20
85.1548017201
 30
0.0
 10
28.3590902743
 20
85.0900175697
 30
0.0
 10
28.4275382753
 20
85.0022159091
 30
0.0
 10
28.5744235424
 20
84.9230265916
 30
0.0
 10
28.7861659889
 20
84.8436777376
 30
0.0
 10
29.0294651262
 20
84.7564145444
 30
0.0
 10
29.2758862311
 20
84.6447080254
 30
0.0
 10
29.4632191358
 20
84.5125616923
 30
0.0
 10
29.5811321302
 20
84.3749584626
 30
0.0
 10
29.649483777
 20
84.2529669462
 30
0.0
 10
29.6847883299
 20
84.1368160832
 30
0.0
 10
29.6993741295
 20
84.0350748641
 30
0.0
 10
29.7031879804
 20
83.9499901079
 30
0.0
 10
29.6986741102
 20
83.8614380403
 30
0.0
 10
29.6796732838
 20
83.7457374465
 30
0.0
 10
29.6326508669
 20
83.6112611554
 30
0.0
 10
29.5398877921
 20
83.4704219602
 30
0.0
 10
29.3705607364
 20
83.3115548961
 30
0.0
 10
29.0787337726
 20
83.1779112116
 30
0.0
 10
28.8195109859
 20
83.1489265767
 30
0.0
 10
28.6818144927
 20
83.1489265767
 30
0.0
  0
SPLINE
  5
533
100
AcDbEntity
  8
_1
100
AcDbSpline
 62
7
  6
CONTINUOUS
 70
0
 71
3
 72
9
 73
5
 74
0
 42
0.0000001
 43
0.0000001
 44
0.0000000001
 40
0.0
 40
0.0
 40
0.0
 40
0.0
 40
0.3231669812
 40
1.0
 40
1.0
 40
1.0
 40
1.0
 10
29.5812324615
 20
85.1432234517
 30
0.0
 10
29.4949775845
 20
85.1816146728
 30
0.0
 10
29.2275679224
 20
85.2959077069
 30
0.0
 10
28.938337603
 20
85.3802322408
 30
0.0
 10
28.7406016021
 20
85.3802322408
 30
0.0
  0
SPLINE
  5
534
100
AcDbEntity
  8
_1
100
AcDbSpline
 62
7
  6
CONTINUOUS
 70
0
 71
3
 72
19
 73
15
 74
0
 42
0.0000001
 43
0.0000001
 44
0.0000000001
 40
0.0
 40
0.0
 40
0.0
 40
0.0
 40
0.1366980682
 40
0.2710743653
 40
0.3440412421
 40
0.4229731965
 40
0.5091089948
 40
0.5551989757
 40
0.6034105129
 40
0.6505515843
 40
0.6971366659
 40
0.791125166
 40
0.890466561
 40
1.0
 40
1.0
 40
1.0
 40
1.0
 10
27.6695351959
 20
85.1045281392
 30
0.0
 10
27.6695351959
 20
85.211310236
 30
0.0
 10
27.7153915377
 20
85.4280237177
 30
0.0
 10
27.8996412511
 20
85.6377519031
 30
0.0
 10
28.0925454217
 20
85.7527552074
 30
0.0
 10
28.2677086706
 20
85.8180082667
 30
0.0
 10
28.4300778771
 20
85.8503818928
 30
0.0
 10
28.5704631206
 20
85.8638343804
 30
0.0
 10
28.6809806721
 20
85.8670778261
 30
0.0
 10
28.7918699466
 20
85.8641003712
 30
0.0
 10
28.9380741947
 20
85.8520209666
 30
0.0
 10
29.1231957786
 20
85.8199603311
 30
0.0
 10
29.3506820461
 20
85.7535586601
 30
0.0
 10
29.5026518836
 20
85.6936338625
 30
0.0
 10
29.5812324615
 20
85.6597810689
 30
0.0
  0
SPLINE
  5
535
100
AcDbEntity
  8
_1
100
AcDbSpline
 62
7
  6
CONTINUOUS
 70
0
 71
3
 72
15
 73
11
 74
0
 42
0.0000001
 43
0.0000001
 44
0.0000000001
 40
0.0
 40
0.0
 40
0.0
 40
0.0
 40
0.0765900102
 40
0.1707450487
 40
0.2899084329
 40
0.4249528414
 40
0.5647247256
 40
0.7020210099
 40
0.8403144868
 40
1.0
 40
1.0
 40
1.0
 40
1.0
 10
29.0228789458
 20
83.8794246236
 30
0.0
 10
29.0228789458
 20
83.9294604575
 30
0.0
 10
28.9684400373
 20
84.0409430171
 30
0.0
 10
28.797421561
 20
84.1318035504
 30
0.0
 10
28.5855906823
 20
84.2120880424
 30
0.0
 10
28.3419656884
 20
84.2963025281
 30
0.0
 10
28.0953132458
 20
84.4054693846
 30
0.0
 10
27.8697494038
 20
84.5621115861
 30
0.0
 10
27.7014898019
 20
84.8011199561
 30
0.0
 10
27.6695351959
 20
85.0002064361
 30
0.0
 10
27.6695351959
 20
85.1045281392
 30
0.0
  0
SPLINE
  5
536
100
AcDbEntity
  8
_1
100
AcDbSpline
 62
7
  6
CONTINUOUS
 70
0
 71
3
 72
11
 73
7
 74
0
 42
0.0000001
 43
0.0000001
 44
0.0000000001
 40
0.0
 40
0.0
 40
0.0
 40
0.0
 40
0.3288066402
 40
0.5844998732
 40
0.7928818533
 40
1.0
 40
1.0
 40
1.0
 40
1.0
 10
28.6308408599
 20
83.6350984517
 30
0.0
 10
28.6873118709
 20
83.6350984517
 30
0.0
 10
28.7881069688
 20
83.6425441337
 30
0.0
 10
28.9194666391
 20
83.6868533546
 30
0.0
 10
29.0068017541
 20
83.770012366
 30
0.0
 10
29.0228789458
 20
83.8438530513
 30
0.0
 10
29.0228789458
 20
83.8794246236
 30
0.0
  0
SPLINE
  5
537
100
AcDbEntity
  8
_1
100
AcDbSpline
 62
7
  6
CONTINUOUS
 70
0
 71
3
 72
9
 73
5
 74
0
 42
0.0000001
 43
0.0000001
 44
0.0000000001
 40
0.0
 40
0.0
 40
0.0
 40
0.0
 40
0.5641923383
 40
1.0
 40
1.0
 40
1.0
 40
1.0
 10
27.723733438
 20
83.9761629048
 30
0.0
 10
27.877640779
 20
83.8742770478
 30
0.0
 10
28.1581147616
 20
83.6974178172
 30
0.0
 10
28.4882662342
 20
83.6350984517
 30
0.0
 10
28.6308408599
 20
83.6350984517
 30
0.0
  0
SPLINE
  5
538
100
AcDbEntity
  8
_1
100
AcDbSpline
 62
7
  6
CONTINUOUS
 70
0
 71
3
 72
9
 73
5
 74
0
 42
0.0000001
 43
0.0000001
 44
0.0000000001
 40
0.0
 40
0.0
 40
0.0
 40
0.0
 40
0.559153038
 40
1.0
 40
1.0
 40
1.0
 40
1.0
 10
28.6818144927
 20
83.1489265767
 30
0.0
 10
28.4951537564
 20
83.1489265767
 30
0.0
 10
28.1550500332
 20
83.1857952668
 30
0.0
 10
27.8545542268
 20
83.3381217673
 30
0.0
 10
27.723733438
 20
83.4055310689
 30
0.0
  0
SPLINE
  5
539
100
AcDbEntity
  8
_1
100
AcDbSpline
 62
7
  6
CONTINUOUS
 70
0
 71
3
 72
23
 73
19
 74
0
 42
0.0000001
 43
0.0000001
 44
0.0000000001
 40
0.0
 40
0.0
 40
0.0
 40
0.0
 40
0.0249504254
 40
0.0960275383
 40
0.1615280801
 40
0.2800374999
 40
0.3366357233
 40
0.3935800014
 40
0.4527175427
 40
0.483710331
 40
0.5159088384
 40
0.5476314657
 40
0.5783640144
 40
0.6375496376
 40
0.6950389369
 40
0.7522183632
 40
0.8699487811
 40
1.0
 40
1.0
 40
1.0
 40
1.0
 10
30.9490678913
 20
83.1519917499
 30
0.0
 10
30.9226464126
 20
83.1505047238
 30
0.0
 10
30.8208167671
 20
83.1475613449
 30
0.0
 10
30.6490671573
 20
83.159940358
 30
0.0
 10
30.3850355868
 20
83.2220551151
 30
0.0
 10
30.1541458988
 20
83.3489821193
 30
0.0
 10
29.9882534585
 20
83.5332912324
 30
0.0
 10
29.898055449
 20
83.6944288254
 30
0.0
 10
29.8529141764
 20
83.8450465362
 30
0.0
 10
29.8346568547
 20
83.9736616717
 30
0.0
 10
29.8300687616
 20
84.0743800934
 30
0.0
 10
29.8347725264
 20
84.17482519
 30
0.0
 10
29.8537433371
 20
84.3026189775
 30
0.0
 10
29.9002139219
 20
84.4531829522
 30
0.0
 10
29.9913076548
 20
84.6151119565
 30
0.0
 10
30.1556676105
 20
84.8010474822
 30
0.0
 10
30.4424074975
 20
84.9695624633
 30
0.0
 10
30.7083346424
 20
85.0100222798
 30
0.0
 10
30.8462715239
 20
85.0100222798
 30
0.0
  0
SPLINE
  5
53A
100
AcDbEntity
  8
_1
100
AcDbSpline
 62
7
  6
CONTINUOUS
 70
0
 71
3
 72
10
 73
6
 74
0
 42
0.0000001
 43
0.0000001
 44
0.0000000001
 40
0.0
 40
0.0
 40
0.0
 40
0.0
 40
0.6079075365
 40
0.8817923233
 40
1.0
 40
1.0
 40
1.0
 40
1.0
 10
31.4760625396
 20
83.270345522
 30
0.0
 10
31.3728817652
 20
83.2328871551
 30
0.0
 10
31.2197093774
 20
83.186449284
 30
0.0
 10
31.0409880894
 20
83.1587299398
 30
0.0
 10
30.9703789069
 20
83.1531911542
 30
0.0
 10
30.9490678913
 20
83.1519917499
 30
0.0
  0
SPLINE
  5
53B
100
AcDbEntity
  8
_1
100
AcDbSpline
 62
7
  6
CONTINUOUS
 70
0
 71
3
 72
9
 73
5
 74
0
 42
0.0000001
 43
0.0000001
 44
0.0000000001
 40
0.0
 40
0.0
 40
0.0
 40
0.0
 40
0.1942834181
 40
1.0
 40
1.0
 40
1.0
 40
1.0
 10
30.9702949614
 20
83.5513826314
 30
0.0
 10
31.0041568114
 20
83.5513826314
 30
0.0
 10
31.1787982546
 20
83.5626635021
 30
0.0
 10
31.3445262185
 20
83.626723578
 30
0.0
 10
31.4760625396
 20
83.6759021627
 30
0.0
  0
SPLINE
  5
53C
100
AcDbEntity
  8
_1
100
AcDbSpline
 62
7
  6
CONTINUOUS
 70
0
 71
3
 72
21
 73
17
 74
0
 42
0.0000001
 43
0.0000001
 44
0.0000000001
 40
0.0
 40
0.0
 40
0.0
 40
0.0
 40
0.1369074118
 40
0.2570740184
 40
0.3152101438
 40
0.3742736669
 40
0.4361188038
 40
0.4686697245
 40
0.5025501851
 40
0.5369458656
 40
0.5700127503
 40
0.6327955626
 40
0.6924733597
 40
0.7506698342
 40
0.8686339511
 40
1.0
 40
1.0
 40
1.0
 40
1.0
 10
30.9898906646
 20
84.5960320454
 30
0.0
 10
30.9124279194
 20
84.5960320454
 30
0.0
 10
30.7651174856
 20
84.5761943277
 30
0.0
 10
30.6056499167
 20
84.4845678082
 30
0.0
 10
30.5172933664
 20
84.3820343273
 30
0.0
 10
30.4691455703
 20
84.2919969119
 30
0.0
 10
30.4451307575
 20
84.2078877351
 30
0.0
 10
30.4353682448
 20
84.1358853493
 30
0.0
 10
30.4329584827
 20
84.0788101471
 30
0.0
 10
30.4353513011
 20
84.0214462495
 30
0.0
 10
30.4449058381
 20
83.9482987049
 30
0.0
 10
30.4683357231
 20
83.8628566521
 30
0.0
 10
30.5151226591
 20
83.7711340667
 30
0.0
 10
30.600123143
 20
83.6670233471
 30
0.0
 10
30.7528799658
 20
83.5726338096
 30
0.0
 10
30.8959675323
 20
83.5513826314
 30
0.0
 10
30.9702949614
 20
83.5513826314
 30
0.0
  0
SPLINE
  5
53D
100
AcDbEntity
  8
_1
100
AcDbSpline
 62
7
  6
CONTINUOUS
 70
0
 71
3
 72
9
 73
5
 74
0
 42
0.0000001
 43
0.0000001
 44
0.0000000001
 40
0.0
 40
0.0
 40
0.0
 40
0.0
 40
0.2634602118
 40
1.0
 40
1.0
 40
1.0
 40
1.0
 10
31.4487773833
 20
84.4746131001
 30
0.0
 10
31.4117610151
 20
84.4942392283
 30
0.0
 10
31.2668367992
 20
84.5595520313
 30
0.0
 10
31.1070208253
 20
84.5960320454
 30
0.0
 10
30.9898906646
 20
84.5960320454
 30
0.0
  0
SPLINE
  5
53E
100
AcDbEntity
  8
_1
100
AcDbSpline
 62
7
  6
CONTINUOUS
 70
0
 71
3
 72
9
 73
5
 74
0
 42
0.0000001
 43
0.0000001
 44
0.0000000001
 40
0.0
 40
0.0
 40
0.0
 40
0.0
 40
0.2358756856
 40
1.0
 40
1.0
 40
1.0
 40
1.0
 10
30.8462715239
 20
85.0100222798
 30
0.0
 10
30.8946439806
 20
85.0100222798
 30
0.0
 10
31.0994961386
 20
84.996310917
 30
0.0
 10
31.3019232145
 20
84.9487401095
 30
0.0
 10
31.4487773833
 20
84.8940603658
 30
0.0
  0
SPLINE
  5
53F
100
AcDbEntity
  8
_1
100
AcDbSpline
 62
7
  6
CONTINUOUS
 70
0
 71
3
 72
9
 73
5
 74
0
 42
0.0000001
 43
0.0000001
 44
0.0000000001
 40
0.0
 40
0.0
 40
0.0
 40
0.0
 40
0.4154482078
 40
1.0
 40
1.0
 40
1.0
 40
1.0
 10
32.6489521881
 20
84.5967761861
 30
0.0
 10
32.5825014475
 20
84.5967761861
 30
0.0
 10
32.4225610385
 20
84.5329573461
 30
0.0
 10
32.3252723617
 20
84.4010035406
 30
0.0
 10
32.2721689849
 20
84.324048647
 30
0.0
  0
SPLINE
  5
540
100
AcDbEntity
  8
_1
100
AcDbSpline
 62
7
  6
CONTINUOUS
 70
0
 71
3
 72
10
 73
6
 74
0
 42
0.0000001
 43
0.0000001
 44
0.0000000001
 40
0.0
 40
0.0
 40
0.0
 40
0.0
 40
0.5629459949
 40
0.7770814341
 40
1.0
 40
1.0
 40
1.0
 40
1.0
 10
32.9404072662
 20
84.2039939595
 30
0.0
 10
32.9404072662
 20
84.3064792562
 30
0.0
 10
32.919042269
 20
84.4641939058
 30
0.0
 10
32.7711468478
 20
84.5834289778
 30
0.0
 10
32.6895349
 20
84.5967761861
 30
0.0
 10
32.6489521881
 20
84.5967761861
 30
0.0
  0
SPLINE
  5
541
100
AcDbEntity
  8
_1
100
AcDbSpline
 62
7
  6
CONTINUOUS
 70
0
 71
3
 72
9
 73
5
 74
0
 42
0.0000001
 43
0.0000001
 44
0.0000000001
 40
0.0
 40
0.0
 40
0.0
 40
0.0
 40
0.236568133
 40
1.0
 40
1.0
 40
1.0
 40
1.0
 10
33.5038457427
 20
83.7526726705
 30
0.0
 10
33.4574392968
 20
83.7469825068
 30
0.0
 10
33.262513306
 20
83.7131147568
 30
0.0
 10
33.0747548143
 20
83.6423772876
 30
0.0
 10
32.9404072662
 20
83.5737068501
 30
0.0
  0
SPLINE
  5
542
100
AcDbEntity
  8
_1
100
AcDbSpline
 62
7
  6
CONTINUOUS
 70
0
 71
3
 72
15
 73
11
 74
0
 42
0.0000001
 43
0.0000001
 44
0.0000000001
 40
0.0
 40
0.0
 40
0.0
 40
0.0
 40
0.202951817
 40
0.2935183997
 40
0.3859438197
 40
0.4564619406
 40
0.5267666501
 40
0.6669372192
 40
0.8168889839
 40
1.0
 40
1.0
 40
1.0
 40
1.0
 10
32.2721689849
 20
84.7096375142
 30
0.0
 10
32.3469541273
 20
84.8000526428
 30
0.0
 10
32.4761198417
 20
84.9200042807
 30
0.0
 10
32.687369236
 20
84.9990175378
 30
0.0
 10
32.834521371
 20
85.0141925144
 30
0.0
 10
32.9694851672
 20
85.0037664403
 30
0.0
 10
33.1278722743
 20
84.9653523214
 30
0.0
 10
33.3152726247
 20
84.8604123744
 30
0.0
 10
33.4754996778
 20
84.6267254254
 30
0.0
 10
33.5038457427
 20
84.4299136577
 30
0.0
 10
33.5038457427
 20
84.324048647
 30
0.0
  0
SPLINE
  5
543
100
AcDbEntity
  8
_1
100
AcDbSpline
 62
7
  6
CONTINUOUS
 70
0
 71
3
 72
9
 73
5
 74
0
 42
0.0000001
 43
0.0000001
 44
0.0000000001
 40
0.0
 40
0.0
 40
0.0
 40
0.0
 40
0.4904720728
 40
1.0
 40
1.0
 40
1.0
 40
1.0
 10
34.3333144927
 20
83.5002849752
 30
0.0
 10
34.268822798
 20
83.5804293416
 30
0.0
 10
34.0804942006
 20
83.6934819094
 30
0.0
 10
33.8762100278
 20
83.7466011481
 30
0.0
 10
33.7698760161
 20
83.7572615376
 30
0.0
  0
SPLINE
  5
544
100
AcDbEntity
  8
_1
100
AcDbSpline
 62
7
  6
CONTINUOUS
 70
0
 71
3
 72
17
 73
13
 74
0
 42
0.0000001
 43
0.0000001
 44
0.0000000001
 40
0.0
 40
0.0
 40
0.0
 40
0.0
 40
0.1596217055
 40
0.282235513
 40
0.388930828
 40
0.4429918573
 40
0.4996058359
 40
0.5493291222
 40
0.5979453178
 40
0.7013470462
 40
0.8299808621
 40
1.0
 40
1.0
 40
1.0
 40
1.0
 10
35.0076299224
 20
84.276423647
 30
0.0
 10
35.0076299224
 20
84.3310798787
 30
0.0
 10
34.9983410857
 20
84.4287196503
 30
0.0
 10
34.9384022198
 20
84.5523317317
 30
0.0
 10
34.8561163971
 20
84.6112027156
 30
0.0
 10
34.783982891
 20
84.6312995075
 30
0.0
 10
34.7289454305
 20
84.6356757178
 30
0.0
 10
34.6758368437
 20
84.6321486736
 30
0.0
 10
34.6081770269
 20
84.6165793925
 30
0.0
 10
34.5224737124
 20
84.5689688616
 30
0.0
 10
34.4253267853
 20
84.4699999025
 30
0.0
 10
34.3656009137
 20
84.3867544828
 30
0.0
 10
34.3333144927
 20
84.3383113423
 30
0.0
  0
SPLINE
  5
545
100
AcDbEntity
  8
_1
100
AcDbSpline
 62
7
  6
CONTINUOUS
 70
0
 71
3
 72
10
 73
6
 74
0
 42
0.0000001
 43
0.0000001
 44
0.0000000001
 40
0.0
 40
0.0
 40
0.0
 40
0.0
 40
0.4312473245
 40
0.681670112
 40
1.0
 40
1.0
 40
1.0
 40
1.0
 10
34.9173408599
 20
85.0100222798
 30
0.0
 10
35.0691592432
 20
85.0100222798
 30
0.0
 10
35.3244740547
 20
84.9346636103
 30
0.0
 10
35.5405721317
 20
84.6407623562
 30
0.0
 10
35.5705723052
 20
84.4349988533
 30
0.0
 10
35.5705723052
 20
84.3229324361
 30
0.0
  0
SPLINE
  5
546
100
AcDbEntity
  8
_1
100
AcDbSpline
 62
7
  6
CONTINUOUS
 70
0
 71
3
 72
9
 73
5
 74
0
 42
0.0000001
 43
0.0000001
 44
0.0000000001
 40
0.0
 40
0.0
 40
0.0
 40
0.0
 40
0.5254070481
 40
1.0
 40
1.0
 40
1.0
 40
1.0
 10
34.3333144927
 20
84.7196834126
 30
0.0
 10
34.4105799017
 20
84.8080630713
 30
0.0
 10
34.5818838101
 20
84.9643946146
 30
0.0
 10
34.81130221
 20
85.0100222798
 30
0.0
 10
34.9173408599
 20
85.0100222798
 30
0.0
  0
SPLINE
  5
547
100
AcDbEntity
  8
_1
100
AcDbSpline
 62
7
  6
CONTINUOUS
 70
0
 71
3
 72
21
 73
17
 74
0
 42
0.0000001
 43
0.0000001
 44
0.0000000001
 40
0.0
 40
0.0
 40
0.0
 40
0.0
 40
0.1423107591
 40
0.2661224796
 40
0.3251252405
 40
0.3843676129
 40
0.4457676193
 40
0.4779066233
 40
0.511274943
 40
0.5444654833
 40
0.5765974109
 40
0.6382415173
 40
0.6975260095
 40
0.7556807673
 40
0.8728351143
 40
1.0
 40
1.0
 40
1.0
 40
1.0
 10
36.8337510162
 20
83.1496707173
 30
0.0
 10
36.6891676525
 20
83.1496707173
 30
0.0
 10
36.4157180685
 20
83.1851047147
 30
0.0
 10
36.1172253529
 20
83.3481007246
 30
0.0
 10
35.9506562309
 20
83.5316442383
 30
0.0
 10
35.8601612362
 20
83.6918696583
 30
0.0
 10
35.8148205175
 20
83.8416335244
 30
0.0
 10
35.7964584188
 20
83.9694187878
 30
0.0
 10
35.7919296572
 20
84.0697456746
 30
0.0
 10
35.7963738747
 20
84.170054957
 30
0.0
 10
35.8139522596
 20
84.2979955831
 30
0.0
 10
35.8569111281
 20
84.4485596964
 30
0.0
 10
35.9413702438
 20
84.6111447749
 30
0.0
 10
36.092953285
 20
84.7970352406
 30
0.0
 10
36.3592367918
 20
84.9681963193
 30
0.0
 10
36.6109176843
 20
85.0100222798
 30
0.0
 10
36.7401133209
 20
85.0100222798
 30
0.0
  0
SPLINE
  5
548
100
AcDbEntity
  8
_1
100
AcDbSpline
 62
7
  6
CONTINUOUS
 70
0
 71
3
 72
9
 73
5
 74
0
 42
0.0000001
 43
0.0000001
 44
0.0000000001
 40
0.0
 40
0.0
 40
0.0
 40
0.0
 40
0.6062924099
 40
1.0
 40
1.0
 40
1.0
 40
1.0
 10
37.6337021881
 20
83.3877957174
 30
0.0
 10
37.4962771719
 20
83.2862345045
 30
0.0
 10
37.2277072349
 20
83.1676795003
 30
0.0
 10
36.9447158722
 20
83.1496707173
 30
0.0
 10
36.8337510162
 20
83.1496707173
 30
0.0
  0
SPLINE
  5
549
100
AcDbEntity
  8
_1
100
AcDbSpline
 62
7
  6
CONTINUOUS
 70
0
 71
3
 72
18
 73
14
 74
0
 42
0.0000001
 43
0.0000001
 44
0.0000000001
 40
0.0
 40
0.0
 40
0.0
 40
0.0
 40
0.1361823846
 40
0.2602216911
 40
0.3238657219
 40
0.3912934032
 40
0.4643221967
 40
0.5443935948
 40
0.5963130734
 40
0.6466271597
 40
0.7484049092
 40
0.8623124589
 40
1.0
 40
1.0
 40
1.0
 40
1.0
 10
36.3774687896
 20
83.9831082173
 30
0.0
 10
36.3819629557
 20
83.911230003
 30
0.0
 10
36.4114466449
 20
83.7727366361
 30
0.0
 10
36.5185857402
 20
83.6314952647
 30
0.0
 10
36.6316199077
 20
83.556248039
 30
0.0
 10
36.7320928513
 20
83.5150593377
 30
0.0
 10
36.8466022255
 20
83.4903547735
 30
0.0
 10
36.9551753383
 20
83.4838060259
 30
0.0
 10
37.0516026372
 20
83.4873481379
 30
0.0
 10
37.1588235599
 20
83.50053458
 30
0.0
 10
37.2952367884
 20
83.5387471956
 30
0.0
 10
37.4632947773
 20
83.6221845482
 30
0.0
 10
37.574313349
 20
83.6959080758
 30
0.0
 10
37.6337021881
 20
83.7380379048
 30
0.0
  0
SPLINE
  5
54A
100
AcDbEntity
  8
_1
100
AcDbSpline
 62
7
  6
CONTINUOUS
 70
0
 71
3
 72
11
 73
7
 74
0
 42
0.0000001
 43
0.0000001
 44
0.0000000001
 40
0.0
 40
0.0
 40
0.0
 40
0.0
 40
0.2412147626
 40
0.4730232555
 40
0.7161588971
 40
1.0
 40
1.0
 40
1.0
 40
1.0
 10
36.7401133209
 20
85.0100222798
 30
0.0
 10
36.8650233784
 20
85.0100222798
 30
0.0
 10
37.1132597832
 20
84.9675186487
 30
0.0
 10
37.4330092121
 20
84.7578075855
 30
0.0
 10
37.6407548957
 20
84.4091726801
 30
0.0
 10
37.6712364262
 20
84.1299679497
 30
0.0
 10
37.6652041411
 20
83.9831082173
 30
0.0
  0
SPLINE
  5
54B
100
AcDbEntity
  8
_1
100
AcDbSpline
 62
7
  6
CONTINUOUS
 70
0
 71
3
 72
19
 73
15
 74
0
 42
0.0000001
 43
0.0000001
 44
0.0000000001
 40
0.0
 40
0.0
 40
0.0
 40
0.0
 40
0.056569309
 40
0.1155520573
 40
0.24190031
 40
0.3799098777
 40
0.4523947341
 40
0.5265558922
 40
0.5989465436
 40
0.6661579661
 40
0.786261089
 40
0.8928764249
 40
0.9452763568
 40
1.0
 40
1.0
 40
1.0
 40
1.0
 10
37.8577224816
 20
85.3692640898
 30
0.0
 10
37.8511809626
 20
85.3866317693
 30
0.0
 10
37.8422694496
 20
85.4239512202
 30
0.0
 10
37.8426489371
 20
85.5038982056
 30
0.0
 10
37.8755488664
 20
85.6072690109
 30
0.0
 10
37.9400436421
 20
85.6988468432
 30
0.0
 10
38.0084766881
 20
85.7627886885
 30
0.0
 10
38.0677646562
 20
85.8038324448
 30
0.0
 10
38.1307777753
 20
85.8352976666
 30
0.0
 10
38.2123813813
 20
85.8606413137
 30
0.0
 10
38.3110559944
 20
85.8662089941
 30
0.0
 10
38.3997214716
 20
85.8302885344
 30
0.0
 10
38.4491848142
 20
85.7794027044
 30
0.0
 10
38.4660796361
 20
85.747994986
 30
0.0
 10
38.4724726959
 20
85.7312185689
 30
0.0
  0
SPLINE
  5
54C
100
AcDbEntity
  8
_1
100
AcDbSpline
 62
7
  6
CONTINUOUS
 70
0
 71
3
 72
20
 73
16
 74
0
 42
0.0000001
 43
0.0000001
 44
0.0000000001
 40
0.0
 40
0.0
 40
0.0
 40
0.0
 40
0.056879502
 40
0.1156786674
 40
0.2419194891
 40
0.3800217537
 40
0.4525940057
 40
0.5268608872
 40
0.599281224
 40
0.6665362449
 40
0.7866215159
 40
0.8928789571
 40
0.9449794144
 40
0.9993851329
 40
1.0
 40
1.0
 40
1.0
 40
1.0
 10
38.4724726959
 20
85.7312185689
 30
0.0
 10
38.4791176088
 20
85.7137812486
 30
0.0
 10
38.4878527866
 20
85.6763494323
 30
0.0
 10
38.487258517
 20
85.5964229068
 30
0.0
 10
38.4541078949
 20
85.493205892
 30
0.0
 10
38.3895775332
 20
85.4016490519
 30
0.0
 10
38.3210909292
 20
85.3376387885
 30
0.0
 10
38.2618321906
 20
85.2964093132
 30
0.0
 10
38.1986591867
 20
85.2651157864
 30
0.0
 10
38.1170329831
 20
85.2398270895
 30
0.0
 10
38.0184905862
 20
85.2341822009
 30
0.0
 10
37.929981041
 20
85.2698845671
 30
0.0
 10
37.8807634865
 20
85.3206293937
 30
0.0
 10
37.864178841
 20
85.3521925116
 30
0.0
 10
37.8577935831
 20
85.3690753158
 30
0.0
 10
37.8577224816
 20
85.3692640898
 30
0.0
  0
SPLINE
  5
54D
100
AcDbEntity
  8
_1
100
AcDbSpline
 62
7
  6
CONTINUOUS
 70
0
 71
3
 72
26
 73
22
 74
0
 42
0.0000001
 43
0.0000001
 44
0.0000000001
 40
0.0
 40
0.0
 40
0.0
 40
0.0
 40
0.0100530025
 40
0.1200204577
 40
0.1766253473
 40
0.2353048269
 40
0.296840264
 40
0.3289479101
 40
0.3620598317
 40
0.3958329094
 40
0.4283992168
 40
0.4903613948
 40
0.5490838298
 40
0.6057411163
 40
0.717459344
 40
0.775982013
 40
0.8065075935
 40
0.8380938825
 40
0.8785729691
 40
0.9184658723
 40
1.0
 40
1.0
 40
1.0
 40
1.0
 10
39.2068993714
 20
83.20734736
 30
0.0
 10
39.197602985
 20
83.2110931275
 30
0.0
 10
39.0875368776
 20
83.2579512648
 30
0.0
 10
38.9409019302
 20
83.3669020299
 30
0.0
 10
38.808401128
 20
83.549402615
 30
0.0
 10
38.7332109492
 20
83.7100743979
 30
0.0
 10
38.6948527326
 20
83.8578871623
 30
0.0
 10
38.6790084484
 20
83.9833879089
 30
0.0
 10
38.675025979
 20
84.0821179864
 30
0.0
 10
38.6790009729
 20
84.1813068402
 30
0.0
 10
38.6948183779
 20
84.30835914
 30
0.0
 10
38.7333583618
 20
84.4571406241
 30
0.0
 10
38.8098286409
 20
84.6178519839
 30
0.0
 10
38.9466087276
 20
84.799912576
 30
0.0
 10
39.1392664307
 20
84.9331399485
 30
0.0
 10
39.3323285671
 20
84.9901952077
 30
0.0
 10
39.4515723783
 20
85.007215297
 30
0.0
 10
39.5538895378
 20
85.0118550354
 30
0.0
 10
39.6656049013
 20
85.0053494172
 30
0.0
 10
39.8247492545
 20
84.9764722596
 30
0.0
 10
39.9392277741
 20
84.9334187747
 30
0.0
 10
40.0123476959
 20
84.8979050923
 30
0.0
  0
SPLINE
  5
54E
100
AcDbEntity
  8
_1
100
AcDbSpline
 62
7
  6
CONTINUOUS
 70
0
 71
3
 72
8
 73
4
 74
0
 42
0.0000001
 43
0.0000001
 44
0.0000000001
 40
0.0
 40
0.0
 40
0.0
 40
0.0
 40
1.0
 40
1.0
 40
1.0
 40
1.0
 10
39.5131533599
 20
83.1489265767
 30
0.0
 10
39.4092279094
 20
83.1489265767
 30
0.0
 10
39.3032941221
 20
83.1685072866
 30
0.0
 10
39.2068993714
 20
83.20734736
 30
0.0
  0
SPLINE
  5
54F
100
AcDbEntity
  8
_1
100
AcDbSpline
 62
7
  6
CONTINUOUS
 70
0
 71
3
 72
9
 73
5
 74
0
 42
0.0000001
 43
0.0000001
 44
0.0000000001
 40
0.0
 40
0.0
 40
0.0
 40
0.0
 40
0.509594626
 40
1.0
 40
1.0
 40
1.0
 40
1.0
 10
40.0123476959
 20
83.3271482564
 30
0.0
 10
39.9407330261
 20
83.2700889638
 30
0.0
 10
39.7840858803
 20
83.1729775244
 30
0.0
 10
39.6012718088
 20
83.1489265767
 30
0.0
 10
39.5131533599
 20
83.1489265767
 30
0.0
  0
SPLINE
  5
550
100
AcDbEntity
  8
_1
100
AcDbSpline
 62
7
  6
CONTINUOUS
 70
0
 71
3
 72
21
 73
17
 74
0
 42
0.0000001
 43
0.0000001
 44
0.0000000001
 40
0.0
 40
0.0
 40
0.0
 40
0.0
 40
0.1422450313
 40
0.2660482281
 40
0.3250620802
 40
0.3843217825
 40
0.4457427895
 40
0.477893164
 40
0.5112733387
 40
0.5444755699
 40
0.5766180203
 40
0.6382774831
 40
0.6975672785
 40
0.7557171894
 40
0.8728443597
 40
1.0
 40
1.0
 40
1.0
 40
1.0
 10
41.8527314849
 20
83.1496707173
 30
0.0
 10
41.7082662339
 20
83.1496707173
 30
0.0
 10
41.4349875331
 20
83.1851304412
 30
0.0
 10
41.1367091628
 20
83.3481275497
 30
0.0
 10
40.9702226199
 20
83.531652072
 30
0.0
 10
40.8797532226
 20
83.691873871
 30
0.0
 10
40.8344199999
 20
83.8416343339
 30
0.0
 10
40.8160587019
 20
83.9694188496
 30
0.0
 10
40.8115314402
 20
84.0697456014
 30
0.0
 10
40.8159700418
 20
84.1700537165
 30
0.0
 10
40.8335208995
 20
84.2979898515
 30
0.0
 10
40.8764147
 20
84.4485455395
 30
0.0
 10
40.9607638006
 20
84.611131441
 30
0.0
 10
41.1121704432
 20
84.7970207025
 30
0.0
 10
41.3782650337
 20
84.9682145048
 30
0.0
 10
41.6298294121
 20
85.0100222798
 30
0.0
 10
41.7589697661
 20
85.0100222798
 30
0.0
  0
SPLINE
  5
551
100
AcDbEntity
  8
_1
100
AcDbSpline
 62
7
  6
CONTINUOUS
 70
0
 71
3
 72
9
 73
5
 74
0
 42
0.0000001
 43
0.0000001
 44
0.0000000001
 40
0.0
 40
0.0
 40
0.0
 40
0.0
 40
0.6062903048
 40
1.0
 40
1.0
 40
1.0
 40
1.0
 10
42.6537988677
 20
83.3877957174
 30
0.0
 10
42.516146897
 20
83.2861841127
 30
0.0
 10
42.2471663066
 20
83.1676953539
 30
0.0
 10
41.9638353091
 20
83.1496707173
 30
0.0
 10
41.8527314849
 20
83.1496707173
 30
0.0
  0
SPLINE
  5
552
100
AcDbEntity
  8
_1
100
AcDbSpline
 62
7
  6
CONTINUOUS
 70
0
 71
3
 72
18
 73
14
 74
0
 42
0.0000001
 43
0.0000001
 44
0.0000000001
 40
0.0
 40
0.0
 40
0.0
 40
0.0
 40
0.1361864713
 40
0.2602640158
 40
0.3238683861
 40
0.3911610233
 40
0.4639180468
 40
0.5435464719
 40
0.5957017062
 40
0.6462091411
 40
0.7482535224
 40
0.8622892695
 40
1.0
 40
1.0
 40
1.0
 40
1.0
 10
41.397193399
 20
83.9831082173
 30
0.0
 10
41.4016882492
 20
83.9112190629
 30
0.0
 10
41.4313268603
 20
83.772697969
 30
0.0
 10
41.5385736438
 20
83.6315463865
 30
0.0
 10
41.6515204656
 20
83.5562824701
 30
0.0
 10
41.7517473937
 20
83.5150898164
 30
0.0
 10
41.8658077736
 20
83.4903641231
 30
0.0
 10
41.9741413317
 20
83.483804372
 30
0.0
 10
42.0705725503
 20
83.4873498993
 30
0.0
 10
42.1781780342
 20
83.5005202361
 30
0.0
 10
42.3149435493
 20
83.5386991131
 30
0.0
 10
42.4832803438
 20
83.6221350568
 30
0.0
 10
42.5943927684
 20
83.6958958316
 30
0.0
 10
42.6537988677
 20
83.7380379048
 30
0.0
  0
SPLINE
  5
553
100
AcDbEntity
  8
_1
100
AcDbSpline
 62
7
  6
CONTINUOUS
 70
0
 71
3
 72
11
 73
7
 74
0
 42
0.0000001
 43
0.0000001
 44
0.0000000001
 40
0.0
 40
0.0
 40
0.0
 40
0.0
 40
0.241141606
 40
0.4729679478
 40
0.7161495063
 40
1.0
 40
1.0
 40
1.0
 40
1.0
 10
41.7589697661
 20
85.0100222798
 30
0.0
 10
41.8838474322
 20
85.0100222798
 30
0.0
 10
42.1320610769
 20
84.9674884414
 30
0.0
 10
42.4518113681
 20
84.7577880196
 30
0.0
 10
42.6597217988
 20
84.4092073037
 30
0.0
 10
42.6903821422
 20
84.1299826639
 30
0.0
 10
42.6844326568
 20
83.9831082173
 30
0.0
  0
SPLINE
  5
554
100
AcDbEntity
  8
_1
100
AcDbSpline
 62
7
  6
CONTINUOUS
 70
0
 71
3
 72
12
 73
8
 74
0
 42
0.0000001
 43
0.0000001
 44
0.0000000001
 40
0.0
 40
0.0
 40
0.0
 40
0.0
 40
0.1945177873
 40
0.3293807821
 40
0.4621557536
 40
0.6057703444
 40
1.0
 40
1.0
 40
1.0
 40
1.0
 10
44.3246426177
 20
84.3502175923
 30
0.0
 10
44.2642172969
 20
84.3883889569
 30
0.0
 10
44.1598705707
 20
84.4507214734
 30
0.0
 10
43.9915982981
 20
84.4950141775
 30
0.0
 10
43.8377047826
 20
84.4562915782
 30
0.0
 10
43.6541149693
 20
84.2825095378
 30
0.0
 10
43.5782220985
 20
84.094063735
 30
0.0
 10
43.5270478911
 20
83.9585515767
 30
0.0
  0
SPLINE
  5
555
100
AcDbEntity
  8
_1
100
AcDbSpline
 62
7
  6
CONTINUOUS
 70
0
 71
3
 72
14
 73
10
 74
0
 42
0.0000001
 43
0.0000001
 44
0.0000000001
 40
0.0
 40
0.0
 40
0.0
 40
0.0
 40
0.396828589
 40
0.5400923854
 40
0.6051888798
 40
0.6695806725
 40
0.7358963925
 40
0.8070383686
 40
1.0
 40
1.0
 40
1.0
 40
1.0
 10
43.5270478911
 20
84.4632029439
 30
0.0
 10
43.597368508
 20
84.6130575728
 30
0.0
 10
43.7086920358
 20
84.8183924399
 30
0.0
 10
43.9168710742
 20
84.9706554881
 30
0.0
 10
44.0259581103
 20
85.0060373495
 30
0.0
 10
44.1077632694
 20
85.014254583
 30
0.0
 10
44.1922342602
 20
85.005778862
 30
0.0
 10
44.3233673528
 20
84.960106045
 30
0.0
 10
44.414677521
 20
84.8957454168
 30
0.0
 10
44.4794238677
 20
84.847923647
 30
0.0
  0
SPLINE
  5
556
100
AcDbEntity
  8
_1
100
AcDbSpline
 62
7
  6
CONTINUOUS
 70
0
 71
3
 72
8
 73
4
 74
0
 42
0.0000001
 43
0.0000001
 44
0.0000000001
 40
0.0
 40
0.0
 40
0.0
 40
0.0
 40
1.0
 40
1.0
 40
1.0
 40
1.0
 10
43.6730234771
 20
82.180055483
 30
0.0
 10
43.6318993532
 20
82.180055483
 30
0.0
 10
43.589839099
 20
82.1725412625
 30
0.0
 10
43.5518763701
 20
82.1567290906
 30
0.0
  0
SPLINE
  5
557
100
AcDbEntity
  8
_1
100
AcDbSpline
 62
7
  6
CONTINUOUS
 70
0
 71
3
 72
9
 73
5
 74
0
 42
0.0000001
 43
0.0000001
 44
0.0000000001
 40
0.0
 40
0.0
 40
0.0
 40
0.0
 40
0.3123824195
 40
1.0
 40
1.0
 40
1.0
 40
1.0
 10
43.9540605864
 20
82.0778601704
 30
0.0
 10
43.9280658033
 20
82.0955143814
 30
0.0
 10
43.8436086221
 20
82.1497248239
 30
0.0
 10
43.7421917499
 20
82.180055483
 30
0.0
 10
43.6730234771
 20
82.180055483
 30
0.0
  0
SPLINE
  5
558
100
AcDbEntity
  8
_1
100
AcDbSpline
 62
7
  6
CONTINUOUS
 70
0
 71
3
 72
19
 73
15
 74
0
 42
0.0000001
 43
0.0000001
 44
0.0000000001
 40
0.0
 40
0.0
 40
0.0
 40
0.0
 40
0.2020401931
 40
0.3770898834
 40
0.4611751862
 40
0.5465736703
 40
0.6362792185
 40
0.683674978
 40
0.7331494767
 40
0.770219086
 40
0.804820756
 40
0.869521409
 40
0.9329203104
 40
1.0
 40
1.0
 40
1.0
 40
1.0
 10
43.1584502349
 20
81.8148064595
 30
0.0
 10
43.1584502349
 20
81.8917396124
 30
0.0
 10
43.1767702539
 20
82.0370730548
 30
0.0
 10
43.2646160407
 20
82.1954825591
 30
0.0
 10
43.3640857762
 20
82.2826793128
 30
0.0
 10
43.4516705819
 20
82.3299004542
 30
0.0
 10
43.5337637056
 20
82.3533057585
 30
0.0
 10
43.6042487751
 20
82.3628102283
 30
0.0
 10
43.6552793302
 20
82.3649150093
 30
0.0
 10
43.701415996
 20
82.3635821017
 30
0.0
 10
43.7531574416
 20
82.358830448
 30
0.0
 10
43.814167372
 20
82.3469454154
 30
0.0
 10
43.8848723011
 20
82.3236208569
 30
0.0
 10
43.9306648873
 20
82.3042834104
 30
0.0
 10
43.9540605864
 20
82.294033022
 30
0.0
  0
SPLINE
  5
559
100
AcDbEntity
  8
_1
100
AcDbSpline
 62
7
  6
CONTINUOUS
 70
0
 71
3
 72
14
 73
10
 74
0
 42
0.0000001
 43
0.0000001
 44
0.0000000001
 40
0.0
 40
0.0
 40
0.0
 40
0.0
 40
0.129163414
 40
0.2046827653
 40
0.2786729403
 40
0.4682658669
 40
0.6413682146
 40
0.8133819722
 40
1.0
 40
1.0
 40
1.0
 40
1.0
 10
43.9771289459
 20
81.3662136861
 30
0.0
 10
43.9334781728
 20
81.3460732037
 30
0.0
 10
43.8586637608
 20
81.3271675562
 30
0.0
 10
43.7562347491
 20
81.3113521609
 30
0.0
 10
43.6301369996
 20
81.3035124569
 30
0.0
 10
43.4656233166
 20
81.3299498613
 30
0.0
 10
43.2923987203
 20
81.4392845766
 30
0.0
 10
43.1809536146
 20
81.6098463551
 30
0.0
 10
43.1584502349
 20
81.7453493468
 30
0.0
 10
43.1584502349
 20
81.8148064595
 30
0.0
  0
SPLINE
  5
55A
100
AcDbEntity
  8
_1
100
AcDbSpline
 62
7
  6
CONTINUOUS
 70
0
 71
3
 72
21
 73
17
 74
0
 42
0.0000001
 43
0.0000001
 44
0.0000000001
 40
0.0
 40
0.0
 40
0.0
 40
0.0
 40
0.0040204971
 40
0.1032841728
 40
0.2072755981
 40
0.2640189333
 40
0.3249594325
 40
0.3866888964
 40
0.443338471
 40
0.5473467449
 40
0.6516984318
 40
0.7083770517
 40
0.7695778183
 40
0.8223201868
 40
0.8765238641
 40
1.0
 40
1.0
 40
1.0
 40
1.0
 10
43.5518763701
 20
82.1567290906
 30
0.0
 10
43.5503700388
 20
82.156101676
 30
0.0
 10
43.511823023
 20
82.1396499539
 30
0.0
 10
43.4412703281
 20
82.088313018
 30
0.0
 10
43.3885405453
 20
81.9935876682
 30
0.0
 10
43.3670151649
 20
81.9058981858
 30
0.0
 10
43.3615703886
 20
81.8329715727
 30
0.0
 10
43.3671849053
 20
81.7600456738
 30
0.0
 10
43.3904716277
 20
81.672402826
 30
0.0
 10
43.4504271603
 20
81.5785166909
 30
0.0
 10
43.5461095664
 20
81.5218776687
 30
0.0
 10
43.633944197
 20
81.4999670137
 30
0.0
 10
43.7033396997
 20
81.494833
 30
0.0
 10
43.7716157576
 20
81.499286762
 30
0.0
 10
43.8635560068
 20
81.5176657047
 30
0.0
 10
43.93125439
 20
81.5438573184
 30
0.0
 10
43.9771289459
 20
81.5640310689
 30
0.0
  0
SPLINE
  5
55B
100
AcDbEntity
  8
_1
100
AcDbSpline
 62
7
  6
CONTINUOUS
 70
0
 71
3
 72
15
 73
11
 74
0
 42
0.0000001
 43
0.0000001
 44
0.0000000001
 40
0.0
 40
0.0
 40
0.0
 40
0.0
 40
0.0023901166
 40
0.1179774679
 40
0.245328527
 40
0.384611676
 40
0.5324859283
 40
0.6732480172
 40
0.7944192721
 40
1.0
 40
1.0
 40
1.0
 40
1.0
 10
42.4201878962
 20
82.5813674726
 30
0.0
 10
42.4200873169
 20
82.5816242208
 30
0.0
 10
42.4151960442
 20
82.59432584
 30
0.0
 10
42.4127930117
 20
82.6237775669
 30
0.0
 10
42.4266408005
 20
82.6664064981
 30
0.0
 10
42.4544917725
 20
82.7061163732
 30
0.0
 10
42.4936479697
 20
82.7372510476
 30
0.0
 10
42.537888022
 20
82.7557730087
 30
0.0
 10
42.5926249162
 20
82.7603956985
 30
0.0
 10
42.6299157096
 20
82.7330317215
 30
0.0
 10
42.6380478912
 20
82.710751772
 30
0.0
  0
SPLINE
  5
55C
100
AcDbEntity
  8
_1
100
AcDbSpline
 62
7
  6
CONTINUOUS
 70
0
 71
3
 72
14
 73
10
 74
0
 42
0.0000001
 43
0.0000001
 44
0.0000000001
 40
0.0
 40
0.0
 40
0.0
 40
0.0
 40
0.2384236
 40
0.3781796417
 40
0.5260609855
 40
0.6670678776
 40
0.7889888336
 40
0.8964824798
 40
1.0
 40
1.0
 40
1.0
 40
1.0
 10
42.6380478912
 20
82.710751772
 30
0.0
 10
42.6482417138
 20
82.6852026976
 30
0.0
 10
42.639443258
 20
82.6358847715
 30
0.0
 10
42.604094622
 20
82.5867161663
 30
0.0
 10
42.5651046102
 20
82.5549389847
 30
0.0
 10
42.5204564955
 20
82.5368858936
 30
0.0
 10
42.4768496924
 20
82.5346002299
 30
0.0
 10
42.4395260344
 20
82.5492113358
 30
0.0
 10
42.4245441906
 20
82.5702471885
 30
0.0
 10
42.4201878962
 20
82.5813674726
 30
0.0
  0
SPLINE
  5
55D
100
AcDbEntity
  8
_1
100
AcDbSpline
 62
7
  6
CONTINUOUS
 70
0
 71
3
 72
9
 73
5
 74
0
 42
0.0000001
 43
0.0000001
 44
0.0000000001
 40
0.0
 40
0.0
 40
0.0
 40
0.0
 40
0.4587597864
 40
1.0
 40
1.0
 40
1.0
 40
1.0
 10
41.6053047271
 20
82.1719939595
 30
0.0
 10
41.5393734848
 20
82.1719939595
 30
0.0
 10
41.3961110376
 20
82.0868867783
 30
0.0
 10
41.3587461333
 20
81.9356276125
 30
0.0
 10
41.3587461333
 20
81.8578425923
 30
0.0
  0
SPLINE
  5
55E
100
AcDbEntity
  8
_1
100
AcDbSpline
 62
7
  6
CONTINUOUS
 70
0
 71
3
 72
9
 73
5
 74
0
 42
0.0000001
 43
0.0000001
 44
0.0000000001
 40
0.0
 40
0.0
 40
0.0
 40
0.0
 40
0.5697076583
 40
1.0
 40
1.0
 40
1.0
 40
1.0
 10
41.7932002349
 20
82.069798647
 30
0.0
 10
41.7639682978
 20
82.0987934082
 30
0.0
 10
41.7060802442
 20
82.1418038015
 30
0.0
 10
41.636401975
 20
82.1719939595
 30
0.0
 10
41.6053047271
 20
82.1719939595
 30
0.0
  0
SPLINE
  5
55F
100
AcDbEntity
  8
_1
100
AcDbSpline
 62
7
  6
CONTINUOUS
 70
0
 71
3
 72
9
 73
5
 74
0
 42
0.0000001
 43
0.0000001
 44
0.0000000001
 40
0.0
 40
0.0
 40
0.0
 40
0.0
 40
0.2227907132
 40
1.0
 40
1.0
 40
1.0
 40
1.0
 10
41.657146524
 20
82.3643543111
 30
0.0
 10
41.6774598959
 20
82.3643543111
 30
0.0
 10
41.7691368281
 20
82.3535264234
 30
0.0
 10
41.8477742608
 20
82.2952510654
 30
0.0
 10
41.8991162505
 20
82.246408022
 30
0.0
  0
SPLINE
  5
560
100
AcDbEntity
  8
_1
100
AcDbSpline
 62
7
  6
CONTINUOUS
 70
0
 71
3
 72
9
 73
5
 74
0
 42
0.0000001
 43
0.0000001
 44
0.0000000001
 40
0.0
 40
0.0
 40
0.0
 40
0.0
 40
0.3467635816
 40
1.0
 40
1.0
 40
1.0
 40
1.0
 10
41.3587461333
 20
82.1093621236
 30
0.0
 10
41.3816363921
 20
82.1496345861
 30
0.0
 10
41.4501627632
 20
82.2597362979
 30
0.0
 10
41.5698825296
 20
82.3643543111
 30
0.0
 10
41.657146524
 20
82.3643543111
 30
0.0
  0
SPLINE
  5
561
100
AcDbEntity
  8
_1
100
AcDbSpline
 62
7
  6
CONTINUOUS
 70
0
 71
3
 72
9
 73
5
 74
0
 42
0.0000001
 43
0.0000001
 44
0.0000000001
 40
0.0
 40
0.0
 40
0.0
 40
0.0
 40
0.5197940745
 40
1.0
 40
1.0
 40
1.0
 40
1.0
 10
40.3991767974
 20
81.3079226705
 30
0.0
 10
40.311676694
 20
81.3079226705
 30
0.0
 10
40.1240839527
 20
81.3608020795
 30
0.0
 10
40.0703906646
 20
81.545826916
 30
0.0
 10
40.0703906646
 20
81.6266629048
 30
0.0
  0
SPLINE
  5
562
100
AcDbEntity
  8
_1
100
AcDbSpline
 62
7
  6
CONTINUOUS
 70
0
 71
3
 72
9
 73
5
 74
0
 42
0.0000001
 43
0.0000001
 44
0.0000000001
 40
0.0
 40
0.0
 40
0.0
 40
0.0
 40
0.7783596532
 40
1.0
 40
1.0
 40
1.0
 40
1.0
 10
40.6437510161
 20
81.3755154439
 30
0.0
 10
40.5857806433
 20
81.3436825901
 30
0.0
 10
40.5026157014
 20
81.3176194992
 30
0.0
 10
40.4180090721
 20
81.3079226705
 30
0.0
 10
40.3991767974
 20
81.3079226705
 30
0.0
  0
SPLINE
  5
563
100
AcDbEntity
  8
_1
100
AcDbSpline
 62
7
  6
CONTINUOUS
 70
0
 71
3
 72
9
 73
5
 74
0
 42
0.0000001
 43
0.0000001
 44
0.0000000001
 40
0.0
 40
0.0
 40
0.0
 40
0.0
 40
0.2272163212
 40
1.0
 40
1.0
 40
1.0
 40
1.0
 10
40.4152998443
 20
81.4880047017
 30
0.0
 10
40.4336729913
 20
81.4880047017
 30
0.0
 10
40.5146463472
 20
81.4952307125
 30
0.0
 10
40.5906832264
 20
81.5306643238
 30
0.0
 10
40.6437510161
 20
81.5636589986
 30
0.0
  0
SPLINE
  5
564
100
AcDbEntity
  8
_1
100
AcDbSpline
 62
7
  6
CONTINUOUS
 70
0
 71
3
 72
9
 73
5
 74
0
 42
0.0000001
 43
0.0000001
 44
0.0000000001
 40
0.0
 40
0.0
 40
0.0
 40
0.0
 40
0.5688873099
 40
1.0
 40
1.0
 40
1.0
 40
1.0
 10
40.2704404693
 20
81.6419177877
 30
0.0
 10
40.2704404693
 20
81.5980125833
 30
0.0
 10
40.2995352032
 20
81.511998603
 30
0.0
 10
40.3820277174
 20
81.4880047017
 30
0.0
 10
40.4152998443
 20
81.4880047017
 30
0.0
  0
SPLINE
  5
565
100
AcDbEntity
  8
_1
100
AcDbSpline
 62
7
  6
CONTINUOUS
 70
0
 71
3
 72
21
 73
17
 74
0
 42
0.0000001
 43
0.0000001
 44
0.0000000001
 40
0.0
 40
0.0
 40
0.0
 40
0.0
 40
0.0038202767
 40
0.1033279792
 40
0.2074421162
 40
0.2642035971
 40
0.3251464423
 40
0.3868741917
 40
0.4435104998
 40
0.5474834428
 40
0.6519915851
 40
0.7089215213
 40
0.7705321012
 40
0.8233016806
 40
0.8775415062
 40
1.0
 40
1.0
 40
1.0
 40
1.0
 10
38.9547654222
 20
82.1566303302
 30
0.0
 10
38.9533339812
 20
82.1560344768
 30
0.0
 10
38.9147590065
 20
82.139602804
 30
0.0
 10
38.8440550451
 20
82.0883777954
 30
0.0
 10
38.7910184069
 20
81.9936309849
 30
0.0
 10
38.7693620192
 20
81.9059080102
 30
0.0
 10
38.7638971505
 20
81.8329728357
 30
0.0
 10
38.7694934816
 20
81.7600534207
 30
0.0
 10
38.7926818897
 20
81.6724105484
 30
0.0
 10
38.8526051547
 20
81.5784210941
 30
0.0
 10
38.9485224881
 20
81.521825229
 30
0.0
 10
39.0367043715
 20
81.4999586349
 30
0.0
 10
39.1063799106
 20
81.4948324944
 30
0.0
 10
39.1748466297
 20
81.499290107
 30
0.0
 10
39.2664136431
 20
81.5175476722
 30
0.0
 10
39.3337333697
 20
81.5436957018
 30
0.0
 10
39.379084024
 20
81.5640310689
 30
0.0
  0
SPLINE
  5
566
100
AcDbEntity
  8
_1
100
AcDbSpline
 62
7
  6
CONTINUOUS
 70
0
 71
3
 72
8
 73
4
 74
0
 42
0.0000001
 43
0.0000001
 44
0.0000000001
 40
0.0
 40
0.0
 40
0.0
 40
0.0
 40
1.0
 40
1.0
 40
1.0
 40
1.0
 10
39.0764668364
 20
82.180055483
 30
0.0
 10
39.0351550517
 20
82.180055483
 30
0.0
 10
38.9929048642
 20
82.1725063033
 30
0.0
 10
38.9547654222
 20
82.1566303302
 30
0.0
  0
SPLINE
  5
567
100
AcDbEntity
  8
_1
100
AcDbSpline
 62
7
  6
CONTINUOUS
 70
0
 71
3
 72
9
 73
5
 74
0
 42
0.0000001
 43
0.0000001
 44
0.0000000001
 40
0.0
 40
0.0
 40
0.0
 40
0.0
 40
0.3121484057
 40
1.0
 40
1.0
 40
1.0
 40
1.0
 10
39.3565117583
 20
82.0778601704
 30
0.0
 10
39.3306677146
 20
82.0955253671
 30
0.0
 10
39.2465830753
 20
82.1497636764
 30
0.0
 10
39.1454496419
 20
82.180055483
 30
0.0
 10
39.0764668364
 20
82.180055483
 30
0.0
  0
SPLINE
  5
568
100
AcDbEntity
  8
_1
100
AcDbSpline
 62
7
  6
CONTINUOUS
 70
0
 71
3
 72
19
 73
15
 74
0
 42
0.0000001
 43
0.0000001
 44
0.0000000001
 40
0.0
 40
0.0
 40
0.0
 40
0.0
 40
0.2021832215
 40
0.3772195122
 40
0.4612433854
 40
0.5465718075
 40
0.6362296871
 40
0.6836199584
 40
0.7331057143
 40
0.7703385993
 40
0.8051060974
 40
0.8700458902
 40
0.9334056907
 40
1.0
 40
1.0
 40
1.0
 40
1.0
 10
38.5622656646
 20
81.8148064595
 30
0.0
 10
38.5622656646
 20
81.8917316971
 30
0.0
 10
38.5804625482
 20
82.0369823324
 30
0.0
 10
38.6679562621
 20
82.1954438347
 30
0.0
 10
38.76718416
 20
82.2826777834
 30
0.0
 10
38.8545994456
 20
82.329906911
 30
0.0
 10
38.9365753628
 20
82.3533084623
 30
0.0
 10
39.0069865886
 20
82.3628116321
 30
0.0
 10
39.058040275
 20
82.3649151619
 30
0.0
 10
39.1042689852
 20
82.3635810602
 30
0.0
 10
39.156185106
 20
82.3588330323
 30
0.0
 10
39.2172929916
 20
82.3469835949
 30
0.0
 10
39.2878427379
 20
82.3237106995
 30
0.0
 10
39.3333569964
 20
82.3043207332
 30
0.0
 10
39.3565117583
 20
82.294033022
 30
0.0
  0
SPLINE
  5
569
100
AcDbEntity
  8
_1
100
AcDbSpline
 62
7
  6
CONTINUOUS
 70
0
 71
3
 72
14
 73
10
 74
0
 42
0.0000001
 43
0.0000001
 44
0.0000000001
 40
0.0
 40
0.0
 40
0.0
 40
0.0
 40
0.1280687157
 40
0.203530787
 40
0.2777930751
 40
0.4677436484
 40
0.6409831796
 40
0.8131334784
 40
1.0
 40
1.0
 40
1.0
 40
1.0
 10
39.379084024
 20
81.3662136861
 30
0.0
 10
39.3360327253
 20
81.3459124315
 30
0.0
 10
39.2616834988
 20
81.327107118
 30
0.0
 10
39.1597454633
 20
81.3113300234
 30
0.0
 10
39.0336075995
 20
81.3035278542
 30
0.0
 10
38.8690337244
 20
81.3298944199
 30
0.0
 10
38.6958620978
 20
81.4392805398
 30
0.0
 10
38.5846757324
 20
81.6099084968
 30
0.0
 10
38.5622656646
 20
81.7453559089
 30
0.0
 10
38.5622656646
 20
81.8148064595
 30
0.0
  0
SPLINE
  5
56A
100
AcDbEntity
  8
_1
100
AcDbSpline
 62
7
  6
CONTINUOUS
 70
0
 71
3
 72
15
 73
11
 74
0
 42
0.0000001
 43
0.0000001
 44
0.0000000001
 40
0.0
 40
0.0
 40
0.0
 40
0.0
 40
0.1563591582
 40
0.2902455128
 40
0.4212140686
 40
0.4926333152
 40
0.5707467136
 40
0.6726166533
 40
0.7761856878
 40
1.0
 40
1.0
 40
1.0
 40
1.0
 10
37.3325732817
 20
81.8063728658
 30
0.0
 10
37.3397004178
 20
81.7606637926
 30
0.0
 10
37.3618581999
 20
81.6762898426
 30
0.0
 10
37.4352739695
 20
81.5713356326
 30
0.0
 10
37.5249729371
 20
81.5211854228
 30
0.0
 10
37.60618204
 20
81.5027854727
 30
0.0
 10
37.6806803337
 20
81.4978513399
 30
0.0
 10
37.7646821152
 20
81.5056130662
 30
0.0
 10
37.8875820446
 20
81.5397182365
 30
0.0
 10
37.9737967258
 20
81.586568916
 30
0.0
 10
38.0292129302
 20
81.6228181782
 30
0.0
  0
SPLINE
  5
56B
100
AcDbEntity
  8
_1
100
AcDbSpline
 62
7
  6
CONTINUOUS
 70
0
 71
3
 72
14
 73
10
 74
0
 42
0.0000001
 43
0.0000001
 44
0.0000000001
 40
0.0
 40
0.0
 40
0.0
 40
0.0
 40
0.0350225482
 40
0.1890590244
 40
0.3321959282
 40
0.5949533293
 40
0.8483076641
 40
0.9806598194
 40
1.0
 40
1.0
 40
1.0
 40
1.0
 10
37.1326493348
 20
81.8241757031
 30
0.0
 10
37.1323309068
 20
81.8325824105
 30
0.0
 10
37.1314394687
 20
81.8779868688
 30
0.0
 10
37.1375931037
 20
81.9579996491
 30
0.0
 10
37.1705193457
 20
82.0888873007
 30
0.0
 10
37.2519523884
 20
82.2301588544
 30
0.0
 10
37.3840909065
 20
82.3222372638
 30
0.0
 10
37.477912823
 20
82.350138283
 30
0.0
 10
37.5138160754
 20
82.3565819882
 30
0.0
 10
37.5184043348
 20
82.3573396406
 30
0.0
  0
SPLINE
  5
56C
100
AcDbEntity
  8
_1
100
AcDbSpline
 62
7
  6
CONTINUOUS
 70
0
 71
3
 72
10
 73
6
 74
0
 42
0.0000001
 43
0.0000001
 44
0.0000000001
 40
0.0
 40
0.0
 40
0.0
 40
0.0
 40
0.4327914912
 40
0.9132443173
 40
1.0
 40
1.0
 40
1.0
 40
1.0
 10
37.5184043348
 20
82.3573396406
 30
0.0
 10
37.5470905821
 20
82.3620765576
 30
0.0
 10
37.6085075999
 20
82.3668018631
 30
0.0
 10
37.6757518265
 20
82.3612451055
 30
0.0
 10
37.7130974825
 20
82.3535702367
 30
0.0
 10
37.7187847838
 20
82.3522850601
 30
0.0
  0
SPLINE
  5
56D
100
AcDbEntity
  8
_1
100
AcDbSpline
 62
7
  6
CONTINUOUS
 70
0
 71
3
 72
11
 73
7
 74
0
 42
0.0000001
 43
0.0000001
 44
0.0000000001
 40
0.0
 40
0.0
 40
0.0
 40
0.0
 40
0.1053476412
 40
0.357012722
 40
0.6404635859
 40
1.0
 40
1.0
 40
1.0
 40
1.0
 10
37.7187847838
 20
82.3522850601
 30
0.0
 10
37.7424348075
 20
82.3469407931
 30
0.0
 10
37.8211295457
 20
82.3223078306
 30
0.0
 10
37.944324911
 20
82.2303543059
 30
0.0
 10
38.0330956481
 20
82.0380590301
 30
0.0
 10
38.0469482817
 20
81.8890030085
 30
0.0
 10
38.0469482817
 20
81.8063728658
 30
0.0
  0
SPLINE
  5
56E
100
AcDbEntity
  8
_1
100
AcDbSpline
 62
7
  6
CONTINUOUS
 70
0
 71
3
 72
12
 73
8
 74
0
 42
0.0000001
 43
0.0000001
 44
0.0000000001
 40
0.0
 40
0.0
 40
0.0
 40
0.0
 40
0.2721974891
 40
0.5198332032
 40
0.7699165071
 40
0.8995075659
 40
1.0
 40
1.0
 40
1.0
 40
1.0
 10
37.622912149
 20
81.3079226705
 30
0.0
 10
37.551373429
 20
81.3079226705
 30
0.0
 10
37.4116837161
 20
81.3350469569
 30
0.0
 10
37.2479349377
 20
81.4649483877
 30
0.0
 10
37.1690526497
 20
81.6143485791
 30
0.0
 10
37.139411003
 20
81.7374060858
 30
0.0
 10
37.1336490228
 20
81.7977832851
 30
0.0
 10
37.1326493348
 20
81.8241757031
 30
0.0
  0
SPLINE
  5
56F
100
AcDbEntity
  8
_1
100
AcDbSpline
 62
7
  6
CONTINUOUS
 70
0
 71
3
 72
9
 73
5
 74
0
 42
0.0000001
 43
0.0000001
 44
0.0000000001
 40
0.0
 40
0.0
 40
0.0
 40
0.0
 40
0.4792508106
 40
1.0
 40
1.0
 40
1.0
 40
1.0
 10
38.0292129302
 20
81.427729311
 30
0.0
 10
37.972066843
 20
81.3898433582
 30
0.0
 10
37.8428362526
 20
81.3222108922
 30
0.0
 10
37.6974131338
 20
81.3079226705
 30
0.0
 10
37.622912149
 20
81.3079226705
 30
0.0
  0
SPLINE
  5
570
100
AcDbEntity
  8
_1
100
AcDbSpline
 62
7
  6
CONTINUOUS
 70
0
 71
3
 72
16
 73
12
 74
0
 42
0.0000001
 43
0.0000001
 44
0.0000000001
 40
0.0
 40
0.0
 40
0.0
 40
0.0
 40
0.206326187
 40
0.3899066697
 40
0.5486938714
 40
0.6207380147
 40
0.690653277
 40
0.7266000245
 40
0.7625092227
 40
0.8362869714
 40
1.0
 40
1.0
 40
1.0
 40
1.0
 10
33.8225859771
 20
81.4576189595
 30
0.0
 10
33.6774150356
 20
81.318653664
 30
0.0
 10
33.3665677641
 20
81.0905329739
 30
0.0
 10
32.8593445227
 20
80.902320907
 30
0.0
 10
32.4433770171
 20
80.893017775
 30
0.0
 10
32.1644898456
 20
80.9925893031
 30
0.0
 10
32.0219557293
 20
81.0961573313
 30
0.0
 10
31.9323238297
 20
81.2019247735
 30
0.0
 10
31.8589853251
 20
81.3240359329
 30
0.0
 10
31.7766989158
 20
81.5809538485
 30
0.0
 10
31.7951412005
 20
81.8208126054
 30
0.0
 10
31.8316377349
 20
81.9760369282
 30
0.0
  0
SPLINE
  5
571
100
AcDbEntity
  8
_1
100
AcDbSpline
 62
7
  6
CONTINUOUS
 70
0
 71
3
 72
9
 73
5
 74
0
 42
0.0000001
 43
0.0000001
 44
0.0000000001
 40
0.0
 40
0.0
 40
0.0
 40
0.0
 40
0.2448383815
 40
1.0
 40
1.0
 40
1.0
 40
1.0
 10
34.0982900787
 20
81.7825603657
 30
0.0
 10
34.0781364873
 20
81.7541833616
 30
0.0
 10
33.9940170085
 20
81.6396197873
 30
0.0
 10
33.9000999908
 20
81.5318882005
 30
0.0
 10
33.8225859771
 20
81.4576189595
 30
0.0
  0
SPLINE
  5
572
100
AcDbEntity
  8
_1
100
AcDbSpline
 62
7
  6
CONTINUOUS
 70
0
 71
3
 72
8
 73
4
 74
0
 42
0.0000001
 43
0.0000001
 44
0.0000000001
 40
0.0
 40
0.0
 40
0.0
 40
0.0
 40
1.0
 40
1.0
 40
1.0
 40
1.0
 10
34.3325703521
 20
82.212673647
 30
0.0
 10
34.3055465385
 20
82.1405674524
 30
0.0
 10
34.2715326627
 20
82.0711129568
 30
0.0
 10
34.2357080474
 20
82.0029500142
 30
0.0
  0
SPLINE
  5
573
100
AcDbEntity
  8
_1
100
AcDbSpline
 62
7
  6
CONTINUOUS
 70
0
 71
3
 72
16
 73
12
 74
0
 42
0.0000001
 43
0.0000001
 44
0.0000000001
 40
0.0
 40
0.0
 40
0.0
 40
0.0
 40
0.2088022774
 40
0.3948605837
 40
0.5563345954
 40
0.6298899214
 40
0.7014563417
 40
0.7367490683
 40
0.7718295833
 40
0.8432874699
 40
1.0
 40
1.0
 40
1.0
 40
1.0
 10
32.3928437896
 20
82.9173748189
 30
0.0
 10
32.5381117759
 20
83.056288434
 30
0.0
 10
32.8496027782
 20
83.2842162659
 30
0.0
 10
33.3586434948
 20
83.4711201108
 30
0.0
 10
33.7764498504
 20
83.4782040179
 30
0.0
 10
34.0569281287
 20
83.376647759
 30
0.0
 10
34.1996200007
 20
83.272685802
 30
0.0
 10
34.2886166134
 20
83.1683675254
 30
0.0
 10
34.3605895175
 20
83.0517444197
 30
0.0
 10
34.4438794212
 20
82.8090730527
 30
0.0
 10
34.4316699698
 20
82.580962876
 30
0.0
 10
34.4001631256
 20
82.4334353658
 30
0.0
  0
SPLINE
  5
574
100
AcDbEntity
  8
_1
100
AcDbSpline
 62
7
  6
CONTINUOUS
 70
0
 71
3
 72
9
 73
5
 74
0
 42
0.0000001
 43
0.0000001
 44
0.0000000001
 40
0.0
 40
0.0
 40
0.0
 40
0.0
 40
0.7441230012
 40
1.0
 40
1.0
 40
1.0
 40
1.0
 10
32.1428125396
 20
82.627408022
 30
0.0
 10
32.1989770072
 20
82.7040904854
 30
0.0
 10
32.2791607351
 20
82.8041084972
 30
0.0
 10
32.369156725
 20
82.8948536979
 30
0.0
 10
32.3928437896
 20
82.9173748189
 30
0.0
  0
SPLINE
  5
575
100
AcDbEntity
  8
_1
100
AcDbSpline
 62
7
  6
CONTINUOUS
 70
0
 71
3
 72
8
 73
4
 74
0
 42
0.0000001
 43
0.0000001
 44
0.0000000001
 40
0.0
 40
0.0
 40
0.0
 40
0.0
 40
1.0
 40
1.0
 40
1.0
 40
1.0
 10
31.8992305083
 20
82.1972947408
 30
0.0
 10
31.9268888095
 20
82.269563205
 30
0.0
 10
31.9631626633
 20
82.3383933306
 30
0.0
 10
32.0003096099
 20
82.4062742329
 30
0.0
  0
SPLINE
  5
576
100
AcDbEntity
  8
_1
100
AcDbSpline
 62
7
  6
CONTINUOUS
 70
0
 71
3
 72
9
 73
5
 74
0
 42
0.0000001
 43
0.0000001
 44
0.0000000001
 40
0.0
 40
0.0
 40
0.0
 40
0.0
 40
0.5174957735
 40
1.0
 40
1.0
 40
1.0
 40
1.0
 10
37.8471465239
 20
81.9399461079
 30
0.0
 10
37.844253406
 20
82.0051201652
 30
0.0
 10
37.8073394775
 20
82.1421311697
 30
0.0
 10
37.6710887805
 20
82.1919617329
 30
0.0
 10
37.6102617583
 20
82.1919617329
 30
0.0
  0
SPLINE
  5
577
100
AcDbEntity
  8
_1
100
AcDbSpline
 62
7
  6
CONTINUOUS
 70
0
 71
3
 72
9
 73
5
 74
0
 42
0.0000001
 43
0.0000001
 44
0.0000000001
 40
0.0
 40
0.0
 40
0.0
 40
0.0
 40
0.4864063905
 40
1.0
 40
1.0
 40
1.0
 40
1.0
 10
37.6102617583
 20
82.1919617329
 30
0.0
 10
37.5450282969
 20
82.1919617329
 30
0.0
 10
37.3999389548
 20
82.1475004796
 30
0.0
 10
37.34810709
 20
82.0078266497
 30
0.0
 10
37.3364180083
 20
81.9399461079
 30
0.0
  0
SPLINE
  5
578
100
AcDbEntity
  8
_1
100
AcDbSpline
 62
7
  6
CONTINUOUS
 70
0
 71
3
 72
17
 73
13
 74
0
 42
0.0000001
 43
0.0000001
 44
0.0000000001
 40
0.0
 40
0.0
 40
0.0
 40
0.0
 40
0.1384382617
 40
0.259584087
 40
0.3752771949
 40
0.4357274783
 40
0.4999583952
 40
0.564851934
 40
0.6253528454
 40
0.7399773161
 40
0.8603047535
 40
1.0
 40
1.0
 40
1.0
 40
1.0
 10
42.1883389067
 20
84.280392397
 30
0.0
 10
42.1828667452
 20
84.3366815585
 30
0.0
 10
42.1593875449
 20
84.4420597677
 30
0.0
 10
42.074862974
 20
84.574477438
 30
0.0
 10
41.9698878651
 20
84.6430259202
 30
0.0
 10
41.8747338926
 20
84.6693430074
 30
0.0
 10
41.7971451238
 20
84.6756799344
 30
0.0
 10
41.7195398562
 20
84.6694893451
 30
0.0
 10
41.624347306
 20
84.6439790552
 30
0.0
 10
41.5195642396
 20
84.5761544874
 30
0.0
 10
41.4365629409
 20
84.4428646272
 30
0.0
 10
41.4141568281
 20
84.3372015743
 30
0.0
 10
41.4087275787
 20
84.280392397
 30
0.0
  0
SPLINE
  5
579
100
AcDbEntity
  8
_1
100
AcDbSpline
 62
7
  6
CONTINUOUS
 70
0
 71
3
 72
16
 73
12
 74
0
 42
0.0000001
 43
0.0000001
 44
0.0000000001
 40
0.0
 40
0.0
 40
0.0
 40
0.0
 40
0.1954680465
 40
0.3625216333
 40
0.5147681904
 40
0.592468373
 40
0.6750394992
 40
0.7134424826
 40
0.7507591407
 40
0.8255011675
 40
1.0
 40
1.0
 40
1.0
 40
1.0
 10
39.2451387115
 20
84.0699246235
 30
0.0
 10
39.2451387115
 20
83.9948327267
 30
0.0
 10
39.2612613639
 20
83.8543867479
 30
0.0
 10
39.3472302352
 20
83.671161326
 30
0.0
 10
39.4692461223
 20
83.5699058674
 30
0.0
 10
39.5839366618
 20
83.5311112167
 30
0.0
 10
39.6605327835
 20
83.5235455821
 30
0.0
 10
39.7213439383
 20
83.5262301047
 30
0.0
 10
39.7786551379
 20
83.5344628835
 30
0.0
 10
39.8844076587
 20
83.5683677519
 30
0.0
 10
39.9626541709
 20
83.6278080769
 30
0.0
 10
40.0123476959
 20
83.6728015767
 30
0.0
  0
SPLINE
  5
57A
100
AcDbEntity
  8
_1
100
AcDbSpline
 62
7
  6
CONTINUOUS
 70
0
 71
3
 72
9
 73
5
 74
0
 42
0.0000001
 43
0.0000001
 44
0.0000000001
 40
0.0
 40
0.0
 40
0.0
 40
0.0
 40
0.4995775609
 40
1.0
 40
1.0
 40
1.0
 40
1.0
 10
40.0123476959
 20
84.5291834126
 30
0.0
 10
39.9668849059
 20
84.5618835074
 30
0.0
 10
39.8638199812
 20
84.6095708249
 30
0.0
 10
39.7524320535
 20
84.6343552876
 30
0.0
 10
39.6963359771
 20
84.6343552876
 30
0.0
  0
SPLINE
  5
57B
100
AcDbEntity
  8
_1
100
AcDbSpline
 62
7
  6
CONTINUOUS
 70
0
 71
3
 72
10
 73
6
 74
0
 42
0.0000001
 43
0.0000001
 44
0.0000000001
 40
0.0
 40
0.0
 40
0.0
 40
0.0
 40
0.240398688
 40
0.4628926224
 40
1.0
 40
1.0
 40
1.0
 40
1.0
 10
39.6963359771
 20
84.6343552876
 30
0.0
 10
39.6316913582
 20
84.6343552876
 30
0.0
 10
39.5041142841
 20
84.613318664
 30
0.0
 10
39.2841188289
 20
84.4400738657
 30
0.0
 10
39.2451387115
 20
84.2143559517
 30
0.0
 10
39.2451387115
 20
84.0699246235
 30
0.0
  0
SPLINE
  5
57C
100
AcDbEntity
  8
_1
100
AcDbSpline
 62
7
  6
CONTINUOUS
 70
0
 71
3
 72
17
 73
13
 74
0
 42
0.0000001
 43
0.0000001
 44
0.0000000001
 40
0.0
 40
0.0
 40
0.0
 40
0.0
 40
0.1383752277
 40
0.2592379252
 40
0.3745796521
 40
0.4349324808
 40
0.4991708813
 40
0.5641183347
 40
0.6247606447
 40
0.7397400067
 40
0.8602697915
 40
1.0
 40
1.0
 40
1.0
 40
1.0
 10
37.1674980864
 20
84.280392397
 30
0.0
 10
37.1622004328
 20
84.3366443647
 30
0.0
 10
37.1392181193
 20
84.441904287
 30
0.0
 10
37.0555308252
 20
84.5744441521
 30
0.0
 10
36.9509817114
 20
84.643061076
 30
0.0
 10
36.8560547373
 20
84.6693537085
 30
0.0
 10
36.7785173892
 20
84.6756797409
 30
0.0
 10
36.7008686404
 20
84.6694799442
 30
0.0
 10
36.6055021196
 20
84.6439570483
 30
0.0
 10
36.5004111959
 20
84.5762325081
 30
0.0
 10
36.4169656851
 20
84.4429873539
 30
0.0
 10
36.3946348096
 20
84.3372035692
 30
0.0
 10
36.3893750396
 20
84.280392397
 30
0.0
  0
SPLINE
  5
57D
100
AcDbEntity
  8
_1
100
AcDbSpline
 62
7
  6
CONTINUOUS
 70
0
 71
3
 72
8
 73
4
 74
0
 42
0.0000001
 43
0.0000001
 44
0.0000000001
 40
0.0
 40
0.0
 40
0.0
 40
0.0
 40
1.0
 40
1.0
 40
1.0
 40
1.0
 10
35.1028216088
 20
36.381402576
 30
0.0
 10
35.2855849287
 20
36.277445487
 30
0.0
 10
35.4247532806
 20
36.1315701225
 30
0.0
 10
35.5186499076
 20
35.9404232126
 30
0.0
  0
SPLINE
  5
57E
100
AcDbEntity
  8
_1
100
AcDbSpline
 62
7
  6
CONTINUOUS
 70
0
 71
3
 72
8
 73
4
 74
0
 42
0.0000001
 43
0.0000001
 44
0.0000000001
 40
0.0
 40
0.0
 40
0.0
 40
0.0
 40
1.0
 40
1.0
 40
1.0
 40
1.0
 10
34.447221311
 20
36.5373381295
 30
0.0
 10
34.7020839176
 20
36.5373381295
 30
0.0
 10
34.9200584015
 20
36.485359601
 30
0.0
 10
35.1028216088
 20
36.381402576
 30
0.0
  0
SPLINE
  5
57F
100
AcDbEntity
  8
_1
100
AcDbSpline
 62
7
  6
CONTINUOUS
 70
0
 71
3
 72
8
 73
4
 74
0
 42
0.0000001
 43
0.0000001
 44
0.0000000001
 40
0.0
 40
0.0
 40
0.0
 40
0.0
 40
1.0
 40
1.0
 40
1.0
 40
1.0
 10
33.9442032852
 20
36.4484715631
 30
0.0
 10
34.0917552284
 20
36.5071570196
 30
0.0
 10
34.259427937
 20
36.5373381295
 30
0.0
 10
34.447221311
 20
36.5373381295
 30
0.0
  0
SPLINE
  5
580
100
AcDbEntity
  8
_1
100
AcDbSpline
 62
7
  6
CONTINUOUS
 70
0
 71
3
 72
8
 73
4
 74
0
 42
0.0000001
 43
0.0000001
 44
0.0000000001
 40
0.0
 40
0.0
 40
0.0
 40
0.0
 40
1.0
 40
1.0
 40
1.0
 40
1.0
 10
33.5681685401
 20
36.1957048655
 30
0.0
 10
33.6708967409
 20
36.3059497692
 30
0.0
 10
33.796651291
 20
36.3897860863
 30
0.0
 10
33.9442032852
 20
36.4484715631
 30
0.0
  0
SPLINE
  5
581
100
AcDbEntity
  8
_1
100
AcDbSpline
 62
7
  6
CONTINUOUS
 70
0
 71
3
 72
8
 73
4
 74
0
 42
0.0000001
 43
0.0000001
 44
0.0000000001
 40
0.0
 40
0.0
 40
0.0
 40
0.0
 40
1.0
 40
1.0
 40
1.0
 40
1.0
 10
33.3321979062
 20
35.792871343
 30
0.0
 10
33.3858531548
 20
35.950483612
 30
0.0
 10
33.4646593055
 20
36.0846217789
 30
0.0
 10
33.5681685401
 20
36.1957048655
 30
0.0
  0
SPLINE
  5
582
100
AcDbEntity
  8
_1
100
AcDbSpline
 62
7
  6
CONTINUOUS
 70
0
 71
3
 72
8
 73
4
 74
0
 42
0.0000001
 43
0.0000001
 44
0.0000000001
 40
0.0
 40
0.0
 40
0.0
 40
0.0
 40
1.0
 40
1.0
 40
1.0
 40
1.0
 10
33.2517149879
 20
35.2730859139
 30
0.0
 10
33.2517149879
 20
35.4608794369
 30
0.0
 10
33.2785426101
 20
35.6352589347
 30
0.0
 10
33.3321979062
 20
35.792871343
 30
0.0
  0
SPLINE
  5
583
100
AcDbEntity
  8
_1
100
AcDbSpline
 62
7
  6
CONTINUOUS
 70
0
 71
3
 72
8
 73
4
 74
0
 42
0.0000001
 43
0.0000001
 44
0.0000000001
 40
0.0
 40
0.0
 40
0.0
 40
0.0
 40
1.0
 40
1.0
 40
1.0
 40
1.0
 10
33.3285960704
 20
34.7582494837
 30
0.0
 10
33.2768658942
 20
34.915943078
 30
0.0
 10
33.2517149879
 20
35.0886459716
 30
0.0
 10
33.2517149879
 20
35.2730859139
 30
0.0
  0
SPLINE
  5
584
100
AcDbEntity
  8
_1
100
AcDbSpline
 62
7
  6
CONTINUOUS
 70
0
 71
3
 72
8
 73
4
 74
0
 42
0.0000001
 43
0.0000001
 44
0.0000000001
 40
0.0
 40
0.0
 40
0.0
 40
0.0
 40
1.0
 40
1.0
 40
1.0
 40
1.0
 10
33.559348096
 20
34.3500993715
 30
0.0
 10
33.4579524046
 20
34.463226802
 30
0.0
 10
33.3808229698
 20
34.5990416848
 30
0.0
 10
33.3285960704
 20
34.7582494837
 30
0.0
  0
SPLINE
  5
585
100
AcDbEntity
  8
_1
100
AcDbSpline
 62
7
  6
CONTINUOUS
 70
0
 71
3
 72
8
 73
4
 74
0
 42
0.0000001
 43
0.0000001
 44
0.0000000001
 40
0.0
 40
0.0
 40
0.0
 40
0.0
 40
1.0
 40
1.0
 40
1.0
 40
1.0
 10
33.9410227337
 20
34.0880704239
 30
0.0
 10
33.7882675997
 20
34.1496788406
 30
0.0
 10
33.6608363709
 20
34.2368686453
 30
0.0
 10
33.559348096
 20
34.3500993715
 30
0.0
  0
SPLINE
  5
586
100
AcDbEntity
  8
_1
100
AcDbSpline
 62
7
  6
CONTINUOUS
 70
0
 71
3
 72
8
 73
4
 74
0
 42
0.0000001
 43
0.0000001
 44
0.0000000001
 40
0.0
 40
0.0
 40
0.0
 40
0.0
 40
1.0
 40
1.0
 40
1.0
 40
1.0
 10
34.457281681
 20
33.9954199523
 30
0.0
 10
34.264458122
 20
33.9954199523
 30
0.0
 10
34.0917552284
 20
34.0272777677
 30
0.0
 10
33.9410227337
 20
34.0880704239
 30
0.0
  0
SPLINE
  5
587
100
AcDbEntity
  8
_1
100
AcDbSpline
 62
7
  6
CONTINUOUS
 70
0
 71
3
 72
8
 73
4
 74
0
 42
0.0000001
 43
0.0000001
 44
0.0000000001
 40
0.0
 40
0.0
 40
0.0
 40
0.0
 40
1.0
 40
1.0
 40
1.0
 40
1.0
 10
34.9719198988
 20
34.0862533502
 30
0.0
 10
34.8211315295
 20
34.0256010401
 30
0.0
 10
34.6501053891
 20
33.9954199523
 30
0.0
 10
34.457281681
 20
33.9954199523
 30
0.0
  0
SPLINE
  5
588
100
AcDbEntity
  8
_1
100
AcDbSpline
 62
7
  6
CONTINUOUS
 70
0
 71
3
 72
8
 73
4
 74
0
 42
0.0000001
 43
0.0000001
 44
0.0000000001
 40
0.0
 40
0.0
 40
0.0
 40
0.0
 40
1.0
 40
1.0
 40
1.0
 40
1.0
 10
35.350515186
 20
34.3479487571
 30
0.0
 10
35.2470201275
 20
34.2335151949
 30
0.0
 10
35.1212656519
 20
34.1463253901
 30
0.0
 10
34.9719198988
 20
34.0862533502
 30
0.0
  0
SPLINE
  5
589
100
AcDbEntity
  8
_1
100
AcDbSpline
 62
7
  6
CONTINUOUS
 70
0
 71
3
 72
8
 73
4
 74
0
 42
0.0000001
 43
0.0000001
 44
0.0000000001
 40
0.0
 40
0.0
 40
0.0
 40
0.0
 40
1.0
 40
1.0
 40
1.0
 40
1.0
 10
35.581858412
 20
34.751790168
 30
0.0
 10
35.5303870163
 20
34.5956882157
 30
0.0
 10
35.4532575628
 20
34.4615500861
 30
0.0
 10
35.350515186
 20
34.3479487571
 30
0.0
  0
SPLINE
  5
58A
100
AcDbEntity
  8
_1
100
AcDbSpline
 62
7
  6
CONTINUOUS
 70
0
 71
3
 72
8
 73
4
 74
0
 42
0.0000001
 43
0.0000001
 44
0.0000000001
 40
0.0
 40
0.0
 40
0.0
 40
0.0
 40
1.0
 40
1.0
 40
1.0
 40
1.0
 10
35.6594949982
 20
35.2697324821
 30
0.0
 10
35.6594949982
 20
35.0785856017
 30
0.0
 10
35.6326672456
 20
34.905882708
 30
0.0
 10
35.581858412
 20
34.751790168
 30
0.0
  0
SPLINE
  5
58B
100
AcDbEntity
  8
_1
100
AcDbSpline
 62
7
  6
CONTINUOUS
 70
0
 71
3
 72
8
 73
4
 74
0
 42
0.0000001
 43
0.0000001
 44
0.0000000001
 40
0.0
 40
0.0
 40
0.0
 40
0.0
 40
1.0
 40
1.0
 40
1.0
 40
1.0
 10
35.5186499076
 20
35.9404232126
 30
0.0
 10
35.6125465056
 20
35.7492763617
 30
0.0
 10
35.6594949982
 20
35.5262716927
 30
0.0
 10
35.6594949982
 20
35.2697324821
 30
0.0
  0
SPLINE
  5
58C
100
AcDbEntity
  8
_1
100
AcDbSpline
 62
7
  6
CONTINUOUS
 70
0
 71
3
 72
8
 73
4
 74
0
 42
0.0000001
 43
0.0000001
 44
0.0000000001
 40
0.0
 40
0.0
 40
0.0
 40
0.0
 40
1.0
 40
1.0
 40
1.0
 40
1.0
 10
36.5867251179
 20
34.2989075438
 30
0.0
 10
36.5867251179
 20
34.1949504681
 30
0.0
 10
36.5632507226
 20
34.1194977493
 30
0.0
 10
36.5158821727
 20
34.0695915864
 30
0.0
  0
SPLINE
  5
58D
100
AcDbEntity
  8
_1
100
AcDbSpline
 62
7
  6
CONTINUOUS
 70
0
 71
3
 72
8
 73
4
 74
0
 42
0.0000001
 43
0.0000001
 44
0.0000000001
 40
0.0
 40
0.0
 40
0.0
 40
0.0
 40
1.0
 40
1.0
 40
1.0
 40
1.0
 10
37.774232331
 20
34.039594356
 30
0.0
 10
37.7302527272
 20
34.0691959555
 30
0.0
 10
37.6933648907
 20
34.1077606943
 30
0.0
 10
37.6628101633
 20
34.1578364744
 30
0.0
  0
SPLINE
  5
58E
100
AcDbEntity
  8
_1
100
AcDbSpline
 62
7
  6
CONTINUOUS
 70
0
 71
3
 72
8
 73
4
 74
0
 42
0.0000001
 43
0.0000001
 44
0.0000000001
 40
0.0
 40
0.0
 40
0.0
 40
0.0
 40
1.0
 40
1.0
 40
1.0
 40
1.0
 10
37.9431971929
 20
33.9954199523
 30
0.0
 10
37.8727746031
 20
33.9954199523
 30
0.0
 10
37.8174427173
 20
34.010510498
 30
0.0
 10
37.774232331
 20
34.039594356
 30
0.0
  0
SPLINE
  5
58F
100
AcDbEntity
  8
_1
100
AcDbSpline
 62
7
  6
CONTINUOUS
 70
0
 71
3
 72
8
 73
4
 74
0
 42
0.0000001
 43
0.0000001
 44
0.0000000001
 40
0.0
 40
0.0
 40
0.0
 40
0.0
 40
1.0
 40
1.0
 40
1.0
 40
1.0
 10
38.1175768391
 20
34.0557821274
 30
0.0
 10
38.0739820025
 20
34.0155406783
 30
0.0
 10
38.01697314
 20
33.9954199523
 30
0.0
 10
37.9431971929
 20
33.9954199523
 30
0.0
  0
SPLINE
  5
590
100
AcDbEntity
  8
_1
100
AcDbSpline
 62
7
  6
CONTINUOUS
 70
0
 71
3
 72
8
 73
4
 74
0
 42
0.0000001
 43
0.0000001
 44
0.0000000001
 40
0.0
 40
0.0
 40
0.0
 40
0.0
 40
1.0
 40
1.0
 40
1.0
 40
1.0
 10
38.1829690954
 20
34.1983039186
 30
0.0
 10
38.1829690954
 20
34.1429719303
 30
0.0
 10
38.1611716768
 20
34.0960235775
 30
0.0
 10
38.1175768391
 20
34.0557821274
 30
0.0
  0
SPLINE
  5
591
100
AcDbEntity
  8
_1
100
AcDbSpline
 62
7
  6
CONTINUOUS
 70
0
 71
3
 72
8
 73
4
 74
0
 42
0.0000001
 43
0.0000001
 44
0.0000000001
 40
0.0
 40
0.0
 40
0.0
 40
0.0
 40
1.0
 40
1.0
 40
1.0
 40
1.0
 10
38.1453952412
 20
34.3488830997
 30
0.0
 10
38.1695550701
 20
34.2972308279
 30
0.0
 10
38.1829690954
 20
34.2469290153
 30
0.0
 10
38.1829690954
 20
34.1983039186
 30
0.0
  0
SPLINE
  5
592
100
AcDbEntity
  8
_1
100
AcDbSpline
 62
7
  6
CONTINUOUS
 70
0
 71
3
 72
8
 73
4
 74
0
 42
0.0000001
 43
0.0000001
 44
0.0000000001
 40
0.0
 40
0.0
 40
0.0
 40
0.0
 40
1.0
 40
1.0
 40
1.0
 40
1.0
 10
38.0354172013
 20
34.5319726012
 30
0.0
 10
38.0843985796
 20
34.4617973741
 30
0.0
 10
38.120930197
 20
34.4011879035
 30
0.0
 10
38.1453952412
 20
34.3488830997
 30
0.0
  0
SPLINE
  5
593
100
AcDbEntity
  8
_1
100
AcDbSpline
 62
7
  6
CONTINUOUS
 70
0
 71
3
 72
8
 73
4
 74
0
 42
0.0000001
 43
0.0000001
 44
0.0000000001
 40
0.0
 40
0.0
 40
0.0
 40
0.0
 40
1.0
 40
1.0
 40
1.0
 40
1.0
 10
38.0555379412
 20
36.3210403242
 30
0.0
 10
38.0555379412
 20
36.2472643771
 30
0.0
 10
38.01697314
 20
36.1751651087
 30
0.0
 10
37.9431971929
 20
36.1047425189
 30
0.0
  0
SPLINE
  5
594
100
AcDbEntity
  8
_1
100
AcDbSpline
 62
7
  6
CONTINUOUS
 70
0
 71
3
 72
8
 73
4
 74
0
 42
0.0000001
 43
0.0000001
 44
0.0000000001
 40
0.0
 40
0.0
 40
0.0
 40
0.0
 40
1.0
 40
1.0
 40
1.0
 40
1.0
 10
37.9884687803
 20
36.4736226268
 30
0.0
 10
38.0320638439
 20
36.4317043938
 30
0.0
 10
38.0555379412
 20
36.381402544
 30
0.0
 10
38.0555379412
 20
36.3210403242
 30
0.0
  0
SPLINE
  5
595
100
AcDbEntity
  8
_1
100
AcDbSpline
 62
7
  6
CONTINUOUS
 70
0
 71
3
 72
8
 73
4
 74
0
 42
0.0000001
 43
0.0000001
 44
0.0000000001
 40
0.0
 40
0.0
 40
0.0
 40
0.0
 40
1.0
 40
1.0
 40
1.0
 40
1.0
 10
37.8157660386
 20
36.5373381295
 30
0.0
 10
37.8861886284
 20
36.5373381295
 30
0.0
 10
37.9448738715
 20
36.5155407109
 30
0.0
 10
37.9884687803
 20
36.4736226268
 30
0.0
  0
SPLINE
  5
596
100
AcDbEntity
  8
_1
100
AcDbSpline
 62
7
  6
CONTINUOUS
 70
0
 71
3
 72
8
 73
4
 74
0
 42
0.0000001
 43
0.0000001
 44
0.0000000001
 40
0.0
 40
0.0
 40
0.0
 40
0.0
 40
1.0
 40
1.0
 40
1.0
 40
1.0
 10
37.6833045154
 20
36.5021268846
 30
0.0
 10
37.7168390176
 20
36.5256010809
 30
0.0
 10
37.7604338548
 20
36.5373381295
 30
0.0
 10
37.8157660386
 20
36.5373381295
 30
0.0
  0
SPLINE
  5
597
100
AcDbEntity
  8
_1
100
AcDbSpline
 62
7
  6
CONTINUOUS
 70
0
 71
3
 72
8
 73
4
 74
0
 42
0.0000001
 43
0.0000001
 44
0.0000000001
 40
0.0
 40
0.0
 40
0.0
 40
0.0
 40
1.0
 40
1.0
 40
1.0
 40
1.0
 10
37.5642567895
 20
36.3931395928
 30
0.0
 10
37.6110373555
 20
36.4419261931
 30
0.0
 10
37.6497700832
 20
36.4786527374
 30
0.0
 10
37.6833045154
 20
36.5021268846
 30
0.0
  0
SPLINE
  5
598
100
AcDbEntity
  8
_1
100
AcDbSpline
 62
7
  6
CONTINUOUS
 70
0
 71
3
 72
8
 73
4
 74
0
 42
0.0000001
 43
0.0000001
 44
0.0000000001
 40
0.0
 40
0.0
 40
0.0
 40
0.0
 40
1.0
 40
1.0
 40
1.0
 40
1.0
 10
36.5163024856
 20
36.4618853151
 30
0.0
 10
36.5632507226
 20
36.4115836539
 30
0.0
 10
36.5867251179
 20
36.3361308791
 30
0.0
 10
36.5867251179
 20
36.2355273285
 30
0.0
  0
SPLINE
  5
599
100
AcDbEntity
  8
_1
100
AcDbSpline
 62
7
  6
CONTINUOUS
 70
0
 71
3
 72
8
 73
4
 74
0
 42
0.0000001
 43
0.0000001
 44
0.0000000001
 40
0.0
 40
0.0
 40
0.0
 40
0.0
 40
1.0
 40
1.0
 40
1.0
 40
1.0
 10
36.3352158687
 20
36.5373381295
 30
0.0
 10
36.4089921138
 20
36.5373381295
 30
0.0
 10
36.4693540356
 20
36.5121872046
 30
0.0
 10
36.5163024856
 20
36.4618853151
 30
0.0
  0
SPLINE
  5
59A
100
AcDbEntity
  8
_1
100
AcDbSpline
 62
7
  6
CONTINUOUS
 70
0
 71
3
 72
8
 73
4
 74
0
 42
0.0000001
 43
0.0000001
 44
0.0000000001
 40
0.0
 40
0.0
 40
0.0
 40
0.0
 40
1.0
 40
1.0
 40
1.0
 40
1.0
 10
36.1541294704
 20
36.4618853867
 30
0.0
 10
36.1977243445
 20
36.5121872046
 30
0.0
 10
36.2580865643
 20
36.5373381295
 30
0.0
 10
36.3352158687
 20
36.5373381295
 30
0.0
  0
SPLINE
  5
59B
100
AcDbEntity
  8
_1
100
AcDbSpline
 62
7
  6
CONTINUOUS
 70
0
 71
3
 72
8
 73
4
 74
0
 42
0.0000001
 43
0.0000001
 44
0.0000000001
 40
0.0
 40
0.0
 40
0.0
 40
0.0
 40
1.0
 40
1.0
 40
1.0
 40
1.0
 10
36.0887372515
 20
36.2355273285
 30
0.0
 10
36.0887372515
 20
36.3361308791
 30
0.0
 10
36.1105346701
 20
36.4115836539
 30
0.0
 10
36.1541294704
 20
36.4618853867
 30
0.0
  0
SPLINE
  5
59C
100
AcDbEntity
  8
_1
100
AcDbSpline
 62
7
  6
CONTINUOUS
 70
0
 71
3
 72
8
 73
4
 74
0
 42
0.0000001
 43
0.0000001
 44
0.0000000001
 40
0.0
 40
0.0
 40
0.0
 40
0.0
 40
1.0
 40
1.0
 40
1.0
 40
1.0
 10
36.0936992998
 20
34.2284795155
 30
0.0
 10
36.0904139301
 20
34.2687264525
 30
0.0
 10
36.0887372515
 20
34.3290886351
 30
0.0
 10
36.0887372515
 20
34.4078948044
 30
0.0
  0
SPLINE
  5
59D
100
AcDbEntity
  8
_1
100
AcDbSpline
 62
7
  6
CONTINUOUS
 70
0
 71
3
 72
8
 73
4
 74
0
 42
0.0000001
 43
0.0000001
 44
0.0000000001
 40
0.0
 40
0.0
 40
0.0
 40
0.0
 40
1.0
 40
1.0
 40
1.0
 40
1.0
 10
36.1218257484
 20
34.1192617683
 30
0.0
 10
36.1055043361
 20
34.1496788406
 30
0.0
 10
36.0971206448
 20
34.1865668327
 30
0.0
 10
36.0936992998
 20
34.2284795155
 30
0.0
  0
SPLINE
  5
59E
100
AcDbEntity
  8
_1
100
AcDbSpline
 62
7
  6
CONTINUOUS
 70
0
 71
3
 72
8
 73
4
 74
0
 42
0.0000001
 43
0.0000001
 44
0.0000000001
 40
0.0
 40
0.0
 40
0.0
 40
0.0
 40
1.0
 40
1.0
 40
1.0
 40
1.0
 10
36.2126169499
 20
34.028600235
 30
0.0
 10
36.1725735685
 20
34.0507519453
 30
0.0
 10
36.1423924586
 20
34.0809330319
 30
0.0
 10
36.1218257484
 20
34.1192617683
 30
0.0
  0
SPLINE
  5
59F
100
AcDbEntity
  8
_1
100
AcDbSpline
 62
7
  6
CONTINUOUS
 70
0
 71
3
 72
8
 73
4
 74
0
 42
0.0000001
 43
0.0000001
 44
0.0000000001
 40
0.0
 40
0.0
 40
0.0
 40
0.0
 40
1.0
 40
1.0
 40
1.0
 40
1.0
 10
36.3352158687
 20
33.9954199523
 30
0.0
 10
36.2916210315
 20
33.9954199523
 30
0.0
 10
36.2513795516
 20
34.0071570429
 30
0.0
 10
36.2126169499
 20
34.028600235
 30
0.0
  0
SPLINE
  5
5A0
100
AcDbEntity
  8
_1
100
AcDbSpline
 62
7
  6
CONTINUOUS
 70
0
 71
3
 72
8
 73
4
 74
0
 42
0.0000001
 43
0.0000001
 44
0.0000000001
 40
0.0
 40
0.0
 40
0.0
 40
0.0
 40
1.0
 40
1.0
 40
1.0
 40
1.0
 10
36.5158821727
 20
34.0695915864
 30
0.0
 10
36.4693540356
 20
34.0205708586
 30
0.0
 10
36.4089921138
 20
33.9954199523
 30
0.0
 10
36.3352158687
 20
33.9954199523
 30
0.0
  0
SPLINE
  5
5A1
100
AcDbEntity
  8
_1
100
AcDbSpline
 62
7
  6
CONTINUOUS
 70
0
 71
3
 72
8
 73
4
 74
0
 42
0.0000001
 43
0.0000001
 44
0.0000000001
 40
0.0
 40
0.0
 40
0.0
 40
0.0
 40
1.0
 40
1.0
 40
1.0
 40
1.0
 10
35.1548001191
 20
35.2730859139
 30
0.0
 10
35.1548001191
 20
35.4524957456
 30
0.0
 10
35.1246190092
 20
35.6084313311
 30
0.0
 10
35.0665971422
 20
35.7404521713
 30
0.0
  0
SPLINE
  5
5A2
100
AcDbEntity
  8
_1
100
AcDbSpline
 62
7
  6
CONTINUOUS
 70
0
 71
3
 72
8
 73
4
 74
0
 42
0.0000001
 43
0.0000001
 44
0.0000000001
 40
0.0
 40
0.0
 40
0.0
 40
0.0
 40
1.0
 40
1.0
 40
1.0
 40
1.0
 10
35.0595530656
 20
34.7816494255
 30
0.0
 10
35.1229423306
 20
34.9142663994
 30
0.0
 10
35.1548001191
 20
35.0785856017
 30
0.0
 10
35.1548001191
 20
35.2730859139
 30
0.0
  0
SPLINE
  5
5A3
100
AcDbEntity
  8
_1
100
AcDbSpline
 62
7
  6
CONTINUOUS
 70
0
 71
3
 72
8
 73
4
 74
0
 42
0.0000001
 43
0.0000001
 44
0.0000000001
 40
0.0
 40
0.0
 40
0.0
 40
0.0
 40
1.0
 40
1.0
 40
1.0
 40
1.0
 10
34.8043641663
 20
34.486700941
 30
0.0
 10
34.9116747102
 20
34.5504165881
 30
0.0
 10
34.9955110273
 20
34.6476667815
 30
0.0
 10
35.0595530656
 20
34.7816494255
 30
0.0
  0
SPLINE
  5
5A4
100
AcDbEntity
  8
_1
100
AcDbSpline
 62
7
  6
CONTINUOUS
 70
0
 71
3
 72
8
 73
4
 74
0
 42
0.0000001
 43
0.0000001
 44
0.0000000001
 40
0.0
 40
0.0
 40
0.0
 40
0.0
 40
1.0
 40
1.0
 40
1.0
 40
1.0
 10
34.4539283237
 20
34.3911275335
 30
0.0
 10
34.581359478
 20
34.3911275335
 30
0.0
 10
34.6970537326
 20
34.4229853593
 30
0.0
 10
34.8043641663
 20
34.486700941
 30
0.0
  0
SPLINE
  5
5A5
100
AcDbEntity
  8
_1
100
AcDbSpline
 62
7
  6
CONTINUOUS
 70
0
 71
3
 72
8
 73
4
 74
0
 42
0.0000001
 43
0.0000001
 44
0.0000000001
 40
0.0
 40
0.0
 40
0.0
 40
0.0
 40
1.0
 40
1.0
 40
1.0
 40
1.0
 10
34.1789450388
 20
34.4464595018
 30
0.0
 10
34.2627813688
 20
34.4095715203
 30
0.0
 10
34.353324624
 20
34.3911275335
 30
0.0
 10
34.4539283237
 20
34.3911275335
 30
0.0
  0
SPLINE
  5
5A6
100
AcDbEntity
  8
_1
100
AcDbSpline
 62
7
  6
CONTINUOUS
 70
0
 71
3
 72
8
 73
4
 74
0
 42
0.0000001
 43
0.0000001
 44
0.0000000001
 40
0.0
 40
0.0
 40
0.0
 40
0.0
 40
1.0
 40
1.0
 40
1.0
 40
1.0
 10
33.9576170614
 20
34.6124554866
 30
0.0
 10
34.0213327131
 20
34.5386795022
 30
0.0
 10
34.0951086602
 20
34.4833475047
 30
0.0
 10
34.1789450388
 20
34.4464595018
 30
0.0
  0
SPLINE
  5
5A7
100
AcDbEntity
  8
_1
100
AcDbSpline
 62
7
  6
CONTINUOUS
 70
0
 71
3
 72
8
 73
4
 74
0
 42
0.0000001
 43
0.0000001
 44
0.0000000001
 40
0.0
 40
0.0
 40
0.0
 40
0.0
 40
1.0
 40
1.0
 40
1.0
 40
1.0
 10
33.8081506412
 20
34.894071433
 30
0.0
 10
33.8435996345
 20
34.7801282325
 30
0.0
 10
33.8939014098
 20
34.6862314709
 30
0.0
 10
33.9576170614
 20
34.6124554866
 30
0.0
  0
SPLINE
  5
5A8
100
AcDbEntity
  8
_1
100
AcDbSpline
 62
7
  6
CONTINUOUS
 70
0
 71
3
 72
8
 73
4
 74
0
 42
0.0000001
 43
0.0000001
 44
0.0000000001
 40
0.0
 40
0.0
 40
0.0
 40
0.0
 40
1.0
 40
1.0
 40
1.0
 40
1.0
 10
33.7564098111
 20
35.2730859139
 30
0.0
 10
33.7564098111
 20
35.1322408833
 30
0.0
 10
33.7731771192
 20
35.0064863332
 30
0.0
 10
33.8081506412
 20
34.894071433
 30
0.0
  0
SPLINE
  5
5A9
100
AcDbEntity
  8
_1
100
AcDbSpline
 62
7
  6
CONTINUOUS
 70
0
 71
3
 72
8
 73
4
 74
0
 42
0.0000001
 43
0.0000001
 44
0.0000000001
 40
0.0
 40
0.0
 40
0.0
 40
0.0
 40
1.0
 40
1.0
 40
1.0
 40
1.0
 10
33.8083883949
 20
35.6469961147
 30
0.0
 10
33.7731771192
 20
35.5363320627
 30
0.0
 10
33.7564098111
 20
35.4105775871
 30
0.0
 10
33.7564098111
 20
35.2730859139
 30
0.0
  0
SPLINE
  5
5AA
100
AcDbEntity
  8
_1
100
AcDbSpline
 62
7
  6
CONTINUOUS
 70
0
 71
3
 72
8
 73
4
 74
0
 42
0.0000001
 43
0.0000001
 44
0.0000000001
 40
0.0
 40
0.0
 40
0.0
 40
0.0
 40
1.0
 40
1.0
 40
1.0
 40
1.0
 10
33.9529993143
 20
35.9216278967
 30
0.0
 10
33.8922247312
 20
35.8498800614
 30
0.0
 10
33.8435996345
 20
35.757660053
 30
0.0
 10
33.8083883949
 20
35.6469961147
 30
0.0
  0
SPLINE
  5
5AB
100
AcDbEntity
  8
_1
100
AcDbSpline
 62
7
  6
CONTINUOUS
 70
0
 71
3
 72
8
 73
4
 74
0
 42
0.0000001
 43
0.0000001
 44
0.0000000001
 40
0.0
 40
0.0
 40
0.0
 40
0.0
 40
1.0
 40
1.0
 40
1.0
 40
1.0
 10
34.1705614289
 20
36.0846217927
 30
0.0
 10
34.0867250434
 20
36.0477338054
 30
0.0
 10
34.0129490218
 20
35.9924019196
 30
0.0
 10
33.9529993143
 20
35.9216278967
 30
0.0
  0
SPLINE
  5
5AC
100
AcDbEntity
  8
_1
100
AcDbSpline
 62
7
  6
CONTINUOUS
 70
0
 71
3
 72
8
 73
4
 74
0
 42
0.0000001
 43
0.0000001
 44
0.0000000001
 40
0.0
 40
0.0
 40
0.0
 40
0.0
 40
1.0
 40
1.0
 40
1.0
 40
1.0
 10
34.447221311
 20
36.1416304924
 30
0.0
 10
34.3466177604
 20
36.1416304924
 30
0.0
 10
34.254397752
 20
36.1215097525
 30
0.0
 10
34.1705614289
 20
36.0846217927
 30
0.0
  0
SPLINE
  5
5AD
100
AcDbEntity
  8
_1
100
AcDbSpline
 62
7
  6
CONTINUOUS
 70
0
 71
3
 72
8
 73
4
 74
0
 42
0.0000001
 43
0.0000001
 44
0.0000000001
 40
0.0
 40
0.0
 40
0.0
 40
0.0
 40
1.0
 40
1.0
 40
1.0
 40
1.0
 10
34.8177780232
 20
36.0393502631
 30
0.0
 10
34.7104674599
 20
36.1064193465
 30
0.0
 10
34.5863896629
 20
36.1416304924
 30
0.0
 10
34.447221311
 20
36.1416304924
 30
0.0
  0
SPLINE
  5
5AE
100
AcDbEntity
  8
_1
100
AcDbSpline
 62
7
  6
CONTINUOUS
 70
0
 71
3
 72
8
 73
4
 74
0
 42
0.0000001
 43
0.0000001
 44
0.0000000001
 40
0.0
 40
0.0
 40
0.0
 40
0.0
 40
1.0
 40
1.0
 40
1.0
 40
1.0
 10
35.0665971422
 20
35.7404521713
 30
0.0
 10
35.0089249036
 20
35.87167748
 30
0.0
 10
34.9250885865
 20
35.9722811796
 30
0.0
 10
34.8177780232
 20
36.0393502631
 30
0.0
  0
SPLINE
  5
5AF
100
AcDbEntity
  8
_1
100
AcDbSpline
 62
7
  6
CONTINUOUS
 70
0
 71
3
 72
17
 73
13
 74
0
 42
0.0000001
 43
0.0000001
 44
0.0000000001
 40
0.0
 40
0.0
 40
0.0
 40
0.0
 40
0.1776307123
 40
0.3598914639
 40
0.5350185988
 40
0.69126052
 40
0.8185422236
 40
0.9134063447
 40
0.9481411939
 40
0.9741522219
 40
0.9913324127
 40
1.0
 40
1.0
 40
1.0
 40
1.0
 10
13.4129594077
 20
90.4105441323
 30
0.0
 10
13.4129418469
 20
90.4224331944
 30
0.0
 10
13.4127642733
 20
90.4465210116
 30
0.0
 10
13.4121360776
 20
90.4823262226
 30
0.0
 10
13.4111453541
 20
90.5166888934
 30
0.0
 10
13.4098267089
 20
90.5473660396
 30
0.0
 10
13.4081444348
 20
90.5726239306
 30
0.0
 10
13.4064686478
 20
90.5897726601
 30
0.0
 10
13.4049618916
 20
90.6000382379
 30
0.0
 10
13.4039666402
 20
90.6052368602
 30
0.0
 10
13.403018569
 20
90.6084284495
 30
0.0
 10
13.4022411647
 20
90.6102050244
 30
0.0
 10
13.4017150604
 20
90.6104495026
 30
0.0
  0
SPLINE
  5
5B0
100
AcDbEntity
  8
_1
100
AcDbSpline
 62
7
  6
CONTINUOUS
 70
0
 71
3
 72
17
 73
13
 74
0
 42
0.0000001
 43
0.0000001
 44
0.0000000001
 40
0.0
 40
0.0
 40
0.0
 40
0.0
 40
0.1795823553
 40
0.3631460236
 40
0.5388680974
 40
0.6949372886
 40
0.8213110548
 40
0.9149340621
 40
0.949077836
 40
0.9745993735
 40
0.9914516871
 40
1.0
 40
1.0
 40
1.0
 40
1.0
 10
58.3904601168
 20
90.4105441948
 30
0.0
 10
58.3904777865
 20
90.4225651004
 30
0.0
 10
58.3906590612
 20
90.4468732139
 30
0.0
 10
58.391299372
 20
90.4829395614
 30
0.0
 10
58.3923031239
 20
90.5174209188
 30
0.0
 10
58.39362977
 20
90.5480681068
 30
0.0
 10
58.3953125428
 20
90.5731734373
 30
0.0
 10
58.3969840344
 20
90.5901384853
 30
0.0
 10
58.3984829661
 20
90.6002517668
 30
0.0
 10
58.3994705459
 20
90.60535157
 30
0.0
 10
58.4004099104
 20
90.6084905395
 30
0.0
 10
58.4011798458
 20
90.6102249096
 30
0.0
 10
58.4016961218
 20
90.6104716521
 30
0.0
  0
SPLINE
  5
5B1
100
AcDbEntity
  8
_1
100
AcDbSpline
 62
7
  6
CONTINUOUS
 70
0
 71
3
 72
17
 73
13
 74
0
 42
0.0000001
 43
0.0000001
 44
0.0000000001
 40
0.0
 40
0.0
 40
0.0
 40
0.0
 40
0.1776307123
 40
0.3598914639
 40
0.5350185988
 40
0.69126052
 40
0.8185422236
 40
0.9134063447
 40
0.9481411939
 40
0.9741522219
 40
0.9913324127
 40
1.0
 40
1.0
 40
1.0
 40
1.0
 10
58.3904705756
 20
7.6641321267
 30
0.0
 10
58.3904881364
 20
7.6522430646
 30
0.0
 10
58.3906657099
 20
7.6281552474
 30
0.0
 10
58.3912939057
 20
7.5923500364
 30
0.0
 10
58.3922846292
 20
7.5579873656
 30
0.0
 10
58.3936032744
 20
7.5273102194
 30
0.0
 10
58.3952855485
 20
7.5020523284
 30
0.0
 10
58.3969613355
 20
7.4849035989
 30
0.0
 10
58.3984680917
 20
7.4746380211
 30
0.0
 10
58.399463343
 20
7.4694393988
 30
0.0
 10
58.4004114143
 20
7.4662478095
 30
0.0
 10
58.4011888186
 20
7.4644712346
 30
0.0
 10
58.4017149229
 20
7.4642267564
 30
0.0
  0
SPLINE
  5
5B2
100
AcDbEntity
  8
_1
100
AcDbSpline
 62
7
  6
CONTINUOUS
 70
0
 71
3
 72
11
 73
7
 74
0
 42
0.0000001
 43
0.0000001
 44
0.0000000001
 40
0.0
 40
0.0
 40
0.0
 40
0.0
 40
0.250097002
 40
0.5001871332
 40
0.750161018
 40
1.0
 40
1.0
 40
1.0
 40
1.0
 10
8.9992991025
 20
12.0873381616
 30
0.0
 10
8.999343471
 20
11.7863946877
 30
0.0
 10
9.0617455265
 20
11.1828369891
 30
0.0
 10
9.3351808964
 20
10.3161734333
 30
0.0
 10
9.7800024823
 20
9.5240729275
 30
0.0
 10
10.1772305449
 20
9.0659658001
 30
0.0
 10
10.3965622823
 20
8.8603598918
 30
0.0
  0
SPLINE
  5
5B3
100
AcDbEntity
  8
_1
100
AcDbSpline
 62
7
  6
CONTINUOUS
 70
0
 71
3
 72
11
 73
7
 74
0
 42
0.0000001
 43
0.0000001
 44
0.0000000001
 40
0.0
 40
0.0
 40
0.0
 40
0.0
 40
0.2500637094
 40
0.5000711345
 40
0.7500856176
 40
1.0
 40
1.0
 40
1.0
 40
1.0
 10
10.3965622823
 20
8.8603598918
 30
0.0
 10
10.5983146297
 20
8.6712332514
 30
0.0
 10
11.0385431484
 20
8.3302970284
 30
0.0
 10
11.7815200045
 20
7.9508541677
 30
0.0
 10
12.5825160424
 20
7.7183567793
 30
0.0
 10
13.1365878459
 20
7.6647574676
 30
0.0
 10
13.4129596779
 20
7.6643090409
 30
0.0
  0
SPLINE
  5
5B4
100
AcDbEntity
  8
_1
100
AcDbSpline
 62
7
  6
CONTINUOUS
 70
0
 71
3
 72
11
 73
7
 74
0
 42
0.0000001
 43
0.0000001
 44
0.0000000001
 40
0.0
 40
0.0
 40
0.0
 40
0.0
 40
0.2499341445
 40
0.4999341285
 40
0.7499355529
 40
1.0
 40
1.0
 40
1.0
 40
1.0
 10
13.4129597006
 20
90.4103582218
 30
0.0
 10
13.136501228
 20
90.4099099204
 30
0.0
 10
12.5822908203
 20
90.356300546
 30
0.0
 10
11.781125572
 20
90.1236734478
 30
0.0
 10
11.0380436183
 20
89.7440538148
 30
0.0
 10
10.5977624255
 20
89.402980658
 30
0.0
 10
10.3959919297
 20
89.2137774117
 30
0.0
  0
SPLINE
  5
5B5
100
AcDbEntity
  8
_1
100
AcDbSpline
 62
7
  6
CONTINUOUS
 70
0
 71
3
 72
11
 73
7
 74
0
 42
0.0000001
 43
0.0000001
 44
0.0000000001
 40
0.0
 40
0.0
 40
0.0
 40
0.0
 40
0.2498389648
 40
0.4998160925
 40
0.7499208452
 40
1.0
 40
1.0
 40
1.0
 40
1.0
 10
10.3959919297
 20
89.2137774117
 30
0.0
 10
10.1767397267
 20
89.008181304
 30
0.0
 10
9.7796555862
 20
88.550118879
 30
0.0
 10
9.3350161203
 20
87.7581154837
 30
0.0
 10
9.0617272123
 20
86.8916153485
 30
0.0
 10
8.9993347778
 20
86.2881953318
 30
0.0
 10
8.9992901334
 20
85.9873380998
 30
0.0
  0
SPLINE
  5
5B6
100
AcDbEntity
  8
_1
100
AcDbSpline
 62
7
  6
CONTINUOUS
 70
0
 71
3
 72
11
 73
7
 74
0
 42
0.0000001
 43
0.0000001
 44
0.0000000001
 40
0.0
 40
0.0
 40
0.0
 40
0.0
 40
0.250097002
 40
0.5001871332
 40
0.750161018
 40
1.0
 40
1.0
 40
1.0
 40
1.0
 10
62.8041308807
 20
85.9873380974
 30
0.0
 10
62.8040865123
 20
86.2882815715
 30
0.0
 10
62.7416844567
 20
86.8918392704
 30
0.0
 10
62.4682490865
 20
87.7585028266
 30
0.0
 10
62.0234275001
 20
88.5506033328
 30
0.0
 10
61.6261994371
 20
89.0087104603
 30
0.0
 10
61.4068676994
 20
89.2143163686
 30
0.0
  0
SPLINE
  5
5B7
100
AcDbEntity
  8
_1
100
AcDbSpline
 62
7
  6
CONTINUOUS
 70
0
 71
3
 72
11
 73
7
 74
0
 42
0.0000001
 43
0.0000001
 44
0.0000000001
 40
0.0
 40
0.0
 40
0.0
 40
0.0
 40
0.2500637094
 40
0.5000711345
 40
0.7500856176
 40
1.0
 40
1.0
 40
1.0
 40
1.0
 10
61.4068676994
 20
89.2143163686
 30
0.0
 10
61.2051153521
 20
89.4034430088
 30
0.0
 10
60.7648868335
 20
89.7443792314
 30
0.0
 10
60.0219099778
 20
90.1238220916
 30
0.0
 10
59.2209139403
 20
90.3563194798
 30
0.0
 10
58.6668421372
 20
90.4099187914
 30
0.0
 10
58.3904703054
 20
90.4103672181
 30
0.0
  0
SPLINE
  5
5B8
100
AcDbEntity
  8
_1
100
AcDbSpline
 62
7
  6
CONTINUOUS
 70
0
 71
3
 72
11
 73
7
 74
0
 42
0.0000001
 43
0.0000001
 44
0.0000000001
 40
0.0
 40
0.0
 40
0.0
 40
0.0
 40
0.2499341445
 40
0.4999341285
 40
0.7499355529
 40
1.0
 40
1.0
 40
1.0
 40
1.0
 10
58.3904702827
 20
7.6643180372
 30
0.0
 10
58.6669287563
 20
7.6647663386
 30
0.0
 10
59.2211391662
 20
7.7183757134
 30
0.0
 10
60.0223044175
 20
7.9510028134
 30
0.0
 10
60.7653863734
 20
8.3306224492
 30
0.0
 10
61.205667567
 20
8.6716956085
 30
0.0
 10
61.4074380631
 20
8.8608988562
 30
0.0
  0
SPLINE
  5
5B9
100
AcDbEntity
  8
_1
100
AcDbSpline
 62
7
  6
CONTINUOUS
 70
0
 71
3
 72
11
 73
7
 74
0
 42
0.0000001
 43
0.0000001
 44
0.0000000001
 40
0.0
 40
0.0
 40
0.0
 40
0.0
 40
0.2498389648
 40
0.4998160925
 40
0.7499208452
 40
1.0
 40
1.0
 40
1.0
 40
1.0
 10
61.4074380631
 20
8.8608988562
 30
0.0
 10
61.6266902647
 20
9.0664949638
 30
0.0
 10
62.0237744026
 20
9.5245573881
 30
0.0
 10
62.4684138654
 20
10.3165607814
 30
0.0
 10
62.7417027715
 20
11.1830609138
 30
0.0
 10
62.8040952055
 20
11.7864809283
 30
0.0
 10
62.8041398499
 20
12.0873381591
 30
0.0
  0
SPLINE
  5
5BA
100
AcDbEntity
  8
_1
100
AcDbSpline
 62
7
  6
CONTINUOUS
 70
0
 71
3
 72
20
 73
16
 74
0
 42
0.0000001
 43
0.0000001
 44
0.0000000001
 40
0.0
 40
0.0
 40
0.0
 40
0.0
 40
0.0017658263
 40
0.0056109043
 40
0.0202310452
 40
0.0441369597
 40
0.0771982977
 40
0.1191919006
 40
0.1696463854
 40
0.2280265327
 40
0.2937953562
 40
0.4450736945
 40
0.6178056352
 40
0.8055607167
 40
1.0
 40
1.0
 40
1.0
 40
1.0
 10
63.1529487367
 20
76.5373381295
 30
0.0
 10
63.1526540098
 20
76.5373381304
 30
0.0
 10
63.152041732
 20
76.5363494826
 30
0.0
 10
63.1512126389
 20
76.5333155181
 30
0.0
 10
63.1500881905
 20
76.5260859853
 30
0.0
 10
63.1489679741
 20
76.5143240473
 30
0.0
 10
63.1477891643
 20
76.497789174
 30
0.0
 10
63.1466689357
 20
76.4768926528
 30
0.0
 10
63.1455875463
 20
76.4517335425
 30
0.0
 10
63.1445722872
 20
76.4226112444
 30
0.0
 10
63.1432570652
 20
76.3766583125
 30
0.0
 10
63.1419059788
 20
76.3116155871
 30
0.0
 10
63.1407358809
 20
76.226206185
 30
0.0
 10
63.1400205269
 20
76.1335880453
 30
0.0
 10
63.1398557759
 20
76.0697974114
 30
0.0
 10
63.1398557759
 20
76.0373443393
 30
0.0
  0
SPLINE
  5
5BB
100
AcDbEntity
  8
_1
100
AcDbSpline
 62
7
  6
CONTINUOUS
 70
0
 71
3
 72
17
 73
13
 74
0
 42
0.0000001
 43
0.0000001
 44
0.0000000001
 40
0.0
 40
0.0
 40
0.0
 40
0.0
 40
0.0073212821
 40
0.0226780124
 40
0.0469700217
 40
0.0802304092
 40
0.1727210004
 40
0.2965982646
 40
0.4473696798
 40
0.6194292344
 40
0.8064020047
 40
1.0
 40
1.0
 40
1.0
 40
1.0
 10
13.0517366049
 20
89.3373381295
 30
0.0
 10
13.0522274545
 20
89.3373381278
 30
0.0
 10
13.0532901618
 20
89.3388670348
 30
0.0
 10
13.0541206909
 20
89.3416897326
 30
0.0
 10
13.0552216264
 20
89.3465669036
 30
0.0
 10
13.0566978832
 20
89.3564598645
 30
0.0
 10
13.0583557275
 20
89.3731641616
 30
0.0
 10
13.0599898631
 20
89.3977061111
 30
0.0
 10
13.0613495426
 20
89.4276335157
 30
0.0
 10
13.0623684311
 20
89.4617963715
 30
0.0
 10
13.0629919484
 20
89.4988433992
 30
0.0
 10
13.0631347485
 20
89.5243585057
 30
0.0
 10
13.0631342835
 20
89.5373381295
 30
0.0
  0
SPLINE
  5
5BC
100
AcDbEntity
  8
_1
100
AcDbSpline
 62
7
  6
CONTINUOUS
 70
0
 71
3
 72
15
 73
11
 74
0
 42
0.0000001
 43
0.0000001
 44
0.0000000001
 40
0.0
 40
0.0
 40
0.0
 40
0.0
 40
0.1248957817
 40
0.2498256936
 40
0.3747551318
 40
0.4997266272
 40
0.6247410591
 40
0.749792732
 40
0.8749007512
 40
1.0
 40
1.0
 40
1.0
 40
1.0
 10
13.0631342835
 20
89.5373381295
 30
0.0
 10
12.8542585638
 20
89.5372906217
 30
0.0
 10
12.4352870686
 20
89.4961851133
 30
0.0
 10
11.8318787473
 20
89.3129737268
 30
0.0
 10
11.2754443526
 20
89.0155537813
 30
0.0
 10
10.7875340758
 20
88.6153458635
 30
0.0
 10
10.3871503427
 20
88.1273114056
 30
0.0
 10
10.0894338343
 20
87.5703793147
 30
0.0
 10
9.9059483676
 20
86.9661668287
 30
0.0
 10
9.8647830269
 20
86.5465541254
 30
0.0
 10
9.8647334828
 20
86.3373381279
 30
0.0
  0
SPLINE
  5
5BD
100
AcDbEntity
  8
_1
100
AcDbSpline
 62
7
  6
CONTINUOUS
 70
0
 71
3
 72
20
 73
16
 74
0
 42
0.0000001
 43
0.0000001
 44
0.0000000001
 40
0.0
 40
0.0
 40
0.0
 40
0.0
 40
0.1944392441
 40
0.3821942549
 40
0.5549261599
 40
0.7062045135
 40
0.7719733564
 40
0.8303535337
 40
0.8808080518
 40
0.9228016838
 40
0.955863036
 40
0.9797689511
 40
0.9943890903
 40
0.99823417
 40
1.0
 40
1.0
 40
1.0
 40
1.0
 10
8.6635742074
 20
76.0373443392
 30
0.0
 10
8.6635741992
 20
76.0697974047
 30
0.0
 10
8.6634094463
 20
76.1335880201
 30
0.0
 10
8.6626941044
 20
76.2262061355
 30
0.0
 10
8.6615240085
 20
76.3116155223
 30
0.0
 10
8.6601729199
 20
76.3766582474
 30
0.0
 10
8.6588576969
 20
76.42261119
 30
0.0
 10
8.6578424375
 20
76.4517335019
 30
0.0
 10
8.6567610482
 20
76.4768926275
 30
0.0
 10
8.6556408196
 20
76.4977891615
 30
0.0
 10
8.6544620104
 20
76.5143240419
 30
0.0
 10
8.6533417921
 20
76.5260859827
 30
0.0
 10
8.652217346
 20
76.5333155144
 30
0.0
 10
8.6513882498
 20
76.5363494806
 30
0.0
 10
8.6507759741
 20
76.5373381286
 30
0.0
 10
8.6504812466
 20
76.5373381295
 30
0.0
  0
SPLINE
  5
5BE
100
AcDbEntity
  8
_1
100
AcDbSpline
 62
7
  6
CONTINUOUS
 70
0
 71
3
 72
17
 73
13
 74
0
 42
0.0000001
 43
0.0000001
 44
0.0000000001
 40
0.0
 40
0.0
 40
0.0
 40
0.0
 40
0.1936128051
 40
0.3805999065
 40
0.5526719218
 40
0.7034523797
 40
0.8273333837
 40
0.9198212339
 40
0.9530774188
 40
0.9773624158
 40
0.9927066384
 40
1.0
 40
1.0
 40
1.0
 40
1.0
 10
58.7402957047
 20
89.5373381295
 30
0.0
 10
58.7402996921
 20
89.5243584862
 30
0.0
 10
58.7404491332
 20
89.4988433969
 30
0.0
 10
58.7410765554
 20
89.4617964331
 30
0.0
 10
58.7420933125
 20
89.4276337404
 30
0.0
 10
58.7434444264
 20
89.3977064335
 30
0.0
 10
58.7450629303
 20
89.3731650259
 30
0.0
 10
58.7467043908
 20
89.3564599496
 30
0.0
 10
58.7481682594
 20
89.3465678977
 30
0.0
 10
58.749261174
 20
89.3416893001
 30
0.0
 10
58.7500848716
 20
89.33887126
 30
0.0
 10
58.7511397631
 20
89.3373381278
 30
0.0
 10
58.7516287041
 20
89.3373381295
 30
0.0
  0
SPLINE
  5
5BF
100
AcDbEntity
  8
_1
100
AcDbSpline
 62
7
  6
CONTINUOUS
 70
0
 71
3
 72
15
 73
11
 74
0
 42
0.0000001
 43
0.0000001
 44
0.0000000001
 40
0.0
 40
0.0
 40
0.0
 40
0.0
 40
0.1250997109
 40
0.2502088265
 40
0.3752608742
 40
0.5002753974
 40
0.6252465459
 40
0.7501755357
 40
0.8751045494
 40
1.0
 40
1.0
 40
1.0
 40
1.0
 10
61.9386965005
 20
86.3373381132
 30
0.0
 10
61.9386472083
 20
86.5465548805
 30
0.0
 10
61.8974783472
 20
86.9661697743
 30
0.0
 10
61.7139947401
 20
87.5703861855
 30
0.0
 10
61.416272859
 20
88.1273186543
 30
0.0
 10
61.0158889295
 20
88.6153527588
 30
0.0
 10
60.5279791401
 20
89.0155598697
 30
0.0
 10
59.9715455535
 20
89.3129748342
 30
0.0
 10
59.3681406256
 20
89.4961876491
 30
0.0
 10
58.9491708663
 20
89.5372904089
 30
0.0
 10
58.7402957034
 20
89.5373381295
 30
0.0
  0
SPLINE
  5
5C0
100
AcDbEntity
  8
_1
100
AcDbSpline
 62
7
  6
CONTINUOUS
 70
0
 71
3
 72
20
 73
16
 74
0
 42
0.0000001
 43
0.0000001
 44
0.0000000001
 40
0.0
 40
0.0
 40
0.0
 40
0.0
 40
0.0017611914
 40
0.0056051401
 40
0.0202253031
 40
0.0441318364
 40
0.0771937292
 40
0.1191876555
 40
0.1696423488
 40
0.2280227037
 40
0.2937918072
 40
0.4450709564
 40
0.6178038183
 40
0.8055597963
 40
1.0
 40
1.0
 40
1.0
 40
1.0
 10
8.6504812466
 20
61.5373381295
 30
0.0
 10
8.6507751984
 20
61.5373381295
 30
0.0
 10
8.6513839026
 20
61.538328863
 30
0.0
 10
8.6522120145
 20
61.5413594236
 30
0.0
 10
8.6533364399
 20
61.5485914263
 30
0.0
 10
8.6544598683
 20
61.5603516617
 30
0.0
 10
8.6556413101
 20
61.5768872029
 30
0.0
 10
8.656762622
 20
61.5977834954
 30
0.0
 10
8.6578438765
 20
61.6229427043
 30
0.0
 10
8.6588583876
 20
61.6520649722
 30
0.0
 10
8.6601724903
 20
61.6980179384
 30
0.0
 10
8.661523569
 20
61.7630606686
 30
0.0
 10
8.6626942105
 20
61.8484700868
 30
0.0
 10
8.6634095382
 20
61.9410882291
 30
0.0
 10
8.6635741992
 20
62.0048788533
 30
0.0
 10
8.6635742074
 20
62.0373319198
 30
0.0
  0
SPLINE
  5
5C1
100
AcDbEntity
  8
_1
100
AcDbSpline
 62
7
  6
CONTINUOUS
 70
0
 71
3
 72
17
 73
13
 74
0
 42
0.0000001
 43
0.0000001
 44
0.0000000001
 40
0.0
 40
0.0
 40
0.0
 40
0.0
 40
0.0073212821
 40
0.0226780124
 40
0.0469700217
 40
0.0802304092
 40
0.1727210004
 40
0.2965982647
 40
0.4473696798
 40
0.6194292344
 40
0.8064020047
 40
1.0
 40
1.0
 40
1.0
 40
1.0
 10
58.7516933783
 20
8.7373381295
 30
0.0
 10
58.7512025288
 20
8.7373381312
 30
0.0
 10
58.7501398215
 20
8.7358092242
 30
0.0
 10
58.7493092924
 20
8.7329865264
 30
0.0
 10
58.7482083569
 20
8.7281093554
 30
0.0
 10
58.7467321001
 20
8.7182163945
 30
0.0
 10
58.7450742558
 20
8.7015120974
 30
0.0
 10
58.7434401202
 20
8.6769701479
 30
0.0
 10
58.7420804407
 20
8.6470427433
 30
0.0
 10
58.7410615522
 20
8.6128798875
 30
0.0
 10
58.7404380349
 20
8.5758328598
 30
0.0
 10
58.7402952348
 20
8.5503177533
 30
0.0
 10
58.7402956998
 20
8.5373381295
 30
0.0
  0
SPLINE
  5
5C2
100
AcDbEntity
  8
_1
100
AcDbSpline
 62
7
  6
CONTINUOUS
 70
0
 71
3
 72
15
 73
11
 74
0
 42
0.0000001
 43
0.0000001
 44
0.0000000001
 40
0.0
 40
0.0
 40
0.0
 40
0.0
 40
0.1248957817
 40
0.2498256936
 40
0.3747551318
 40
0.4997266272
 40
0.6247410591
 40
0.749792732
 40
0.8749007512
 40
1.0
 40
1.0
 40
1.0
 40
1.0
 10
58.7402956998
 20
8.5373381295
 30
0.0
 10
58.9491714195
 20
8.5373856373
 30
0.0
 10
59.3681429146
 20
8.5784911457
 30
0.0
 10
59.971551236
 20
8.7617025322
 30
0.0
 10
60.5279856307
 20
9.0591224777
 30
0.0
 10
61.0158959075
 20
9.4593303955
 30
0.0
 10
61.4162796406
 20
9.9473648534
 30
0.0
 10
61.713996149
 20
10.5042969443
 30
0.0
 10
61.8974816157
 20
11.1085094303
 30
0.0
 10
61.9386469564
 20
11.5281221336
 30
0.0
 10
61.9386965005
 20
11.7373381311
 30
0.0
  0
SPLINE
  5
5C3
100
AcDbEntity
  8
_1
100
AcDbSpline
 62
7
  6
CONTINUOUS
 70
0
 71
3
 72
20
 73
16
 74
0
 42
0.0000001
 43
0.0000001
 44
0.0000000001
 40
0.0
 40
0.0
 40
0.0
 40
0.0
 40
0.0017611914
 40
0.0056051401
 40
0.0202253031
 40
0.0441318364
 40
0.0771937292
 40
0.1191876555
 40
0.1696423488
 40
0.2280227037
 40
0.2937918072
 40
0.4450709564
 40
0.6178038183
 40
0.8055597963
 40
1.0
 40
1.0
 40
1.0
 40
1.0
 10
28.4017149916
 20
90.7516648354
 30
0.0
 10
28.4017149916
 20
90.7513708835
 30
0.0
 10
28.4027057251
 20
90.7507621793
 30
0.0
 10
28.4057362857
 20
90.7499340675
 30
0.0
 10
28.4129682884
 20
90.7488096421
 30
0.0
 10
28.4247285238
 20
90.7476862137
 30
0.0
 10
28.4412640651
 20
90.7465047718
 30
0.0
 10
28.4621603576
 20
90.7453834599
 30
0.0
 10
28.4873195665
 20
90.7443022055
 30
0.0
 10
28.5164418343
 20
90.7432876944
 30
0.0
 10
28.5623948005
 20
90.7419735916
 30
0.0
 10
28.6274375307
 20
90.7406225129
 30
0.0
 10
28.712846949
 20
90.7394518714
 30
0.0
 10
28.8054650912
 20
90.7387365437
 30
0.0
 10
28.8692557155
 20
90.7385718827
 30
0.0
 10
28.9017087819
 20
90.7385718746
 30
0.0
  0
SPLINE
  5
5C4
100
AcDbEntity
  8
_1
100
AcDbSpline
 62
7
  6
CONTINUOUS
 70
0
 71
3
 72
17
 73
13
 74
0
 42
0.0000001
 43
0.0000001
 44
0.0000000001
 40
0.0
 40
0.0
 40
0.0
 40
0.0
 40
0.1936128051
 40
0.3805999065
 40
0.5526719218
 40
0.7034523797
 40
0.8273333837
 40
0.9198212339
 40
0.9530774188
 40
0.9773624158
 40
0.9927066384
 40
1.0
 40
1.0
 40
1.0
 40
1.0
 10
13.0631342786
 20
8.5373381295
 30
0.0
 10
13.0631302912
 20
8.5503177728
 30
0.0
 10
13.0629808501
 20
8.5758328621
 30
0.0
 10
13.0623534279
 20
8.6128798259
 30
0.0
 10
13.0613366708
 20
8.6470425185
 30
0.0
 10
13.0599855569
 20
8.6769698255
 30
0.0
 10
13.058367053
 20
8.7015112331
 30
0.0
 10
13.0567255925
 20
8.7182163094
 30
0.0
 10
13.0552617239
 20
8.7281083613
 30
0.0
 10
13.0541688093
 20
8.7329869589
 30
0.0
 10
13.0533451117
 20
8.735804999
 30
0.0
 10
13.0522902201
 20
8.7373381312
 30
0.0
 10
13.0518012792
 20
8.7373381295
 30
0.0
  0
SPLINE
  5
5C5
100
AcDbEntity
  8
_1
100
AcDbSpline
 62
7
  6
CONTINUOUS
 70
0
 71
3
 72
15
 73
11
 74
0
 42
0.0000001
 43
0.0000001
 44
0.0000000001
 40
0.0
 40
0.0
 40
0.0
 40
0.0
 40
0.1250997109
 40
0.2502088265
 40
0.3752608742
 40
0.5002753974
 40
0.6252465459
 40
0.7501755357
 40
0.8751045494
 40
1.0
 40
1.0
 40
1.0
 40
1.0
 10
9.8647334828
 20
11.7373381458
 30
0.0
 10
9.8647827753
 20
11.5281213785
 30
0.0
 10
9.905951636
 20
11.1085064847
 30
0.0
 10
10.0894352431
 20
10.5042900734
 30
0.0
 10
10.3871571243
 20
9.9473576047
 30
0.0
 10
10.7875410538
 20
9.4593235002
 30
0.0
 10
11.2754508431
 20
9.0591163893
 30
0.0
 10
11.8318844298
 20
8.7617014248
 30
0.0
 10
12.4352893577
 20
8.5784886099
 30
0.0
 10
12.854259117
 20
8.5373858501
 30
0.0
 10
13.0631342798
 20
8.5373381295
 30
0.0
  0
SPLINE
  5
5C6
100
AcDbEntity
  8
_1
100
AcDbSpline
 62
7
  6
CONTINUOUS
 70
0
 71
3
 72
20
 73
16
 74
0
 42
0.0000001
 43
0.0000001
 44
0.0000000001
 40
0.0
 40
0.0
 40
0.0
 40
0.0
 40
0.1944392441
 40
0.3821942549
 40
0.5549261599
 40
0.7062045135
 40
0.7719733564
 40
0.8303535338
 40
0.8808080518
 40
0.9228016838
 40
0.955863036
 40
0.9797689511
 40
0.9943890903
 40
0.99823417
 40
1.0
 40
1.0
 40
1.0
 40
1.0
 10
42.9017212014
 20
90.7385718746
 30
0.0
 10
42.9341742669
 20
90.7385718827
 30
0.0
 10
42.9979648823
 20
90.7387366356
 30
0.0
 10
43.0905829976
 20
90.7394519775
 30
0.0
 10
43.1759923845
 20
90.7406220734
 30
0.0
 10
43.2410351095
 20
90.741973162
 30
0.0
 10
43.2869880521
 20
90.743288385
 30
0.0
 10
43.316110364
 20
90.7443036444
 30
0.0
 10
43.3412694896
 20
90.7453850337
 30
0.0
 10
43.3621660237
 20
90.7465052623
 30
0.0
 10
43.3787009041
 20
90.7476840716
 30
0.0
 10
43.3904628449
 20
90.7488042898
 30
0.0
 10
43.3976923766
 20
90.749928736
 30
0.0
 10
43.4007263427
 20
90.7507578321
 30
0.0
 10
43.4017149908
 20
90.7513701078
 30
0.0
 10
43.4017149916
 20
90.7516648354
 30
0.0
  0
SPLINE
  5
5C7
100
AcDbEntity
  8
_1
100
AcDbSpline
 62
7
  6
CONTINUOUS
 70
0
 71
3
 72
20
 73
16
 74
0
 42
0.0000001
 43
0.0000001
 44
0.0000000001
 40
0.0
 40
0.0
 40
0.0
 40
0.0
 40
0.1944402324
 40
0.3821962585
 40
0.5549291041
 40
0.7062081938
 40
0.7719772796
 40
0.830357626
 40
0.8808123148
 40
0.9228062359
 40
0.9558681303
 40
0.9797746763
 40
0.9943948537
 40
0.9982388072
 40
1.0
 40
1.0
 40
1.0
 40
1.0
 10
63.1398557759
 20
62.0373319198
 30
0.0
 10
63.139855784
 20
62.0048788486
 30
0.0
 10
63.1400204455
 20
61.9410882116
 30
0.0
 10
63.1407357732
 20
61.8484700593
 30
0.0
 10
63.1419064143
 20
61.7630606457
 30
0.0
 10
63.1432574933
 20
61.6980179312
 30
0.0
 10
63.1445715954
 20
61.6520649794
 30
0.0
 10
63.1455861061
 20
61.6229427167
 30
0.0
 10
63.1466673602
 20
61.5977835108
 30
0.0
 10
63.1477886722
 20
61.5768872197
 30
0.0
 10
63.1489701145
 20
61.5603516768
 30
0.0
 10
63.1500935433
 20
61.5485914371
 30
0.0
 10
63.1512179688
 20
61.5413594281
 30
0.0
 10
63.1520460807
 20
61.538328865
 30
0.0
 10
63.1526547846
 20
61.5373381295
 30
0.0
 10
63.1529487367
 20
61.5373381295
 30
0.0
  0
SPLINE
  5
5C8
100
AcDbEntity
  8
_1
100
AcDbSpline
 62
7
  6
CONTINUOUS
 70
0
 71
3
 72
17
 73
13
 74
0
 42
0.0000001
 43
0.0000001
 44
0.0000000001
 40
0.0
 40
0.0
 40
0.0
 40
0.0
 40
0.1795823553
 40
0.3631460236
 40
0.5388680974
 40
0.6949372886
 40
0.8213110548
 40
0.9149340621
 40
0.949077836
 40
0.9745993735
 40
0.9914516871
 40
1.0
 40
1.0
 40
1.0
 40
1.0
 10
13.4129698665
 20
7.6641320642
 30
0.0
 10
13.4129521968
 20
7.6521111586
 30
0.0
 10
13.4127709221
 20
7.6278030451
 30
0.0
 10
13.4121306113
 20
7.5917366976
 30
0.0
 10
13.4111268594
 20
7.5572553402
 30
0.0
 10
13.4098002133
 20
7.5266081522
 30
0.0
 10
13.4081174405
 20
7.5015028217
 30
0.0
 10
13.4064459489
 20
7.4845377737
 30
0.0
 10
13.4049470172
 20
7.4744244922
 30
0.0
 10
13.4039594374
 20
7.469324689
 30
0.0
 10
13.4030200729
 20
7.4661857194
 30
0.0
 10
13.4022501375
 20
7.4644513494
 30
0.0
 10
13.4017338615
 20
7.4642046069
 30
0.0
  0
ENDSEC
  0
SECTION
  2
OBJECTS
  0
DICTIONARY
  5
C
100
AcDbDictionary
280
0
281
1
  3
ACAD_GROUP
350
D
  3
ACAD_MLINESTYLE
350
17
  3
ACAD_LAYOUT
350
1A
  3
ACAD_PLOTSETTINGS
350
19
  3
ACAD_PLOTSTYLENAME
350
E
  0
DICTIONARY
  5
D
102
{ACAD_REACTORS
330
C
102
}
100
AcDbDictionary
280
0
281
1
  0
ACDBDICTIONARYWDFLT
  5
E
102
{ACAD_REACTORS
330
C
102
}
100
AcDbDictionary
281
1
  3
Normal
350
F
100
AcDbDictionaryWithDefault
340
F
  0
DICTIONARY
  5
17
102
{ACAD_REACTORS
330
C
102
}
100
AcDbDictionary
280
0
281
1
  3
Standard
350
18
  0
DICTIONARY
  5
19
102
{ACAD_REACTORS
330
C
102
}
100
AcDbDictionary
281
1
  0
DICTIONARY
  5
1A
102
{ACAD_REACTORS
330
C
102
}
100
AcDbDictionary
281
1
  3
Model
350
5C9
  3
Layout1
350
5CA
  0
ACDBPLACEHOLDER
  5
F
102
{ACAD_REACTORS
330
E
102
}
  0
MLINESTYLE
  5
18
102
{ACAD_REACTORS
330
17
102
}
100
AcDbMlineStyle
  2
STANDARD
 70
0
  3

 62
256
 51
90.0
 52
90.0
 71
2
 49
0.5
 62
256
  6
BYLAYER
 49
-0.5
 62
256
  6
BYLAYER
  0
LAYOUT
  5
5C9
102
{ACAD_REACTORS
330
1A
102
}
100
AcDbPlotSettings
  1

  2
none_device
  4

  6

 40
0.0
 41
0.0
 42
0.0
 43
0.0
 44
210.0
 45
297.0
 46
0.0
 47
0.0
 48
0.0
 49
0.0
140
0.0
141
0.0
142
1.0
143
1.0
 70
1024
 72
1
 73
0
 74
0
  7

 75
0
147
1.0
148
0.0
149
0.0
100
AcDbLayout
  1
Model
 70
0
 71
0
 10
0.0
 20
0.0
 11
210.0
 21
297.0
 12
0.0
 22
0.0
 32
0.0
 14
0.0
 24
0.0
 34
0.0
 15
0.0
 25
0.0
 35
0.0
146
0.0
 13
0.0
 23
0.0
 33
0.0
 16
1.0
 26
0.0
 36
0.0
 17
0.0
 27
1.0
 37
0.0
 76
0
330
211
345
0
346
0
  0
LAYOUT
  5
5CA
102
{ACAD_REACTORS
330
1A
102
}
100
AcDbPlotSettings
  1

  2
none_device
  4

  6

 40
0.0
 41
0.0
 42
0.0
 43
0.0
 44
210.0
 45
297.0
 46
0.0
 47
0.0
 48
0.0
 49
0.0
140
0.0
141
0.0
142
1.0
143
1.0
 70
0
 72
1
 73
0
 74
0
  7

 75
0
147
1.0
148
0.0
149
0.0
100
AcDbLayout
  1
Layout1
 70
0
 71
1
 10
0.0
 20
0.0
 11
210.0
 21
297.0
 12
0.0
 22
0.0
 32
0.0
 14
0.0
 24
0.0
 34
0.0
 15
0.0
 25
0.0
 35
0.0
146
0.0
 13
0.0
 23
0.0
 33
0.0
 16
1.0
 26
0.0
 36
0.0
 17
0.0
 27
1.0
 37
0.0
 76
0
330
212
345
0
346
0
  0
ENDSEC
  0
EOF
