999
DXF file: C:\Users\sesa63760\Dev\_Creo\CAD\MCADID0005853_3D-CAD\mcadid0005853_3d-simplified_6.dxf
999
Pro/ENGINEER 2019471 by Parametric Technology Corporation
  0
SECTION
  2
HEADER
  9
$ACADVER
  1
AC1024
  9
$DWGCODEPAGE
  3
ANSI_1252
  9
$EXTMAX
 10
80.9000287337
 20
114.4157549234
 30
0.0
  9
$EXTMIN
 10
0.0
 20
0.0
 30
0.0
  9
$LIMMIN
 10
0.0
 20
0.0
  9
$LIMMAX
 10
80.9000287337
 20
114.4157549234
  9
$VIEWCTR
 10
40.4500143669
 20
57.2078774617
  9
$VIEWSIZE
 40
114.4157549234
  9
$CLAYER
  8
0
  9
$LTSCALE
 40
7.4582121728
  9
$CELTYPE
  6
BYLAYER
  9
$DIMSCALE
 40
1.0
  9
$DIMASZ
 40
0.9630955802
  9
$DIMEXO
 40
1.0
  9
$DIMDLI
 40
5.1529465921
  9
$DIMEXE
 40
1.0
  9
$DIMCEN
 40
1.2204347192
  9
$DIMLFAC
 40
1.0
  9
$DIMBLK
  1
_FILLED
  9
$DIMALT
 70
0
  9
$DIMALTF
 40
0.0393700787
  9
$DIMTXT
 40
1.3483338122
  9
$DIMTOL
 70
1
  9
$DIMLIM
 70
0
  9
$DIMTFAC
 40
1.0
  9
$DIMTP
 40
0.01
  9
$DIMTM
 40
0.01
  9
$DIMGAP
 40
0.625
  9
$DIMDSEP
 70
46
  9
$AUNITS
 70
0
  9
$PDMODE
 70
3
  9
$PDSIZE
 40
0.3125
  9
$HANDSEED
  5
282
  9
$TILEMODE
 70
1
  9
$MEASUREMENT
 70
1
  9
$INSUNITS
 70
4
  0
ENDSEC
  0
SECTION
  2
CLASSES
  0
CLASS
  1
ACDBDICTIONARYWDFLT
  2
AcDbDictionaryWithDefault
  3
AutoCAD 2000
 90
0
 91
1
280
0
281
0
  0
CLASS
  1
ACDBPLACEHOLDER
  2
AcDbPlaceHolder
  3
AutoCAD 2000
 90
0
 91
1
280
0
281
0
  0
CLASS
  1
LAYOUT
  2
AcDbLayout
  3
AutoCAD 2000
 90
0
 91
0
280
0
281
0
  0
ENDSEC
  0
SECTION
  2
TABLES
  0
TABLE
  2
VPORT
  5
8
100
AcDbSymbolTable
 70
2
  0
VPORT
  5
1F4
100
AcDbSymbolTableRecord
100
AcDbViewportTableRecord
  2
*ACTIVE
 70
0
 10
0.0
 20
0.0
 11
1.0
 21
1.0
 12
40.4500143669
 22
57.2078774617
 13
0.0
 23
0.0
 14
1.0
 24
1.0
 15
0.0
 25
0.0
 16
0.0
 26
0.0
 36
1.0
 17
0.0
 27
0.0
 37
0.0
 40
114.4157549234
 41
0.7070707071
 42
50.0
 43
0.0
 44
0.0
 50
0.0
 51
0.0
 71
0
 72
100
 73
1
 74
1
 75
0
 76
0
 77
0
 78
0
  0
ENDTAB
  0
TABLE
  2
LTYPE
  5
5
100
AcDbSymbolTable
 70
6
  0
LTYPE
  5
14
100
AcDbSymbolTableRecord
100
AcDbLinetypeTableRecord
  2
BYBLOCK
 70
0
  3

 72
65
 73
0
 40
0.0
  0
LTYPE
  5
15
100
AcDbSymbolTableRecord
100
AcDbLinetypeTableRecord
  2
BYLAYER
 70
0
  3

 72
65
 73
0
 40
0.0
  0
LTYPE
  5
16
100
AcDbSymbolTableRecord
100
AcDbLinetypeTableRecord
  2
CONTINUOUS
 70
64
  3
Solid line
 72
65
 73
0
 40
0.0
  0
LTYPE
  5
1F5
100
AcDbSymbolTableRecord
100
AcDbLinetypeTableRecord
  2
CENTER
 70
64
  3
____ _ ____ _ ____ _ ____ _ ____ _ ____ _ ____
 72
65
 73
4
 40
0.6
 49
0.375
 74
0
 49
-0.075
 74
0
 49
0.075
 74
0
 49
-0.075
 74
0
  0
LTYPE
  5
1F6
100
AcDbSymbolTableRecord
100
AcDbLinetypeTableRecord
  2
HIDDEN
 70
64
  3
- - - - - - - - - - - - - - - - - - - -
 72
65
 73
2
 40
0.2
 49
0.1
 74
0
 49
-0.1
 74
0
  0
LTYPE
  5
1F7
100
AcDbSymbolTableRecord
100
AcDbLinetypeTableRecord
  2
PHANTOM
 70
64
  3
_____ _ _ _____ _ _ _____ _ _ _____
 72
65
 73
6
 40
0.8
 49
0.45
 74
0
 49
-0.05
 74
0
 49
0.1
 74
0
 49
-0.05
 74
0
 49
0.1
 74
0
 49
-0.05
 74
0
  0
LTYPE
  5
1F8
100
AcDbSymbolTableRecord
100
AcDbLinetypeTableRecord
  2
DOT
 70
64
  3
. . . . . . . . . . . . . . . . . . . .
 72
65
 73
2
 40
0.2
 49
0.1
 74
0
 49
-0.1
 74
0
  0
LTYPE
  5
1F9
100
AcDbSymbolTableRecord
100
AcDbLinetypeTableRecord
  2
DASHED
 70
64
  3
- - - - - - - - - - - - - - - - - - - -
 72
65
 73
2
 40
0.2
 49
0.1
 74
0
 49
-0.1
 74
0
  0
ENDTAB
  0
TABLE
  2
LAYER
  5
2
100
AcDbSymbolTable
 70
36
  0
LAYER
  5
10
100
AcDbSymbolTableRecord
100
AcDbLayerTableRecord
  2
0
 70
0
 62
7
  6
CONTINUOUS
370
-3
390
F
  0
LAYER
  5
1FA
100
AcDbSymbolTableRecord
100
AcDbLayerTableRecord
  2
DEFAULT_1
 70
0
 62
7
  6
CENTER
370
-3
390
F
  0
LAYER
  5
1FB
100
AcDbSymbolTableRecord
100
AcDbLayerTableRecord
  2
DEFAULT_2
 70
0
 62
7
  6
HIDDEN
370
-3
390
F
  0
LAYER
  5
1FC
100
AcDbSymbolTableRecord
100
AcDbLayerTableRecord
  2
DEFAULT_3
 70
0
 62
7
  6
PHANTOM
370
-3
390
F
  0
LAYER
  5
1FD
100
AcDbSymbolTableRecord
100
AcDbLayerTableRecord
  2
00_COMPONENTS
 70
0
 62
7
  6
CONTINUOUS
370
-3
390
F
  0
LAYER
  5
1FE
100
AcDbSymbolTableRecord
100
AcDbLayerTableRecord
  2
01_1_DEFAULT_DATUMS
 70
0
 62
7
  6
CONTINUOUS
370
-3
390
F
  0
LAYER
  5
1FF
100
AcDbSymbolTableRecord
100
AcDbLayerTableRecord
  2
01_PLANES
 70
0
 62
7
  6
CONTINUOUS
370
-3
390
F
  0
LAYER
  5
200
100
AcDbSymbolTableRecord
100
AcDbLayerTableRecord
  2
02_COORD_SYS
 70
0
 62
7
  6
CONTINUOUS
370
-3
390
F
  0
LAYER
  5
201
100
AcDbSymbolTableRecord
100
AcDbLayerTableRecord
  2
03_AXES
 70
0
 62
7
  6
CONTINUOUS
370
-3
390
F
  0
LAYER
  5
202
100
AcDbSymbolTableRecord
100
AcDbLayerTableRecord
  2
04_POINTS
 70
0
 62
7
  6
CONTINUOUS
370
-3
390
F
  0
LAYER
  5
203
100
AcDbSymbolTableRecord
100
AcDbLayerTableRecord
  2
05_CURVES
 70
0
 62
7
  6
CONTINUOUS
370
-3
390
F
  0
LAYER
  5
204
100
AcDbSymbolTableRecord
100
AcDbLayerTableRecord
  2
06_SURFS
 70
0
 62
7
  6
CONTINUOUS
370
-3
390
F
  0
LAYER
  5
205
100
AcDbSymbolTableRecord
100
AcDbLayerTableRecord
  2
07_COSMETICS
 70
0
 62
7
  6
CONTINUOUS
370
-3
390
F
  0
LAYER
  5
206
100
AcDbSymbolTableRecord
100
AcDbLayerTableRecord
  2
10_NOTES
 70
0
 62
7
  6
CONTINUOUS
370
-3
390
F
  0
LAYER
  5
207
100
AcDbSymbolTableRecord
100
AcDbLayerTableRecord
  2
11_NOTES_PUB
 70
0
 62
7
  6
CONTINUOUS
370
-3
390
F
  0
LAYER
  5
208
100
AcDbSymbolTableRecord
100
AcDbLayerTableRecord
  2
13_REF_GTOL
 70
0
 62
7
  6
CONTINUOUS
370
-3
390
F
  0
LAYER
  5
209
100
AcDbSymbolTableRecord
100
AcDbLayerTableRecord
  2
16_MISC
 70
0
 62
7
  6
CONTINUOUS
370
-3
390
F
  0
LAYER
  5
20A
100
AcDbSymbolTableRecord
100
AcDbLayerTableRecord
  2
17_NO_PRINT
 70
0
 62
7
  6
CONTINUOUS
370
-3
390
F
  0
LAYER
  5
20B
100
AcDbSymbolTableRecord
100
AcDbLayerTableRecord
  2
18_DATUM_CAMS_JOINTS
 70
0
 62
7
  6
CONTINUOUS
370
-3
390
F
  0
LAYER
  5
20C
100
AcDbSymbolTableRecord
100
AcDbLayerTableRecord
  2
19_DATUM_FUNCTIONAL
 70
0
 62
7
  6
CONTINUOUS
370
-3
390
F
  0
LAYER
  5
20D
100
AcDbSymbolTableRecord
100
AcDbLayerTableRecord
  2
20_DATUM_KINEMATIC_SCHEME
 70
0
 62
7
  6
CONTINUOUS
370
-3
390
F
  0
ENDTAB
  0
TABLE
  2
STYLE
  5
3
100
AcDbSymbolTable
 70
1
  0
STYLE
  5
11
100
AcDbSymbolTableRecord
100
AcDbTextStyleTableRecord
  2
STANDARD
 70
0
 40
0.0
 41
1.0
 50
0.0
 71
0
 42
0.2
  3
ARIAL.TTF
  4

  0
STYLE
  5
20E
100
AcDbSymbolTableRecord
100
AcDbTextStyleTableRecord
  2
TEXTSTYLE_1
 70
0
 40
0.0
 41
0.8
 50
0.0
 71
0
 42
0.2
  3
gdt
  4

  0
ENDTAB
  0
TABLE
  2
VIEW
  5
6
100
AcDbSymbolTable
 70
0
  0
ENDTAB
  0
TABLE
  2
UCS
  5
7
100
AcDbSymbolTable
 70
0
  0
ENDTAB
  0
TABLE
  2
APPID
  5
9
100
AcDbSymbolTable
 70
1
  0
APPID
  5
20F
100
AcDbSymbolTableRecord
100
AcDbRegAppTableRecord
  2
ACAD
 70
0
  0
ENDTAB
  0
TABLE
  2
BLOCK_RECORD
  5
1
100
AcDbSymbolTable
 70
0
  0
BLOCK_RECORD
  5
210
100
AcDbSymbolTableRecord
100
AcDbBlockTableRecord
  2
*Model_Space
  0
BLOCK_RECORD
  5
211
100
AcDbSymbolTableRecord
100
AcDbBlockTableRecord
  2
*Paper_Space
  0
BLOCK_RECORD
  5
212
100
AcDbSymbolTableRecord
100
AcDbBlockTableRecord
  2
_FILLED
  0
ENDTAB
  0
TABLE
  2
DIMSTYLE
  5
A
100
AcDbSymbolTable
 70
1
100
AcDbDimStyleTable
 71
0
  0
DIMSTYLE
105
213
100
AcDbSymbolTableRecord
100
AcDbDimStyleTableRecord
  2
STANDARD
 70
0
  3

  4

 40
1.0
 41
0.9630955802
 42
1.0
 43
0.38
 44
1.0
 45
0.0
 46
0.0
 47
0.01
 48
0.01
140
1.3483338122
141
0.09
142
0.0
143
25.4
144
1.0
145
0.0
146
1.0
147
0.625
 71
1
 72
0
 73
0
 74
0
 75
0
 76
0
 77
1
 78
8
 79
2
170
0
171
1
172
0
173
0
174
0
175
0
176
0
177
0
178
0
270
2
179
2
271
2
272
2
273
2
274
2
275
0
280
0
281
0
282
0
283
1
284
8
285
0
286
0
287
3
288
0
340
11
278
46
341
212
342
212
343
212
344
212
  0
ENDTAB
  0
ENDSEC
  0
SECTION
  2
BLOCKS
  0
BLOCK
  5
20
100
AcDbEntity
  8
0
100
AcDbBlockBegin
  2
*Model_Space
 70
0
 10
0.0
 20
0.0
 30
0.0
  3
*Model_Space
  1

  0
ENDBLK
  5
21
100
AcDbEntity
  8
0
100
AcDbBlockEnd
  0
BLOCK
  5
1C
100
AcDbEntity
  8
0
100
AcDbBlockBegin
  2
*Paper_Space
 70
0
 10
0.0
 20
0.0
 30
0.0
  3
*Paper_Space
  1

  0
ENDBLK
  5
1D
100
AcDbEntity
  8
0
100
AcDbBlockEnd
  0
BLOCK
  5
214
100
AcDbEntity
  8
0
100
AcDbBlockBegin
  2
_FILLED
 70
64
 10
0.0
 20
0.0
  3
_FILLED
  1

  0
SOLID
  5
215
100
AcDbEntity
  8
0
  6
BYBLOCK
 62
0
100
AcDbTrace
 10
0.0
 20
0.0
 11
-1.0
 21
0.25
 12
-1.0
 22
-0.25
 13
-1.0
 23
-0.25
  0
ENDBLK
  5
216
100
AcDbEntity
  8
0
  6
BYBLOCK
 62
0
100
AcDbBlockEnd
  0
ENDSEC
  0
SECTION
  2
ENTITIES
  0
LINE
  5
217
100
AcDbEntity
  8
0
100
AcDbLine
 62
7
  6
BYLAYER
 10
9.1502331852
 20
54.4402441351
 11
9.1502331852
 21
56.4399768823
  0
LINE
  5
218
100
AcDbEntity
  8
0
100
AcDbLine
 62
7
  6
BYLAYER
 10
19.1502331852
 20
54.2348679073
 11
19.1502331852
 21
56.6453491247
  0
LINE
  5
219
100
AcDbEntity
  8
0
100
AcDbLine
 62
7
  6
BYLAYER
 10
19.339765994
 20
54.0349930737
 11
19.339765994
 21
56.8452279438
  0
LINE
  5
21A
100
AcDbEntity
  8
0
100
AcDbLine
 62
7
  6
BYLAYER
 10
21.1502331852
 20
52.4081449869
 11
21.1502331852
 21
62.0077567532
  0
LINE
  5
21B
100
AcDbEntity
  8
0
100
AcDbLine
 62
7
  6
BYLAYER
 10
21.3502331852
 20
52.2078774617
 11
21.3502331852
 21
62.2078774617
  0
LINE
  5
21C
100
AcDbEntity
  8
0
100
AcDbLine
 62
7
  6
BYLAYER
 10
23.3502331852
 20
62.2077517827
 11
23.3502331852
 21
52.2081695911
  0
LINE
  5
21D
100
AcDbEntity
  8
0
100
AcDbLine
 62
7
  6
BYLAYER
 10
23.4502331852
 20
52.2081473615
 11
23.4502331852
 21
62.2076075619
  0
LINE
  5
21E
100
AcDbEntity
  8
0
100
AcDbLine
 62
7
  6
BYLAYER
 10
31.1502331852
 20
62.2078774617
 11
31.1502331852
 21
52.2078774617
  0
LINE
  5
21F
100
AcDbEntity
  8
0
100
AcDbLine
 62
7
  6
BYLAYER
 10
32.1502331852
 20
51.2078774617
 11
32.1502331852
 21
63.2078774617
  0
LINE
  5
220
100
AcDbEntity
  8
0
100
AcDbLine
 62
7
  6
BYLAYER
 10
31.1502331852
 20
62.2078774617
 11
32.1502331852
 21
63.2078774617
  0
LINE
  5
221
100
AcDbEntity
  8
0
100
AcDbLine
 62
7
  6
BYLAYER
 10
61.4756306583
 20
47.5429228855
 11
58.8248357122
 21
47.5429228855
  0
LINE
  5
222
100
AcDbEntity
  8
0
100
AcDbLine
 62
7
  6
BYLAYER
 10
66.8248357516
 20
47.5429228855
 11
69.4756306189
 21
47.5429228855
  0
LINE
  5
223
100
AcDbEntity
  8
0
100
AcDbLine
 62
7
  6
BYLAYER
 10
31.1502331852
 20
52.2078774617
 11
32.1502331852
 21
51.2078774617
  0
LINE
  5
224
100
AcDbEntity
  8
0
100
AcDbLine
 62
7
  6
BYLAYER
 10
72.5502331852
 20
51.2078774617
 11
70.1502331852
 21
51.2078774617
  0
LINE
  5
225
100
AcDbEntity
  8
0
100
AcDbLine
 62
7
  6
BYLAYER
 10
66.1502331852
 20
51.2078774617
 11
62.1502331852
 21
51.2078774617
  0
LINE
  5
226
100
AcDbEntity
  8
0
100
AcDbLine
 62
7
  6
BYLAYER
 10
58.1502331852
 20
51.2078774617
 11
32.1502331852
 21
51.2078774617
  0
LINE
  5
227
100
AcDbEntity
  8
0
100
AcDbLine
 62
7
  6
BYLAYER
 10
72.7502331852
 20
52.0078774617
 11
73.0825205453
 21
52.0078774617
  0
LINE
  5
228
100
AcDbEntity
  8
0
100
AcDbLine
 62
7
  6
BYLAYER
 10
61.4756306195
 20
52.1504001736
 11
58.824835751
 21
52.1504001736
  0
LINE
  5
229
100
AcDbEntity
  8
0
100
AcDbLine
 62
7
  6
BYLAYER
 10
66.8248357111
 20
52.1504001736
 11
69.4756306594
 21
52.1504001736
  0
LINE
  5
22A
100
AcDbEntity
  8
0
100
AcDbLine
 62
7
  6
BYLAYER
 10
31.1502331852
 20
52.2078774617
 11
23.4502331852
 21
52.2078774617
  0
LINE
  5
22B
100
AcDbEntity
  8
0
100
AcDbLine
 62
7
  6
BYLAYER
 10
23.3502331852
 20
52.2078774617
 11
21.3502331852
 21
52.2078774617
  0
LINE
  5
22C
100
AcDbEntity
  8
0
100
AcDbLine
 62
7
  6
BYLAYER
 10
23.4502331852
 20
52.2578774617
 11
23.3502331852
 21
52.2578774617
  0
LINE
  5
22D
100
AcDbEntity
  8
0
100
AcDbLine
 62
7
  6
BYLAYER
 10
61.5297255539
 20
52.8004001736
 11
58.7707408166
 21
52.8004001736
  0
LINE
  5
22E
100
AcDbEntity
  8
0
100
AcDbLine
 62
7
  6
BYLAYER
 10
66.7707408925
 20
52.8004001736
 11
69.5297254757
 21
52.8004001736
  0
LINE
  5
22F
100
AcDbEntity
  8
0
100
AcDbLine
 62
7
  6
BYLAYER
 10
19.339765994
 20
54.0349930737
 11
21.1502331852
 21
53.9401105087
  0
LINE
  5
230
100
AcDbEntity
  8
0
100
AcDbLine
 62
7
  6
BYLAYER
 10
9.1502331852
 20
54.4401105087
 11
19.1502331852
 21
54.4401105087
  0
LINE
  5
231
100
AcDbEntity
  8
0
100
AcDbLine
 62
7
  6
BYLAYER
 10
9.1502331852
 20
56.4401105087
 11
19.1502331852
 21
56.4401105087
  0
LINE
  5
232
100
AcDbEntity
  8
0
100
AcDbLine
 62
7
  6
BYLAYER
 10
19.339765994
 20
56.8452279438
 11
21.1502331852
 21
56.9401105087
  0
LINE
  5
233
100
AcDbEntity
  8
0
100
AcDbLine
 62
7
  6
BYLAYER
 10
61.529725478
 20
61.6153547498
 11
58.7707408948
 21
61.6153547498
  0
LINE
  5
234
100
AcDbEntity
  8
0
100
AcDbLine
 62
7
  6
BYLAYER
 10
66.7707408166
 20
61.6153547498
 11
69.5297255539
 21
61.6153547498
  0
LINE
  5
235
100
AcDbEntity
  8
0
100
AcDbLine
 62
7
  6
BYLAYER
 10
23.4502331852
 20
62.1578774617
 11
23.3502331852
 21
62.1578774617
  0
LINE
  5
236
100
AcDbEntity
  8
0
100
AcDbLine
 62
7
  6
BYLAYER
 10
31.1502331852
 20
62.2078774617
 11
23.4502331852
 21
62.2078774617
  0
LINE
  5
237
100
AcDbEntity
  8
0
100
AcDbLine
 62
7
  6
BYLAYER
 10
23.3502331852
 20
62.2078774617
 11
21.3502331852
 21
62.2078774617
  0
LINE
  5
238
100
AcDbEntity
  8
0
100
AcDbLine
 62
7
  6
BYLAYER
 10
61.4756306583
 20
62.2653547498
 11
58.8248357122
 21
62.2653547498
  0
LINE
  5
239
100
AcDbEntity
  8
0
100
AcDbLine
 62
7
  6
BYLAYER
 10
66.8248357516
 20
62.2653547498
 11
69.4756306189
 21
62.2653547498
  0
LINE
  5
23A
100
AcDbEntity
  8
0
100
AcDbLine
 62
7
  6
BYLAYER
 10
72.7502331852
 20
62.4078774617
 11
73.0825205453
 21
62.4078774617
  0
LINE
  5
23B
100
AcDbEntity
  8
0
100
AcDbLine
 62
7
  6
BYLAYER
 10
72.5502331852
 20
63.2078774617
 11
70.1502331852
 21
63.2078774617
  0
LINE
  5
23C
100
AcDbEntity
  8
0
100
AcDbLine
 62
7
  6
BYLAYER
 10
66.1502331852
 20
63.2078774617
 11
62.1502331852
 21
63.2078774617
  0
LINE
  5
23D
100
AcDbEntity
  8
0
100
AcDbLine
 62
7
  6
BYLAYER
 10
58.1502331852
 20
63.2078774617
 11
32.1502331852
 21
63.2078774617
  0
LINE
  5
23E
100
AcDbEntity
  8
0
100
AcDbLine
 62
7
  6
BYLAYER
 10
58.1502331852
 20
65.7078774617
 11
58.8011693883
 21
66.8353320379
  0
LINE
  5
23F
100
AcDbEntity
  8
0
100
AcDbLine
 62
7
  6
BYLAYER
 10
61.4756306195
 20
66.8728320379
 11
58.824835751
 21
66.8728320379
  0
LINE
  5
240
100
AcDbEntity
  8
0
100
AcDbLine
 62
7
  6
BYLAYER
 10
66.8248357111
 20
66.8728320379
 11
69.4756306594
 21
66.8728320379
  0
LINE
  5
241
100
AcDbEntity
  8
0
100
AcDbLine
 62
7
  6
BYLAYER
 10
58.1502331852
 20
48.7078774617
 11
58.8011693883
 21
47.5804228855
  0
LINE
  5
242
100
AcDbEntity
  8
0
100
AcDbLine
 62
7
  6
BYLAYER
 10
58.1502331852
 20
48.7078803293
 11
58.1502331852
 21
65.7078745942
  0
LINE
  5
243
100
AcDbEntity
  8
0
100
AcDbLine
 62
7
  6
BYLAYER
 10
66.1502331852
 20
65.7078774617
 11
66.8011693883
 21
66.8353320379
  0
LINE
  5
244
100
AcDbEntity
  8
0
100
AcDbLine
 62
7
  6
BYLAYER
 10
66.1502331852
 20
48.7078774617
 11
66.8011693883
 21
47.5804228855
  0
LINE
  5
245
100
AcDbEntity
  8
0
100
AcDbLine
 62
7
  6
BYLAYER
 10
62.1502331852
 20
65.7078745942
 11
62.1502331852
 21
48.7078803293
  0
LINE
  5
246
100
AcDbEntity
  8
0
100
AcDbLine
 62
7
  6
BYLAYER
 10
62.1502331852
 20
48.7078774617
 11
61.4992969822
 21
47.5804228855
  0
LINE
  5
247
100
AcDbEntity
  8
0
100
AcDbLine
 62
7
  6
BYLAYER
 10
62.1502331852
 20
65.7078774617
 11
61.4992969822
 21
66.8353320379
  0
LINE
  5
248
100
AcDbEntity
  8
0
100
AcDbLine
 62
7
  6
BYLAYER
 10
66.1502331852
 20
48.7078803293
 11
66.1502331852
 21
65.7078745942
  0
LINE
  5
249
100
AcDbEntity
  8
0
100
AcDbLine
 62
7
  6
BYLAYER
 10
72.7502331852
 20
51.4078774617
 11
72.5502331852
 21
51.2078774617
  0
LINE
  5
24A
100
AcDbEntity
  8
0
100
AcDbLine
 62
7
  6
BYLAYER
 10
72.7502331852
 20
63.0078774617
 11
72.5502331852
 21
63.2078774617
  0
LINE
  5
24B
100
AcDbEntity
  8
0
100
AcDbLine
 62
7
  6
BYLAYER
 10
70.1502331852
 20
65.7078745942
 11
70.1502331852
 21
48.7078803293
  0
LINE
  5
24C
100
AcDbEntity
  8
0
100
AcDbLine
 62
7
  6
BYLAYER
 10
72.5502331852
 20
63.2078774617
 11
72.5502331852
 21
51.2078774617
  0
LINE
  5
24D
100
AcDbEntity
  8
0
100
AcDbLine
 62
7
  6
BYLAYER
 10
72.7502331852
 20
63.0078440619
 11
72.7502331852
 21
51.408128351
  0
LINE
  5
24E
100
AcDbEntity
  8
0
100
AcDbLine
 62
7
  6
BYLAYER
 10
72.9502331852
 20
62.4078774617
 11
72.9502331852
 21
52.0078774617
  0
LINE
  5
24F
100
AcDbEntity
  8
0
100
AcDbLine
 62
7
  6
BYLAYER
 10
73.1502331852
 20
62.2578826544
 11
73.1502331852
 21
52.1578776368
  0
LINE
  5
250
100
AcDbEntity
  8
0
100
AcDbLine
 62
7
  6
BYLAYER
 10
70.1502331852
 20
48.7078774617
 11
69.4992969822
 21
47.5804228855
  0
LINE
  5
251
100
AcDbEntity
  8
0
100
AcDbLine
 62
7
  6
BYLAYER
 10
70.1502331852
 20
65.7078774617
 11
69.4992969822
 21
66.8353320379
  0
ARC
  5
252
100
AcDbEntity
  8
0
100
AcDbCircle
 62
7
  6
BYLAYER
 10
81.5317790843
 20
60.7141490652
 40
14.7885233349
100
AcDbArc
 50
173.9790249866
 51
176.5062573468
  0
ARC
  5
253
100
AcDbEntity
  8
0
100
AcDbCircle
 62
7
  6
BYLAYER
 10
73.5317790844
 20
60.714149065
 40
14.7885233349
100
AcDbArc
 50
173.9790249857
 51
176.5062573459
  0
ARC
  5
254
100
AcDbEntity
  8
0
100
AcDbCircle
 62
7
  6
BYLAYER
 10
46.7686872982
 20
60.714149066
 40
14.7885233228
100
AcDbArc
 50
3.4937426531
 51
6.0209750153
  0
ARC
  5
255
100
AcDbEntity
  8
0
100
AcDbCircle
 62
7
  6
BYLAYER
 10
54.7686872984
 20
60.7141490662
 40
14.7885233227
100
AcDbArc
 50
3.4937426522
 51
6.0209750144
  0
ARC
  5
256
100
AcDbEntity
  8
0
100
AcDbCircle
 62
7
  6
BYLAYER
 10
54.7686873056
 20
53.7016058312
 40
14.7885233139
100
AcDbArc
 50
353.9790250835
 51
356.5062574468
  0
ARC
  5
257
100
AcDbEntity
  8
0
100
AcDbCircle
 62
7
  6
BYLAYER
 10
46.7686873055
 20
53.7016058307
 40
14.7885233139
100
AcDbArc
 50
353.9790250852
 51
356.5062574486
  0
ARC
  5
258
100
AcDbEntity
  8
0
100
AcDbCircle
 62
7
  6
BYLAYER
 10
73.5317790529
 20
53.7016058297
 40
14.7885233018
100
AcDbArc
 50
183.4937425504
 51
186.0209749158
  0
ARC
  5
259
100
AcDbEntity
  8
0
100
AcDbCircle
 62
7
  6
BYLAYER
 10
81.5317790527
 20
53.7016058301
 40
14.7885233017
100
AcDbArc
 50
183.4937425521
 51
186.0209749176
  0
ARC
  5
25A
100
AcDbEntity
  8
0
100
AcDbCircle
 62
7
  6
BYLAYER
 10
72.9502331852
 20
52.1578774617
 40
0.2
100
AcDbArc
 50
311.4096221093
 51
360.0
  0
ARC
  5
25B
100
AcDbEntity
  8
0
100
AcDbCircle
 62
7
  6
BYLAYER
 10
72.9502331852
 20
62.2578774617
 40
0.2
100
AcDbArc
 50
0.0
 51
48.5903778907
  0
ARC
  5
25C
100
AcDbEntity
  8
0
100
AcDbCircle
 62
7
  6
BYLAYER
 10
21.3502331852
 20
62.0078774617
 40
0.2
100
AcDbArc
 50
90.0
 51
180.0
  0
ARC
  5
25D
100
AcDbEntity
  8
0
100
AcDbCircle
 62
7
  6
BYLAYER
 10
21.3502331852
 20
52.4078774617
 40
0.2
100
AcDbArc
 50
180.0
 51
270.0
  0
ARC
  5
25E
100
AcDbEntity
  8
0
100
AcDbCircle
 62
7
  6
BYLAYER
 10
19.3502331852
 20
56.6455020368
 40
0.2
100
AcDbArc
 50
93.0
 51
180.0
  0
ARC
  5
25F
100
AcDbEntity
  8
0
100
AcDbCircle
 62
7
  6
BYLAYER
 10
19.3502331852
 20
54.2347189806
 40
0.2
100
AcDbArc
 50
180.0
 51
267.0
  0
SPLINE
  5
260
100
AcDbEntity
  8
0
100
AcDbSpline
 62
7
  6
BYLAYER
 70
0
 71
3
 72
9
 73
5
 74
0
 42
0.0000001
 43
0.0000001
 44
0.0000000001
 40
0.0
 40
0.0
 40
0.0
 40
0.0
 40
0.2456458
 40
1.0
 40
1.0
 40
1.0
 40
1.0
 10
69.4992981739
 20
66.835332052
 30
0.0
 10
69.4974826277
 20
66.838477131
 30
0.0
 10
69.4899608688
 20
66.8512046575
 30
0.0
 10
69.4819306092
 20
66.8636300422
 30
0.0
 10
69.4756306594
 20
66.8728320379
 30
0.0
  0
SPLINE
  5
261
100
AcDbEntity
  8
0
100
AcDbSpline
 62
7
  6
BYLAYER
 70
0
 71
3
 72
9
 73
5
 74
0
 42
0.0000001
 43
0.0000001
 44
0.0000000001
 40
0.0
 40
0.0
 40
0.0
 40
0.0
 40
0.2456458007
 40
1.0
 40
1.0
 40
1.0
 40
1.0
 10
66.801168196
 20
47.5804228714
 30
0.0
 10
66.8029837424
 20
47.5772777924
 30
0.0
 10
66.810505502
 20
47.5645502659
 30
0.0
 10
66.8185357623
 20
47.5521248814
 30
0.0
 10
66.8248357122
 20
47.5429228855
 30
0.0
  0
SPLINE
  5
262
100
AcDbEntity
  8
0
100
AcDbSpline
 62
7
  6
BYLAYER
 70
0
 71
3
 72
9
 73
5
 74
0
 42
0.0000001
 43
0.0000001
 44
0.0000000001
 40
0.0
 40
0.0
 40
0.0
 40
0.0
 40
0.2544692698
 40
1.0
 40
1.0
 40
1.0
 40
1.0
 10
66.8248357111
 20
66.8728320379
 30
0.0
 10
66.8227105336
 20
66.8697279063
 30
0.0
 10
66.8144689107
 20
66.8574548635
 30
0.0
 10
66.8066783234
 20
66.8448772698
 30
0.0
 10
66.8011681966
 20
66.835332052
 30
0.0
  0
SPLINE
  5
263
100
AcDbEntity
  8
0
100
AcDbSpline
 62
7
  6
BYLAYER
 70
0
 71
3
 72
9
 73
5
 74
0
 42
0.0000001
 43
0.0000001
 44
0.0000000001
 40
0.0
 40
0.0
 40
0.0
 40
0.0
 40
0.2544692671
 40
1.0
 40
1.0
 40
1.0
 40
1.0
 10
69.4756306583
 20
47.5429228855
 30
0.0
 10
69.4777558357
 20
47.5460270172
 30
0.0
 10
69.485997459
 20
47.5583000601
 30
0.0
 10
69.4937880472
 20
47.5708776536
 30
0.0
 10
69.4992981744
 20
47.5804228714
 30
0.0
  0
SPLINE
  5
264
100
AcDbEntity
  8
0
100
AcDbSpline
 62
7
  6
BYLAYER
 70
0
 71
3
 72
13
 73
9
 74
0
 42
0.0000001
 43
0.0000001
 44
0.0000000001
 40
0.0
 40
0.0
 40
0.0
 40
0.0
 40
0.1204075753
 40
0.2413790138
 40
0.3634049887
 40
0.4869076263
 40
0.7393477139
 40
1.0
 40
1.0
 40
1.0
 40
1.0
 10
70.1502331852
 20
64.569093387
 30
0.0
 10
70.1502331851
 20
64.4717303267
 30
0.0
 10
70.1424292223
 20
64.2764618551
 30
0.0
 10
70.1077190443
 20
63.9843891051
 30
0.0
 10
70.0506974938
 20
63.693293791
 30
0.0
 10
69.9456050743
 20
63.3042914854
 30
0.0
 10
69.763189732
 20
62.8215708028
 30
0.0
 10
69.5772413166
 20
62.4500108009
 30
0.0
 10
69.4756306189
 20
62.2653547498
 30
0.0
  0
SPLINE
  5
265
100
AcDbEntity
  8
0
100
AcDbSpline
 62
7
  6
BYLAYER
 70
0
 71
3
 72
13
 73
9
 74
0
 42
0.0000001
 43
0.0000001
 44
0.0000000001
 40
0.0
 40
0.0
 40
0.0
 40
0.0
 40
0.1204075753
 40
0.2413790135
 40
0.3634049884
 40
0.486907626
 40
0.7393477137
 40
1.0
 40
1.0
 40
1.0
 40
1.0
 10
66.1502331852
 20
64.5690933945
 30
0.0
 10
66.1502331853
 20
64.6664564551
 30
0.0
 10
66.158037145
 20
64.8617249271
 30
0.0
 10
66.1927473189
 20
65.1537976784
 30
0.0
 10
66.2497688693
 20
65.4448929935
 30
0.0
 10
66.3548612914
 20
65.8338952996
 30
0.0
 10
66.5372766337
 20
66.3166159843
 30
0.0
 10
66.7232250528
 20
66.6881759861
 30
0.0
 10
66.824835751
 20
66.8728320379
 30
0.0
  0
SPLINE
  5
266
100
AcDbEntity
  8
0
100
AcDbSpline
 62
7
  6
BYLAYER
 70
0
 71
3
 72
13
 73
9
 74
0
 42
0.0000001
 43
0.0000001
 44
0.0000000001
 40
0.0
 40
0.0
 40
0.0
 40
0.0
 40
0.2606523126
 40
0.5130924098
 40
0.6365950498
 40
0.7586210178
 40
0.8795924342
 40
1.0
 40
1.0
 40
1.0
 40
1.0
 10
69.4756306195
 20
66.8728320379
 30
0.0
 10
69.5772413283
 20
66.6881759667
 30
0.0
 10
69.7631897938
 20
66.3166159528
 30
0.0
 10
69.9456051096
 20
65.833895221
 30
0.0
 10
70.0506975126
 20
65.4448929033
 30
0.0
 10
70.1077190388
 20
65.1537976059
 30
0.0
 10
70.1424292747
 20
64.8617248907
 30
0.0
 10
70.1502331854
 20
64.6664564403
 30
0.0
 10
70.1502331852
 20
64.569093387
 30
0.0
  0
SPLINE
  5
267
100
AcDbEntity
  8
0
100
AcDbSpline
 62
7
  6
BYLAYER
 70
0
 71
3
 72
13
 73
9
 74
0
 42
0.0000001
 43
0.0000001
 44
0.0000000001
 40
0.0
 40
0.0
 40
0.0
 40
0.0
 40
0.2606523123
 40
0.5130924096
 40
0.6365950495
 40
0.7586210175
 40
0.8795924341
 40
1.0
 40
1.0
 40
1.0
 40
1.0
 10
66.8248357516
 20
47.5429228855
 30
0.0
 10
66.723225043
 20
47.7275789564
 30
0.0
 10
66.5372765808
 20
48.0991389715
 30
0.0
 10
66.3548612646
 20
48.5818597025
 30
0.0
 10
66.2497688643
 20
48.9708620208
 30
0.0
 10
66.1927473381
 20
49.261957318
 30
0.0
 10
66.1580370984
 20
49.5540300328
 30
0.0
 10
66.1502331851
 20
49.7492984832
 30
0.0
 10
66.1502331852
 20
49.8466615366
 30
0.0
  0
SPLINE
  5
268
100
AcDbEntity
  8
0
100
AcDbSpline
 62
7
  6
BYLAYER
 70
0
 71
3
 72
13
 73
9
 74
0
 42
0.0000001
 43
0.0000001
 44
0.0000000001
 40
0.0
 40
0.0
 40
0.0
 40
0.0
 40
0.1204075754
 40
0.2413790138
 40
0.3634049887
 40
0.4869076263
 40
0.7393477139
 40
1.0
 40
1.0
 40
1.0
 40
1.0
 10
70.1502331852
 20
49.8466615305
 30
0.0
 10
70.1502331853
 20
49.7492984699
 30
0.0
 10
70.1424292229
 20
49.5540299977
 30
0.0
 10
70.1077190453
 20
49.2619572467
 30
0.0
 10
70.050697495
 20
48.9708619315
 30
0.0
 10
69.9456050755
 20
48.5818596246
 30
0.0
 10
69.7631897329
 20
48.0991389403
 30
0.0
 10
69.5772413169
 20
47.7275789372
 30
0.0
 10
69.4756306189
 20
47.5429228855
 30
0.0
  0
SPLINE
  5
269
100
AcDbEntity
  8
0
100
AcDbSpline
 62
7
  6
BYLAYER
 70
0
 71
3
 72
11
 73
7
 74
0
 42
0.0000001
 43
0.0000001
 44
0.0000000001
 40
0.0
 40
0.0
 40
0.0
 40
0.0
 40
0.2500021179
 40
0.5000026405
 40
0.7500023583
 40
1.0
 40
1.0
 40
1.0
 40
1.0
 10
66.7707408925
 20
52.8004001736
 30
0.0
 10
66.6752134938
 20
53.1598398479
 30
0.0
 10
66.5013288545
 20
53.8834633721
 30
0.0
 10
66.3031455362
 20
54.9821889878
 30
0.0
 10
66.1786416036
 20
56.0918494075
 30
0.0
 10
66.1502331852
 20
56.8359669749
 30
0.0
 10
66.1502331852
 20
57.2078774617
 30
0.0
  0
SPLINE
  5
26A
100
AcDbEntity
  8
0
100
AcDbSpline
 62
7
  6
BYLAYER
 70
0
 71
3
 72
11
 73
7
 74
0
 42
0.0000001
 43
0.0000001
 44
0.0000000001
 40
0.0
 40
0.0
 40
0.0
 40
0.0
 40
0.2499942762
 40
0.4999901455
 40
0.7499920033
 40
1.0
 40
1.0
 40
1.0
 40
1.0
 10
66.1502331852
 20
57.2078774617
 30
0.0
 10
66.1502331852
 20
57.579782878
 30
0.0
 10
66.1786513428
 20
58.3238886233
 30
0.0
 10
66.3031273343
 20
59.433543763
 30
0.0
 10
66.5013505759
 20
60.5322670311
 30
0.0
 10
66.6752112661
 20
61.2559066849
 30
0.0
 10
66.7707408948
 20
61.6153547498
 30
0.0
  0
SPLINE
  5
26B
100
AcDbEntity
  8
0
100
AcDbSpline
 62
7
  6
BYLAYER
 70
0
 71
3
 72
13
 73
9
 74
0
 42
0.0000001
 43
0.0000001
 44
0.0000000001
 40
0.0
 40
0.0
 40
0.0
 40
0.0
 40
0.1204075753
 40
0.2413790135
 40
0.3634049884
 40
0.486907626
 40
0.7393477137
 40
1.0
 40
1.0
 40
1.0
 40
1.0
 10
66.1502331852
 20
49.8466615366
 30
0.0
 10
66.1502331854
 20
49.9440245968
 30
0.0
 10
66.1580371455
 20
50.1392930684
 30
0.0
 10
66.1927473197
 20
50.4313658188
 30
0.0
 10
66.2497688702
 20
50.7224611331
 30
0.0
 10
66.3548612924
 20
51.1114634381
 30
0.0
 10
66.5372766344
 20
51.5941841215
 30
0.0
 10
66.7232250531
 20
51.9657441222
 30
0.0
 10
66.824835751
 20
52.1504001736
 30
0.0
  0
SPLINE
  5
26C
100
AcDbEntity
  8
0
100
AcDbSpline
 62
7
  6
BYLAYER
 70
0
 71
3
 72
13
 73
9
 74
0
 42
0.0000001
 43
0.0000001
 44
0.0000000001
 40
0.0
 40
0.0
 40
0.0
 40
0.0
 40
0.2606523123
 40
0.5130924096
 40
0.6365950495
 40
0.7586210176
 40
0.8795924341
 40
1.0
 40
1.0
 40
1.0
 40
1.0
 10
66.8248357516
 20
62.2653547498
 30
0.0
 10
66.7232250432
 20
62.4500108202
 30
0.0
 10
66.5372765815
 20
62.8215708343
 30
0.0
 10
66.3548612656
 20
63.304291564
 30
0.0
 10
66.2497688653
 20
63.6932938812
 30
0.0
 10
66.1927473389
 20
63.9843891776
 30
0.0
 10
66.1580370989
 20
64.2764618916
 30
0.0
 10
66.1502331852
 20
64.4717303415
 30
0.0
 10
66.1502331852
 20
64.5690933945
 30
0.0
  0
SPLINE
  5
26D
100
AcDbEntity
  8
0
100
AcDbSpline
 62
7
  6
BYLAYER
 70
0
 71
3
 72
11
 73
7
 74
0
 42
0.0000001
 43
0.0000001
 44
0.0000000001
 40
0.0
 40
0.0
 40
0.0
 40
0.0
 40
0.2500021179
 40
0.5000026405
 40
0.7500023583
 40
1.0
 40
1.0
 40
1.0
 40
1.0
 10
69.529725478
 20
61.6153547498
 30
0.0
 10
69.6252528767
 20
61.2559150755
 30
0.0
 10
69.799137516
 20
60.5322915513
 30
0.0
 10
69.9973208343
 20
59.4335659356
 30
0.0
 10
70.1218247668
 20
58.3239055159
 30
0.0
 10
70.1502331852
 20
57.5797879485
 30
0.0
 10
70.1502331852
 20
57.2078774617
 30
0.0
  0
SPLINE
  5
26E
100
AcDbEntity
  8
0
100
AcDbSpline
 62
7
  6
BYLAYER
 70
0
 71
3
 72
11
 73
7
 74
0
 42
0.0000001
 43
0.0000001
 44
0.0000000001
 40
0.0
 40
0.0
 40
0.0
 40
0.0
 40
0.2499942762
 40
0.4999901455
 40
0.7499920033
 40
1.0
 40
1.0
 40
1.0
 40
1.0
 10
70.1502331852
 20
57.2078774617
 30
0.0
 10
70.1502331852
 20
56.8359720454
 30
0.0
 10
70.1218150277
 20
56.0918663001
 30
0.0
 10
69.9973390362
 20
54.9822111604
 30
0.0
 10
69.7991157946
 20
53.8834878923
 30
0.0
 10
69.6252551044
 20
53.1598482385
 30
0.0
 10
69.5297254757
 20
52.8004001736
 30
0.0
  0
SPLINE
  5
26F
100
AcDbEntity
  8
0
100
AcDbSpline
 62
7
  6
BYLAYER
 70
0
 71
3
 72
13
 73
9
 74
0
 42
0.0000001
 43
0.0000001
 44
0.0000000001
 40
0.0
 40
0.0
 40
0.0
 40
0.0
 40
0.2606523125
 40
0.5130924098
 40
0.6365950498
 40
0.7586210178
 40
0.8795924342
 40
1.0
 40
1.0
 40
1.0
 40
1.0
 10
69.4756306195
 20
52.1504001736
 30
0.0
 10
69.577241328
 20
51.965744103
 30
0.0
 10
69.7631897929
 20
51.5941840903
 30
0.0
 10
69.9456051084
 20
51.1114633602
 30
0.0
 10
70.0506975114
 20
50.7224610438
 30
0.0
 10
70.1077190379
 20
50.4313657474
 30
0.0
 10
70.1424292742
 20
50.1392930333
 30
0.0
 10
70.1502331852
 20
49.9440245835
 30
0.0
 10
70.1502331852
 20
49.8466615305
 30
0.0
  0
SPLINE
  5
270
100
AcDbEntity
  8
0
100
AcDbSpline
 62
7
  6
BYLAYER
 70
0
 71
3
 72
9
 73
5
 74
0
 42
0.0000001
 43
0.0000001
 44
0.0000000001
 40
0.0
 40
0.0
 40
0.0
 40
0.0
 40
0.2456243696
 40
1.0
 40
1.0
 40
1.0
 40
1.0
 10
58.8011646886
 20
66.8353320933
 30
0.0
 10
58.8029795434
 20
66.838477385
 30
0.0
 10
58.8105008283
 20
66.8512059756
 30
0.0
 10
58.8185353126
 20
66.8636293869
 30
0.0
 10
58.8248357111
 20
66.8728320379
 30
0.0
  0
SPLINE
  5
271
100
AcDbEntity
  8
0
100
AcDbSpline
 62
7
  6
BYLAYER
 70
0
 71
3
 72
9
 73
5
 74
0
 42
0.0000001
 43
0.0000001
 44
0.0000000001
 40
0.0
 40
0.0
 40
0.0
 40
0.0
 40
0.2456243703
 40
1.0
 40
1.0
 40
1.0
 40
1.0
 10
61.4993016824
 20
47.5804228301
 30
0.0
 10
61.4974868275
 20
47.5772775384
 30
0.0
 10
61.4899655418
 20
47.5645489479
 30
0.0
 10
61.4819310568
 20
47.5521255367
 30
0.0
 10
61.4756306583
 20
47.5429228855
 30
0.0
  0
SPLINE
  5
272
100
AcDbEntity
  8
0
100
AcDbSpline
 62
7
  6
BYLAYER
 70
0
 71
3
 72
9
 73
5
 74
0
 42
0.0000001
 43
0.0000001
 44
0.0000000001
 40
0.0
 40
0.0
 40
0.0
 40
0.0
 40
0.2544718243
 40
1.0
 40
1.0
 40
1.0
 40
1.0
 10
61.4756306594
 20
66.8728320379
 30
0.0
 10
61.4777559465
 20
66.8697277461
 30
0.0
 10
61.4859991069
 20
66.8574550419
 30
0.0
 10
61.493793199
 20
66.8448787449
 30
0.0
 10
61.4993016819
 20
66.8353320933
 30
0.0
  0
SPLINE
  5
273
100
AcDbEntity
  8
0
100
AcDbSpline
 62
7
  6
BYLAYER
 70
0
 71
3
 72
9
 73
5
 74
0
 42
0.0000001
 43
0.0000001
 44
0.0000000001
 40
0.0
 40
0.0
 40
0.0
 40
0.0
 40
0.2544718215
 40
1.0
 40
1.0
 40
1.0
 40
1.0
 10
58.8248357122
 20
47.5429228855
 30
0.0
 10
58.8227104251
 20
47.5460271773
 30
0.0
 10
58.8144672644
 20
47.5582998816
 30
0.0
 10
58.8066731715
 20
47.5708761785
 30
0.0
 10
58.8011646881
 20
47.5804228301
 30
0.0
  0
SPLINE
  5
274
100
AcDbEntity
  8
0
100
AcDbSpline
 62
7
  6
BYLAYER
 70
0
 71
3
 72
13
 73
9
 74
0
 42
0.0000001
 43
0.0000001
 44
0.0000000001
 40
0.0
 40
0.0
 40
0.0
 40
0.0
 40
0.1204075753
 40
0.2413790135
 40
0.3634049884
 40
0.486907626
 40
0.7393477137
 40
1.0
 40
1.0
 40
1.0
 40
1.0
 10
58.1502331852
 20
49.8466615305
 30
0.0
 10
58.1502331853
 20
49.9440245911
 30
0.0
 10
58.1580371451
 20
50.1392930631
 30
0.0
 10
58.192747319
 20
50.4313658143
 30
0.0
 10
58.2497688693
 20
50.7224611293
 30
0.0
 10
58.3548612915
 20
51.1114634354
 30
0.0
 10
58.5372766337
 20
51.5941841201
 30
0.0
 10
58.7232250529
 20
51.9657441218
 30
0.0
 10
58.824835751
 20
52.1504001736
 30
0.0
  0
SPLINE
  5
275
100
AcDbEntity
  8
0
100
AcDbSpline
 62
7
  6
BYLAYER
 70
0
 71
3
 72
11
 73
7
 74
0
 42
0.0000001
 43
0.0000001
 44
0.0000000001
 40
0.0
 40
0.0
 40
0.0
 40
0.0
 40
0.2500021179
 40
0.5000026405
 40
0.7500023583
 40
1.0
 40
1.0
 40
1.0
 40
1.0
 10
58.7707408925
 20
52.8004001736
 30
0.0
 10
58.6752134938
 20
53.1598398479
 30
0.0
 10
58.5013288545
 20
53.8834633721
 30
0.0
 10
58.3031455362
 20
54.9821889878
 30
0.0
 10
58.1786416036
 20
56.0918494075
 30
0.0
 10
58.1502331852
 20
56.8359669749
 30
0.0
 10
58.1502331852
 20
57.2078774617
 30
0.0
  0
SPLINE
  5
276
100
AcDbEntity
  8
0
100
AcDbSpline
 62
7
  6
BYLAYER
 70
0
 71
3
 72
13
 73
9
 74
0
 42
0.0000001
 43
0.0000001
 44
0.0000000001
 40
0.0
 40
0.0
 40
0.0
 40
0.0
 40
0.2606523125
 40
0.5130924098
 40
0.6365950498
 40
0.7586210178
 40
0.8795924342
 40
1.0
 40
1.0
 40
1.0
 40
1.0
 10
61.4756306195
 20
52.1504001736
 30
0.0
 10
61.5772413277
 20
51.9657441035
 30
0.0
 10
61.7631897922
 20
51.5941840917
 30
0.0
 10
61.9456051075
 20
51.1114633629
 30
0.0
 10
62.0506975105
 20
50.7224610476
 30
0.0
 10
62.1077190371
 20
50.4313657519
 30
0.0
 10
62.1424292737
 20
50.1392930385
 30
0.0
 10
62.1502331851
 20
49.9440245893
 30
0.0
 10
62.1502331852
 20
49.8466615366
 30
0.0
  0
SPLINE
  5
277
100
AcDbEntity
  8
0
100
AcDbSpline
 62
7
  6
BYLAYER
 70
0
 71
3
 72
11
 73
7
 74
0
 42
0.0000001
 43
0.0000001
 44
0.0000000001
 40
0.0
 40
0.0
 40
0.0
 40
0.0
 40
0.2499942762
 40
0.4999901455
 40
0.7499920033
 40
1.0
 40
1.0
 40
1.0
 40
1.0
 10
58.1502331852
 20
57.2078774617
 30
0.0
 10
58.1502331852
 20
57.579782878
 30
0.0
 10
58.1786513428
 20
58.3238886233
 30
0.0
 10
58.3031273343
 20
59.433543763
 30
0.0
 10
58.5013505759
 20
60.5322670311
 30
0.0
 10
58.6752112661
 20
61.2559066849
 30
0.0
 10
58.7707408948
 20
61.6153547498
 30
0.0
  0
SPLINE
  5
278
100
AcDbEntity
  8
0
100
AcDbSpline
 62
7
  6
BYLAYER
 70
0
 71
3
 72
13
 73
9
 74
0
 42
0.0000001
 43
0.0000001
 44
0.0000000001
 40
0.0
 40
0.0
 40
0.0
 40
0.0
 40
0.2606523123
 40
0.5130924095
 40
0.6365950495
 40
0.7586210176
 40
0.8795924341
 40
1.0
 40
1.0
 40
1.0
 40
1.0
 10
58.8248357516
 20
62.2653547498
 30
0.0
 10
58.7232250436
 20
62.4500108197
 30
0.0
 10
58.5372765824
 20
62.8215708325
 30
0.0
 10
58.3548612668
 20
63.3042915606
 30
0.0
 10
58.2497688664
 20
63.6932938765
 30
0.0
 10
58.1927473398
 20
63.984389172
 30
0.0
 10
58.1580370994
 20
64.276461885
 30
0.0
 10
58.1502331854
 20
64.4717303342
 30
0.0
 10
58.1502331852
 20
64.569093387
 30
0.0
  0
SPLINE
  5
279
100
AcDbEntity
  8
0
100
AcDbSpline
 62
7
  6
BYLAYER
 70
0
 71
3
 72
11
 73
7
 74
0
 42
0.0000001
 43
0.0000001
 44
0.0000000001
 40
0.0
 40
0.0
 40
0.0
 40
0.0
 40
0.2500021179
 40
0.5000026405
 40
0.7500023583
 40
1.0
 40
1.0
 40
1.0
 40
1.0
 10
61.529725478
 20
61.6153547498
 30
0.0
 10
61.6252528767
 20
61.2559150755
 30
0.0
 10
61.799137516
 20
60.5322915513
 30
0.0
 10
61.9973208343
 20
59.4335659356
 30
0.0
 10
62.1218247668
 20
58.3239055159
 30
0.0
 10
62.1502331852
 20
57.5797879485
 30
0.0
 10
62.1502331852
 20
57.2078774617
 30
0.0
  0
SPLINE
  5
27A
100
AcDbEntity
  8
0
100
AcDbSpline
 62
7
  6
BYLAYER
 70
0
 71
3
 72
13
 73
9
 74
0
 42
0.0000001
 43
0.0000001
 44
0.0000000001
 40
0.0
 40
0.0
 40
0.0
 40
0.0
 40
0.1204075754
 40
0.2413790138
 40
0.3634049887
 40
0.4869076263
 40
0.7393477139
 40
1.0
 40
1.0
 40
1.0
 40
1.0
 10
62.1502331852
 20
64.5690933945
 30
0.0
 10
62.1502331853
 20
64.471730334
 30
0.0
 10
62.1424292229
 20
64.2764618617
 30
0.0
 10
62.1077190453
 20
63.9843891108
 30
0.0
 10
62.0506974949
 20
63.6932937956
 30
0.0
 10
61.9456050755
 20
63.3042914888
 30
0.0
 10
61.7631897328
 20
62.8215708045
 30
0.0
 10
61.5772413169
 20
62.4500108015
 30
0.0
 10
61.4756306188
 20
62.2653547498
 30
0.0
  0
SPLINE
  5
27B
100
AcDbEntity
  8
0
100
AcDbSpline
 62
7
  6
BYLAYER
 70
0
 71
3
 72
11
 73
7
 74
0
 42
0.0000001
 43
0.0000001
 44
0.0000000001
 40
0.0
 40
0.0
 40
0.0
 40
0.0
 40
0.2499942762
 40
0.4999901455
 40
0.7499920033
 40
1.0
 40
1.0
 40
1.0
 40
1.0
 10
62.1502331852
 20
57.2078774617
 30
0.0
 10
62.1502331852
 20
56.8359720454
 30
0.0
 10
62.1218150277
 20
56.0918663001
 30
0.0
 10
61.9973390362
 20
54.9822111604
 30
0.0
 10
61.7991157946
 20
53.8834878923
 30
0.0
 10
61.6252551044
 20
53.1598482385
 30
0.0
 10
61.5297254757
 20
52.8004001736
 30
0.0
  0
SPLINE
  5
27C
100
AcDbEntity
  8
0
100
AcDbSpline
 62
7
  6
BYLAYER
 70
0
 71
3
 72
13
 73
9
 74
0
 42
0.0000001
 43
0.0000001
 44
0.0000000001
 40
0.0
 40
0.0
 40
0.0
 40
0.0
 40
0.2606523125
 40
0.5130924098
 40
0.6365950498
 40
0.7586210178
 40
0.8795924342
 40
1.0
 40
1.0
 40
1.0
 40
1.0
 10
61.4756306195
 20
66.8728320379
 30
0.0
 10
61.577241328
 20
66.6881759673
 30
0.0
 10
61.7631897929
 20
66.3166159546
 30
0.0
 10
61.9456051085
 20
65.8338952244
 30
0.0
 10
62.0506975115
 20
65.444892908
 30
0.0
 10
62.1077190379
 20
65.1537976115
 30
0.0
 10
62.1424292742
 20
64.8617248973
 30
0.0
 10
62.1502331852
 20
64.6664564475
 30
0.0
 10
62.1502331852
 20
64.5690933945
 30
0.0
  0
SPLINE
  5
27D
100
AcDbEntity
  8
0
100
AcDbSpline
 62
7
  6
BYLAYER
 70
0
 71
3
 72
13
 73
9
 74
0
 42
0.0000001
 43
0.0000001
 44
0.0000000001
 40
0.0
 40
0.0
 40
0.0
 40
0.0
 40
0.1204075753
 40
0.2413790135
 40
0.3634049884
 40
0.486907626
 40
0.7393477136
 40
1.0
 40
1.0
 40
1.0
 40
1.0
 10
58.1502331852
 20
64.569093387
 30
0.0
 10
58.1502331851
 20
64.6664564478
 30
0.0
 10
58.1580371445
 20
64.8617249205
 30
0.0
 10
58.192747318
 20
65.1537976728
 30
0.0
 10
58.2497688682
 20
65.4448929888
 30
0.0
 10
58.3548612903
 20
65.8338952962
 30
0.0
 10
58.5372766328
 20
66.3166159826
 30
0.0
 10
58.7232250525
 20
66.6881759855
 30
0.0
 10
58.824835751
 20
66.8728320379
 30
0.0
  0
SPLINE
  5
27E
100
AcDbEntity
  8
0
100
AcDbSpline
 62
7
  6
BYLAYER
 70
0
 71
3
 72
13
 73
9
 74
0
 42
0.0000001
 43
0.0000001
 44
0.0000000001
 40
0.0
 40
0.0
 40
0.0
 40
0.0
 40
0.1204075754
 40
0.2413790138
 40
0.3634049887
 40
0.4869076263
 40
0.7393477139
 40
1.0
 40
1.0
 40
1.0
 40
1.0
 10
62.1502331852
 20
49.8466615366
 30
0.0
 10
62.1502331854
 20
49.7492984757
 30
0.0
 10
62.1424292233
 20
49.5540300029
 30
0.0
 10
62.107719046
 20
49.2619572512
 30
0.0
 10
62.0506974959
 20
48.9708619352
 30
0.0
 10
61.9456050765
 20
48.5818596273
 30
0.0
 10
61.7631897336
 20
48.0991389417
 30
0.0
 10
61.5772413172
 20
47.7275789376
 30
0.0
 10
61.4756306188
 20
47.5429228855
 30
0.0
  0
SPLINE
  5
27F
100
AcDbEntity
  8
0
100
AcDbSpline
 62
7
  6
BYLAYER
 70
0
 71
3
 72
13
 73
9
 74
0
 42
0.0000001
 43
0.0000001
 44
0.0000000001
 40
0.0
 40
0.0
 40
0.0
 40
0.0
 40
0.2606523123
 40
0.5130924096
 40
0.6365950495
 40
0.7586210176
 40
0.8795924341
 40
1.0
 40
1.0
 40
1.0
 40
1.0
 10
58.8248357516
 20
47.5429228855
 30
0.0
 10
58.7232250433
 20
47.7275789559
 30
0.0
 10
58.5372765815
 20
48.0991389701
 30
0.0
 10
58.3548612655
 20
48.5818596999
 30
0.0
 10
58.2497688652
 20
48.970862017
 30
0.0
 10
58.1927473388
 20
49.2619573135
 30
0.0
 10
58.1580370989
 20
49.5540300275
 30
0.0
 10
58.1502331852
 20
49.7492984775
 30
0.0
 10
58.1502331852
 20
49.8466615305
 30
0.0
  0
ENDSEC
  0
SECTION
  2
OBJECTS
  0
DICTIONARY
  5
C
100
AcDbDictionary
280
0
281
1
  3
ACAD_GROUP
350
D
  3
ACAD_MLINESTYLE
350
17
  3
ACAD_LAYOUT
350
1A
  3
ACAD_PLOTSETTINGS
350
19
  3
ACAD_PLOTSTYLENAME
350
E
  0
DICTIONARY
  5
D
102
{ACAD_REACTORS
330
C
102
}
100
AcDbDictionary
280
0
281
1
  0
ACDBDICTIONARYWDFLT
  5
E
102
{ACAD_REACTORS
330
C
102
}
100
AcDbDictionary
281
1
  3
Normal
350
F
100
AcDbDictionaryWithDefault
340
F
  0
DICTIONARY
  5
17
102
{ACAD_REACTORS
330
C
102
}
100
AcDbDictionary
280
0
281
1
  3
Standard
350
18
  0
DICTIONARY
  5
19
102
{ACAD_REACTORS
330
C
102
}
100
AcDbDictionary
281
1
  0
DICTIONARY
  5
1A
102
{ACAD_REACTORS
330
C
102
}
100
AcDbDictionary
281
1
  3
Model
350
280
  3
Layout1
350
281
  0
ACDBPLACEHOLDER
  5
F
102
{ACAD_REACTORS
330
E
102
}
  0
MLINESTYLE
  5
18
102
{ACAD_REACTORS
330
17
102
}
100
AcDbMlineStyle
  2
STANDARD
 70
0
  3

 62
256
 51
90.0
 52
90.0
 71
2
 49
0.5
 62
256
  6
BYLAYER
 49
-0.5
 62
256
  6
BYLAYER
  0
LAYOUT
  5
280
102
{ACAD_REACTORS
330
1A
102
}
100
AcDbPlotSettings
  1

  2
none_device
  4

  6

 40
0.0
 41
0.0
 42
0.0
 43
0.0
 44
210.0
 45
297.0
 46
0.0
 47
0.0
 48
0.0
 49
0.0
140
0.0
141
0.0
142
1.0
143
1.0
 70
1024
 72
1
 73
0
 74
0
  7

 75
0
147
1.0
148
0.0
149
0.0
100
AcDbLayout
  1
Model
 70
0
 71
0
 10
0.0
 20
0.0
 11
210.0
 21
297.0
 12
0.0
 22
0.0
 32
0.0
 14
0.0
 24
0.0
 34
0.0
 15
0.0
 25
0.0
 35
0.0
146
0.0
 13
0.0
 23
0.0
 33
0.0
 16
1.0
 26
0.0
 36
0.0
 17
0.0
 27
1.0
 37
0.0
 76
0
330
210
345
0
346
0
  0
LAYOUT
  5
281
102
{ACAD_REACTORS
330
1A
102
}
100
AcDbPlotSettings
  1

  2
none_device
  4

  6

 40
0.0
 41
0.0
 42
0.0
 43
0.0
 44
210.0
 45
297.0
 46
0.0
 47
0.0
 48
0.0
 49
0.0
140
0.0
141
0.0
142
1.0
143
1.0
 70
0
 72
1
 73
0
 74
0
  7

 75
0
147
1.0
148
0.0
149
0.0
100
AcDbLayout
  1
Layout1
 70
0
 71
1
 10
0.0
 20
0.0
 11
210.0
 21
297.0
 12
0.0
 22
0.0
 32
0.0
 14
0.0
 24
0.0
 34
0.0
 15
0.0
 25
0.0
 35
0.0
146
0.0
 13
0.0
 23
0.0
 33
0.0
 16
1.0
 26
0.0
 36
0.0
 17
0.0
 27
1.0
 37
0.0
 76
0
330
211
345
0
346
0
  0
ENDSEC
  0
EOF
