999
DXF file: C:\Users\sesa63760\Dev\_Creo\CAD\MCADID0004915_3D-CAD\drw0001_7.dxf
999
Pro/ENGINEER 2019471 by Parametric Technology Corporation
  0
SECTION
  2
HEADER
  9
$ACADVER
  1
AC1024
  9
$DWGCODEPAGE
  3
ANSI_1252
  9
$EXTMAX
 10
237.7154873042
 20
336.1976177588
 30
0.0
  9
$EXTMIN
 10
0.0
 20
0.0
 30
0.0
  9
$LIMMIN
 10
0.0
 20
0.0
  9
$LIMMAX
 10
237.7154873042
 20
336.1976177588
  9
$VIEWCTR
 10
118.8577436521
 20
168.0988088794
  9
$VIEWSIZE
 40
336.1976177588
  9
$CLAYER
  8
0
  9
$LTSCALE
 40
21.9151039724
  9
$CELTYPE
  6
BYLAYER
  9
$DIMSCALE
 40
1.0
  9
$DIMASZ
 40
2.8299462774
  9
$DIMEXO
 40
1.0
  9
$DIMDLI
 40
15.1413445628
  9
$DIMEXE
 40
1.0
  9
$DIMCEN
 40
3.5861079228
  9
$DIMLFAC
 40
1.0
  9
$DIMBLK
  1
_FILLED
  9
$DIMALT
 70
0
  9
$DIMALTF
 40
0.0393700787
  9
$DIMTXT
 40
3.9619247884
  9
$DIMTOL
 70
1
  9
$DIMLIM
 70
0
  9
$DIMTFAC
 40
1.0
  9
$DIMTP
 40
0.01
  9
$DIMTM
 40
0.01
  9
$DIMGAP
 40
0.625
  9
$DIMDSEP
 70
46
  9
$AUNITS
 70
0
  9
$PDMODE
 70
3
  9
$PDSIZE
 40
0.3125
  9
$HANDSEED
  5
2BD
  9
$TILEMODE
 70
1
  9
$MEASUREMENT
 70
1
  9
$INSUNITS
 70
4
  0
ENDSEC
  0
SECTION
  2
CLASSES
  0
CLASS
  1
ACDBDICTIONARYWDFLT
  2
AcDbDictionaryWithDefault
  3
AutoCAD 2000
 90
0
 91
1
280
0
281
0
  0
CLASS
  1
ACDBPLACEHOLDER
  2
AcDbPlaceHolder
  3
AutoCAD 2000
 90
0
 91
1
280
0
281
0
  0
CLASS
  1
LAYOUT
  2
AcDbLayout
  3
AutoCAD 2000
 90
0
 91
0
280
0
281
0
  0
ENDSEC
  0
SECTION
  2
TABLES
  0
TABLE
  2
VPORT
  5
8
100
AcDbSymbolTable
 70
2
  0
VPORT
  5
1F4
100
AcDbSymbolTableRecord
100
AcDbViewportTableRecord
  2
*ACTIVE
 70
0
 10
0.0
 20
0.0
 11
1.0
 21
1.0
 12
118.8577436521
 22
168.0988088794
 13
0.0
 23
0.0
 14
1.0
 24
1.0
 15
0.0
 25
0.0
 16
0.0
 26
0.0
 36
1.0
 17
0.0
 27
0.0
 37
0.0
 40
336.1976177588
 41
0.7070707071
 42
50.0
 43
0.0
 44
0.0
 50
0.0
 51
0.0
 71
0
 72
100
 73
1
 74
1
 75
0
 76
0
 77
0
 78
0
  0
ENDTAB
  0
TABLE
  2
LTYPE
  5
5
100
AcDbSymbolTable
 70
6
  0
LTYPE
  5
14
100
AcDbSymbolTableRecord
100
AcDbLinetypeTableRecord
  2
BYBLOCK
 70
0
  3

 72
65
 73
0
 40
0.0
  0
LTYPE
  5
15
100
AcDbSymbolTableRecord
100
AcDbLinetypeTableRecord
  2
BYLAYER
 70
0
  3

 72
65
 73
0
 40
0.0
  0
LTYPE
  5
16
100
AcDbSymbolTableRecord
100
AcDbLinetypeTableRecord
  2
CONTINUOUS
 70
64
  3
Solid line
 72
65
 73
0
 40
0.0
  0
LTYPE
  5
1F5
100
AcDbSymbolTableRecord
100
AcDbLinetypeTableRecord
  2
CENTER
 70
64
  3
____ _ ____ _ ____ _ ____ _ ____ _ ____ _ ____
 72
65
 73
4
 40
0.6
 49
0.375
 74
0
 49
-0.075
 74
0
 49
0.075
 74
0
 49
-0.075
 74
0
  0
LTYPE
  5
1F6
100
AcDbSymbolTableRecord
100
AcDbLinetypeTableRecord
  2
HIDDEN
 70
64
  3
- - - - - - - - - - - - - - - - - - - -
 72
65
 73
2
 40
0.2
 49
0.1
 74
0
 49
-0.1
 74
0
  0
LTYPE
  5
1F7
100
AcDbSymbolTableRecord
100
AcDbLinetypeTableRecord
  2
PHANTOM
 70
64
  3
_____ _ _ _____ _ _ _____ _ _ _____
 72
65
 73
6
 40
0.8
 49
0.45
 74
0
 49
-0.05
 74
0
 49
0.1
 74
0
 49
-0.05
 74
0
 49
0.1
 74
0
 49
-0.05
 74
0
  0
LTYPE
  5
1F8
100
AcDbSymbolTableRecord
100
AcDbLinetypeTableRecord
  2
DOT
 70
64
  3
. . . . . . . . . . . . . . . . . . . .
 72
65
 73
2
 40
0.2
 49
0.1
 74
0
 49
-0.1
 74
0
  0
LTYPE
  5
1F9
100
AcDbSymbolTableRecord
100
AcDbLinetypeTableRecord
  2
DASHED
 70
64
  3
- - - - - - - - - - - - - - - - - - - -
 72
65
 73
2
 40
0.2
 49
0.1
 74
0
 49
-0.1
 74
0
  0
ENDTAB
  0
TABLE
  2
LAYER
  5
2
100
AcDbSymbolTable
 70
36
  0
LAYER
  5
10
100
AcDbSymbolTableRecord
100
AcDbLayerTableRecord
  2
0
 70
0
 62
7
  6
CONTINUOUS
370
-3
390
F
  0
LAYER
  5
1FA
100
AcDbSymbolTableRecord
100
AcDbLayerTableRecord
  2
DEFAULT_1
 70
0
 62
7
  6
CENTER
370
-3
390
F
  0
LAYER
  5
1FB
100
AcDbSymbolTableRecord
100
AcDbLayerTableRecord
  2
DEFAULT_2
 70
0
 62
7
  6
HIDDEN
370
-3
390
F
  0
LAYER
  5
1FC
100
AcDbSymbolTableRecord
100
AcDbLayerTableRecord
  2
DEFAULT_3
 70
0
 62
7
  6
PHANTOM
370
-3
390
F
  0
LAYER
  5
1FD
100
AcDbSymbolTableRecord
100
AcDbLayerTableRecord
  2
00_COMPONENTS
 70
0
 62
7
  6
CONTINUOUS
370
-3
390
F
  0
LAYER
  5
1FE
100
AcDbSymbolTableRecord
100
AcDbLayerTableRecord
  2
01_1_DEFAULT_DATUMS
 70
0
 62
7
  6
CONTINUOUS
370
-3
390
F
  0
LAYER
  5
1FF
100
AcDbSymbolTableRecord
100
AcDbLayerTableRecord
  2
01_PLANES
 70
0
 62
7
  6
CONTINUOUS
370
-3
390
F
  0
LAYER
  5
200
100
AcDbSymbolTableRecord
100
AcDbLayerTableRecord
  2
02_COORD_SYS
 70
0
 62
7
  6
CONTINUOUS
370
-3
390
F
  0
LAYER
  5
201
100
AcDbSymbolTableRecord
100
AcDbLayerTableRecord
  2
03_AXES
 70
0
 62
7
  6
CONTINUOUS
370
-3
390
F
  0
LAYER
  5
202
100
AcDbSymbolTableRecord
100
AcDbLayerTableRecord
  2
04_POINTS
 70
0
 62
7
  6
CONTINUOUS
370
-3
390
F
  0
LAYER
  5
203
100
AcDbSymbolTableRecord
100
AcDbLayerTableRecord
  2
05_CURVES
 70
0
 62
7
  6
CONTINUOUS
370
-3
390
F
  0
LAYER
  5
204
100
AcDbSymbolTableRecord
100
AcDbLayerTableRecord
  2
06_SURFS
 70
0
 62
7
  6
CONTINUOUS
370
-3
390
F
  0
LAYER
  5
205
100
AcDbSymbolTableRecord
100
AcDbLayerTableRecord
  2
07_COSMETICS
 70
0
 62
7
  6
CONTINUOUS
370
-3
390
F
  0
LAYER
  5
206
100
AcDbSymbolTableRecord
100
AcDbLayerTableRecord
  2
10_NOTES
 70
0
 62
7
  6
CONTINUOUS
370
-3
390
F
  0
LAYER
  5
207
100
AcDbSymbolTableRecord
100
AcDbLayerTableRecord
  2
11_NOTES_PUB
 70
0
 62
7
  6
CONTINUOUS
370
-3
390
F
  0
LAYER
  5
208
100
AcDbSymbolTableRecord
100
AcDbLayerTableRecord
  2
13_REF_GTOL
 70
0
 62
7
  6
CONTINUOUS
370
-3
390
F
  0
LAYER
  5
209
100
AcDbSymbolTableRecord
100
AcDbLayerTableRecord
  2
16_MISC
 70
0
 62
7
  6
CONTINUOUS
370
-3
390
F
  0
LAYER
  5
20A
100
AcDbSymbolTableRecord
100
AcDbLayerTableRecord
  2
17_NO_PRINT
 70
0
 62
7
  6
CONTINUOUS
370
-3
390
F
  0
LAYER
  5
20B
100
AcDbSymbolTableRecord
100
AcDbLayerTableRecord
  2
18_DATUM_CAMS_JOINTS
 70
0
 62
7
  6
CONTINUOUS
370
-3
390
F
  0
LAYER
  5
20C
100
AcDbSymbolTableRecord
100
AcDbLayerTableRecord
  2
19_DATUM_FUNCTIONAL
 70
0
 62
7
  6
CONTINUOUS
370
-3
390
F
  0
LAYER
  5
20D
100
AcDbSymbolTableRecord
100
AcDbLayerTableRecord
  2
20_DATUM_KINEMATIC_SCHEME
 70
0
 62
7
  6
CONTINUOUS
370
-3
390
F
  0
ENDTAB
  0
TABLE
  2
STYLE
  5
3
100
AcDbSymbolTable
 70
1
  0
STYLE
  5
11
100
AcDbSymbolTableRecord
100
AcDbTextStyleTableRecord
  2
STANDARD
 70
0
 40
0.0
 41
1.0
 50
0.0
 71
0
 42
0.2
  3
ARIAL.TTF
  4

  0
STYLE
  5
20E
100
AcDbSymbolTableRecord
100
AcDbTextStyleTableRecord
  2
TEXTSTYLE_1
 70
0
 40
0.0
 41
0.8
 50
0.0
 71
0
 42
0.2
  3
gdt
  4

  0
ENDTAB
  0
TABLE
  2
VIEW
  5
6
100
AcDbSymbolTable
 70
0
  0
ENDTAB
  0
TABLE
  2
UCS
  5
7
100
AcDbSymbolTable
 70
0
  0
ENDTAB
  0
TABLE
  2
APPID
  5
9
100
AcDbSymbolTable
 70
1
  0
APPID
  5
20F
100
AcDbSymbolTableRecord
100
AcDbRegAppTableRecord
  2
ACAD
 70
0
  0
ENDTAB
  0
TABLE
  2
BLOCK_RECORD
  5
1
100
AcDbSymbolTable
 70
0
  0
BLOCK_RECORD
  5
210
100
AcDbSymbolTableRecord
100
AcDbBlockTableRecord
  2
*Model_Space
  0
BLOCK_RECORD
  5
211
100
AcDbSymbolTableRecord
100
AcDbBlockTableRecord
  2
*Paper_Space
  0
BLOCK_RECORD
  5
212
100
AcDbSymbolTableRecord
100
AcDbBlockTableRecord
  2
_FILLED
  0
ENDTAB
  0
TABLE
  2
DIMSTYLE
  5
A
100
AcDbSymbolTable
 70
1
100
AcDbDimStyleTable
 71
0
  0
DIMSTYLE
105
213
100
AcDbSymbolTableRecord
100
AcDbDimStyleTableRecord
  2
STANDARD
 70
0
  3

  4

 40
1.0
 41
2.8299462774
 42
1.0
 43
0.38
 44
1.0
 45
0.0
 46
0.0
 47
0.01
 48
0.01
140
3.9619247884
141
0.09
142
0.0
143
25.4
144
1.0
145
0.0
146
1.0
147
0.625
 71
1
 72
0
 73
0
 74
0
 75
0
 76
0
 77
1
 78
8
 79
2
170
0
171
1
172
0
173
0
174
0
175
0
176
0
177
0
178
0
270
2
179
2
271
2
272
2
273
2
274
2
275
0
280
0
281
0
282
0
283
1
284
8
285
0
286
0
287
3
288
0
340
11
278
46
341
212
342
212
343
212
344
212
  0
ENDTAB
  0
ENDSEC
  0
SECTION
  2
BLOCKS
  0
BLOCK
  5
20
100
AcDbEntity
  8
0
100
AcDbBlockBegin
  2
*Model_Space
 70
0
 10
0.0
 20
0.0
 30
0.0
  3
*Model_Space
  1

  0
ENDBLK
  5
21
100
AcDbEntity
  8
0
100
AcDbBlockEnd
  0
BLOCK
  5
1C
100
AcDbEntity
  8
0
100
AcDbBlockBegin
  2
*Paper_Space
 70
0
 10
0.0
 20
0.0
 30
0.0
  3
*Paper_Space
  1

  0
ENDBLK
  5
1D
100
AcDbEntity
  8
0
100
AcDbBlockEnd
  0
BLOCK
  5
214
100
AcDbEntity
  8
0
100
AcDbBlockBegin
  2
_FILLED
 70
64
 10
0.0
 20
0.0
  3
_FILLED
  1

  0
SOLID
  5
215
100
AcDbEntity
  8
0
  6
BYBLOCK
 62
0
100
AcDbTrace
 10
0.0
 20
0.0
 11
-1.0
 21
0.25
 12
-1.0
 22
-0.25
 13
-1.0
 23
-0.25
  0
ENDBLK
  5
216
100
AcDbEntity
  8
0
  6
BYBLOCK
 62
0
100
AcDbBlockEnd
  0
ENDSEC
  0
SECTION
  2
ENTITIES
  0
LINE
  5
217
100
AcDbEntity
  8
0
100
AcDbLine
 62
7
  6
BYLAYER
 10
25.2409039457
 20
163.9219012375
 11
25.7604615089
 21
147.3905242256
  0
LINE
  5
218
100
AcDbEntity
  8
0
100
AcDbLine
 62
7
  6
BYLAYER
 10
25.8593518417
 20
164.9153486727
 11
25.8593518417
 21
164.4219012369
  0
LINE
  5
219
100
AcDbEntity
  8
0
100
AcDbLine
 62
7
  6
BYLAYER
 10
25.2975885453
 20
164.9153486731
 11
25.815393991
 21
180.5469592999
  0
LINE
  5
21A
100
AcDbEntity
  8
0
100
AcDbLine
 62
7
  6
BYLAYER
 10
25.841891457
 20
163.9219012377
 11
25.8593518417
 21
164.4219012369
  0
LINE
  5
21B
100
AcDbEntity
  8
0
100
AcDbLine
 62
7
  6
BYLAYER
 10
45.7409039457
 20
163.9219012377
 11
46.2604626419
 21
147.3904881761
  0
LINE
  5
21C
100
AcDbEntity
  8
0
100
AcDbLine
 62
7
  6
BYLAYER
 10
45.2409039457
 20
146.4219012383
 11
45.240903946
 21
181.5153486726
  0
LINE
  5
21D
100
AcDbEntity
  8
0
100
AcDbLine
 62
7
  6
BYLAYER
 10
46.3593518418
 20
164.9153486731
 11
46.3593518418
 21
164.4219012371
  0
LINE
  5
21E
100
AcDbEntity
  8
0
100
AcDbLine
 62
7
  6
BYLAYER
 10
45.7975884451
 20
164.9153420172
 11
46.2684213247
 21
180.5469556937
  0
LINE
  5
21F
100
AcDbEntity
  8
0
100
AcDbLine
 62
7
  6
BYLAYER
 10
46.3593518417
 20
164.4219012371
 11
46.341891457
 21
163.9219012377
  0
LINE
  5
220
100
AcDbEntity
  8
0
100
AcDbLine
 62
7
  6
BYLAYER
 10
61.9409039452
 20
186.5153486726
 11
61.9409039429
 21
187.4154060122
  0
LINE
  5
221
100
AcDbEntity
  8
0
100
AcDbLine
 62
7
  6
BYLAYER
 10
62.0107242048
 20
186.5153486726
 11
62.0107242033
 21
187.4153860074
  0
LINE
  5
222
100
AcDbEntity
  8
0
100
AcDbLine
 62
7
  6
BYLAYER
 10
67.2409039457
 20
181.5153486726
 11
67.2409039457
 21
186.5153486726
  0
LINE
  5
223
100
AcDbEntity
  8
0
100
AcDbLine
 62
7
  6
BYLAYER
 10
67.3107242054
 20
181.5153486726
 11
67.3107242054
 21
186.5153486726
  0
LINE
  5
224
100
AcDbEntity
  8
0
100
AcDbLine
 62
7
  6
BYLAYER
 10
75.1710836863
 20
181.5153486726
 11
75.1710836872
 21
188.415372638
  0
LINE
  5
225
100
AcDbEntity
  8
0
100
AcDbLine
 62
7
  6
BYLAYER
 10
75.2409039459
 20
181.5153486726
 11
75.2409039466
 21
188.4153680261
  0
LINE
  5
226
100
AcDbEntity
  8
0
100
AcDbLine
 62
7
  6
BYLAYER
 10
94.8909039461
 20
161.1219012382
 11
94.8925539423
 21
147.3904709996
  0
LINE
  5
227
100
AcDbEntity
  8
0
100
AcDbLine
 62
7
  6
BYLAYER
 10
94.8908968911
 20
146.4219012375
 11
94.890895803
 21
147.3904253846
  0
LINE
  5
228
100
AcDbEntity
  8
0
100
AcDbLine
 62
7
  6
BYLAYER
 10
95.3909039464
 20
160.6320485021
 11
95.3909039464
 21
146.4219012375
  0
LINE
  5
229
100
AcDbEntity
  8
0
100
AcDbLine
 62
7
  6
BYLAYER
 10
96.3909039464
 20
161.6943811122
 11
96.3909039464
 21
161.6315549901
  0
LINE
  5
22A
100
AcDbEntity
  8
0
100
AcDbLine
 62
7
  6
BYLAYER
 10
99.8909039457
 20
153.167161087
 11
99.8909039457
 21
161.6315549901
  0
LINE
  5
22B
100
AcDbEntity
  8
0
100
AcDbLine
 62
7
  6
BYLAYER
 10
99.8909039457
 20
161.6629668501
 11
99.8909039457
 21
161.738352672
  0
LINE
  5
22C
100
AcDbEntity
  8
0
100
AcDbLine
 62
7
  6
BYLAYER
 10
121.0899222916
 20
146.4219012371
 11
95.3918855964
 21
146.4219012371
  0
LINE
  5
22D
100
AcDbEntity
  8
0
100
AcDbLine
 62
7
  6
BYLAYER
 10
26.7599691298
 20
146.4219012371
 11
95.3909039464
 21
146.4219012371
  0
LINE
  5
22E
100
AcDbEntity
  8
0
100
AcDbLine
 62
7
  6
BYLAYER
 10
121.2083705724
 20
146.4219012371
 11
211.7218387615
 21
146.4219012371
  0
LINE
  5
22F
100
AcDbEntity
  8
0
100
AcDbLine
 62
7
  6
BYLAYER
 10
46.2604626419
 20
147.3904881761
 11
94.8925539423
 21
147.3904709996
  0
LINE
  5
230
100
AcDbEntity
  8
0
100
AcDbLine
 62
7
  6
BYLAYER
 10
95.3914760739
 20
147.3904652896
 11
121.0903318158
 21
147.3904652896
  0
LINE
  5
231
100
AcDbEntity
  8
0
100
AcDbLine
 62
7
  6
BYLAYER
 10
121.5892499927
 20
147.3904857973
 11
192.2213452495
 21
147.3904881761
  0
LINE
  5
232
100
AcDbEntity
  8
0
100
AcDbLine
 62
7
  6
BYLAYER
 10
192.9409039457
 20
147.3906811574
 11
212.7213459672
 21
147.3904928253
  0
LINE
  5
233
100
AcDbEntity
  8
0
100
AcDbLine
 62
7
  6
BYLAYER
 10
25.7604960392
 20
147.3905235428
 11
45.2409039457
 21
147.3907505011
  0
LINE
  5
234
100
AcDbEntity
  8
0
100
AcDbLine
 62
7
  6
BYLAYER
 10
95.3913159496
 20
148.4219012382
 11
94.892438249
 21
148.4219014698
  0
LINE
  5
235
100
AcDbEntity
  8
0
100
AcDbLine
 62
7
  6
BYLAYER
 10
121.5893666594
 20
148.4219014693
 11
121.0904919408
 21
148.4219012381
  0
LINE
  5
236
100
AcDbEntity
  8
0
100
AcDbLine
 62
7
  6
BYLAYER
 10
101.8909039456
 20
151.1681479663
 11
114.5909039458
 21
151.1681479663
  0
LINE
  5
237
100
AcDbEntity
  8
0
100
AcDbLine
 62
7
  6
BYLAYER
 10
96.3909039462
 20
161.6315549901
 11
99.8909039457
 21
161.6315549901
  0
LINE
  5
238
100
AcDbEntity
  8
0
100
AcDbLine
 62
7
  6
BYLAYER
 10
116.5909039457
 20
161.6315549901
 11
120.090903946
 21
161.6315549901
  0
LINE
  5
239
100
AcDbEntity
  8
0
100
AcDbLine
 62
7
  6
BYLAYER
 10
96.3909039464
 20
161.6943811122
 11
99.8909039457
 21
161.6943811122
  0
LINE
  5
23A
100
AcDbEntity
  8
0
100
AcDbLine
 62
7
  6
BYLAYER
 10
116.5909039457
 20
161.6943811122
 11
120.0909039457
 21
161.6943811122
  0
LINE
  5
23B
100
AcDbEntity
  8
0
100
AcDbLine
 62
7
  6
BYLAYER
 10
116.0909039475
 20
161.7540580515
 11
100.3909038714
 21
161.7540580516
  0
LINE
  5
23C
100
AcDbEntity
  8
0
100
AcDbLine
 62
7
  6
BYLAYER
 10
120.7909039465
 20
161.9219012379
 11
95.690903945
 21
161.9219012379
  0
LINE
  5
23D
100
AcDbEntity
  8
0
100
AcDbLine
 62
7
  6
BYLAYER
 10
116.5909039457
 20
161.6315549901
 11
116.5909039457
 21
153.167161087
  0
LINE
  5
23E
100
AcDbEntity
  8
0
100
AcDbLine
 62
7
  6
BYLAYER
 10
116.5909039457
 20
161.6629668501
 11
116.5909039457
 21
161.7383526719
  0
LINE
  5
23F
100
AcDbEntity
  8
0
100
AcDbLine
 62
7
  6
BYLAYER
 10
120.0909039457
 20
161.6315549901
 11
120.0909039457
 21
161.6943811122
  0
LINE
  5
240
100
AcDbEntity
  8
0
100
AcDbLine
 62
7
  6
BYLAYER
 10
213.2409039457
 20
163.9219012377
 11
192.9409039457
 21
163.9219012377
  0
LINE
  5
241
100
AcDbEntity
  8
0
100
AcDbLine
 62
7
  6
BYLAYER
 10
25.2409039457
 20
163.9219012375
 11
45.2409039458
 21
163.9219012373
  0
LINE
  5
242
100
AcDbEntity
  8
0
100
AcDbLine
 62
7
  6
BYLAYER
 10
45.7409039457
 20
163.9219012377
 11
192.7409039457
 21
163.9219012377
  0
LINE
  5
243
100
AcDbEntity
  8
0
100
AcDbLine
 62
7
  6
BYLAYER
 10
212.6224560497
 20
164.4219012371
 11
192.9409039457
 21
164.4219012369
  0
LINE
  5
244
100
AcDbEntity
  8
0
100
AcDbLine
 62
7
  6
BYLAYER
 10
25.8593518417
 20
164.4219012369
 11
45.2409039458
 21
164.4219012369
  0
LINE
  5
245
100
AcDbEntity
  8
0
100
AcDbLine
 62
7
  6
BYLAYER
 10
46.3593518418
 20
164.4219012371
 11
192.1224560497
 21
164.4219012372
  0
LINE
  5
246
100
AcDbEntity
  8
0
100
AcDbLine
 62
7
  6
BYLAYER
 10
213.2975885427
 20
164.915348673
 11
192.9409039457
 21
164.9153441336
  0
LINE
  5
247
100
AcDbEntity
  8
0
100
AcDbLine
 62
7
  6
BYLAYER
 10
25.2975885453
 20
164.9153486731
 11
45.2409039458
 21
164.9153486731
  0
LINE
  5
248
100
AcDbEntity
  8
0
100
AcDbLine
 62
7
  6
BYLAYER
 10
45.7975884451
 20
164.9153486731
 11
192.7975885453
 21
164.9153486731
  0
LINE
  5
249
100
AcDbEntity
  8
0
100
AcDbLine
 62
7
  6
BYLAYER
 10
121.0909039457
 20
146.4219012374
 11
121.0909039457
 21
160.6320485021
  0
LINE
  5
24A
100
AcDbEntity
  8
0
100
AcDbLine
 62
7
  6
BYLAYER
 10
121.5909039457
 20
147.3904825895
 11
121.5909039457
 21
146.4219012374
  0
LINE
  5
24B
100
AcDbEntity
  8
0
100
AcDbLine
 62
7
  6
BYLAYER
 10
121.5892499927
 20
147.3904857973
 11
121.5909039762
 21
161.1220936631
  0
LINE
  5
24C
100
AcDbEntity
  8
0
100
AcDbLine
 62
7
  6
BYLAYER
 10
212.7797846307
 20
180.5469593004
 11
192.9409039457
 21
180.5454555001
  0
LINE
  5
24D
100
AcDbEntity
  8
0
100
AcDbLine
 62
7
  6
BYLAYER
 10
192.3267557642
 20
180.5469558016
 11
46.2684213247
 21
180.5469556937
  0
LINE
  5
24E
100
AcDbEntity
  8
0
100
AcDbLine
 62
7
  6
BYLAYER
 10
212.2797276925
 20
181.4512461079
 11
212.7975884196
 21
181.4512461079
  0
LINE
  5
24F
100
AcDbEntity
  8
0
100
AcDbLine
 62
7
  6
BYLAYER
 10
26.8150047469
 20
181.5153486726
 11
212.7975885375
 21
181.5153486726
  0
LINE
  5
250
100
AcDbEntity
  8
0
100
AcDbLine
 62
7
  6
BYLAYER
 10
45.2409039459
 20
180.5454554983
 11
25.815393991
 21
180.5469592999
  0
LINE
  5
251
100
AcDbEntity
  8
0
100
AcDbLine
 62
7
  6
BYLAYER
 10
158.7276083428
 20
181.5153486726
 11
160.248182428
 21
183.0359227578
  0
LINE
  5
252
100
AcDbEntity
  8
0
100
AcDbLine
 62
7
  6
BYLAYER
 10
160.3353780848
 20
182.9487271009
 11
158.9019996565
 21
181.5153486726
  0
LINE
  5
253
100
AcDbEntity
  8
0
100
AcDbLine
 62
7
  6
BYLAYER
 10
163.83042535
 20
184.4180196604
 11
166.2417226633
 21
184.4210825193
  0
LINE
  5
254
100
AcDbEntity
  8
0
100
AcDbLine
 62
7
  6
BYLAYER
 10
163.7432296932
 20
184.5052153172
 11
166.1545270065
 21
184.5082781761
  0
LINE
  5
255
100
AcDbEntity
  8
0
100
AcDbLine
 62
7
  6
BYLAYER
 10
147.3409039456
 20
185.9153486726
 11
155.1409039457
 21
185.9153486726
  0
LINE
  5
256
100
AcDbEntity
  8
0
100
AcDbLine
 62
7
  6
BYLAYER
 10
176.0409039464
 20
186.4219012371
 11
172.2409039487
 21
186.4219012371
  0
LINE
  5
257
100
AcDbEntity
  8
0
100
AcDbLine
 62
7
  6
BYLAYER
 10
171.1102368299
 20
186.4917214977
 11
176.2957478022
 21
186.4917214977
  0
LINE
  5
258
100
AcDbEntity
  8
0
100
AcDbLine
 62
7
  6
BYLAYER
 10
61.9409039451
 20
186.5153486726
 11
67.3107242054
 21
186.5153486726
  0
LINE
  5
259
100
AcDbEntity
  8
0
100
AcDbLine
 62
7
  6
BYLAYER
 10
176.4954929057
 20
186.7136973043
 11
167.9107242054
 21
186.7136937896
  0
LINE
  5
25A
100
AcDbEntity
  8
0
100
AcDbLine
 62
7
  6
BYLAYER
 10
144.9245501871
 20
187.3153486726
 11
146.897588545
 21
187.3153486726
  0
LINE
  5
25B
100
AcDbEntity
  8
0
100
AcDbLine
 62
7
  6
BYLAYER
 10
155.6975885454
 20
187.3153486726
 11
157.6706269035
 21
187.3153486726
  0
LINE
  5
25C
100
AcDbEntity
  8
0
100
AcDbLine
 62
7
  6
BYLAYER
 10
176.1796607921
 20
188.0553380909
 11
167.9051958647
 21
188.0553380904
  0
LINE
  5
25D
100
AcDbEntity
  8
0
100
AcDbLine
 62
7
  6
BYLAYER
 10
75.2409039466
 20
188.4153680261
 11
75.1710836872
 21
188.415372638
  0
LINE
  5
25E
100
AcDbEntity
  8
0
100
AcDbLine
 62
7
  6
BYLAYER
 10
62.0107242033
 20
187.4153860074
 11
61.9409039429
 21
187.4154060122
  0
LINE
  5
25F
100
AcDbEntity
  8
0
100
AcDbLine
 62
7
  6
BYLAYER
 10
144.9245501871
 20
181.5153486726
 11
144.9245501871
 21
187.3153486726
  0
LINE
  5
260
100
AcDbEntity
  8
0
100
AcDbLine
 62
7
  6
BYLAYER
 10
167.8761214373
 20
191.3866837448
 11
168.8849258281
 21
191.3866837448
  0
LINE
  5
261
100
AcDbEntity
  8
0
100
AcDbLine
 62
7
  6
BYLAYER
 10
66.0113893391
 20
191.4153486726
 11
72.1705763404
 21
191.4153486726
  0
LINE
  5
262
100
AcDbEntity
  8
0
100
AcDbLine
 62
7
  6
BYLAYER
 10
167.2409039457
 20
191.4219012371
 11
171.9586357437
 21
191.4219012371
  0
LINE
  5
263
100
AcDbEntity
  8
0
100
AcDbLine
 62
7
  6
BYLAYER
 10
168.8849258281
 20
191.3866837448
 11
173.1590776218
 21
191.2375180132
  0
LINE
  5
264
100
AcDbEntity
  8
0
100
AcDbLine
 62
7
  6
BYLAYER
 10
146.897588545
 20
181.5153486726
 11
146.897588545
 21
187.3153486726
  0
LINE
  5
265
100
AcDbEntity
  8
0
100
AcDbLine
 62
7
  6
BYLAYER
 10
147.3409039455
 20
181.5153486726
 11
147.3409039456
 21
185.9153486726
  0
LINE
  5
266
100
AcDbEntity
  8
0
100
AcDbLine
 62
7
  6
BYLAYER
 10
147.9909039457
 20
181.5153486726
 11
147.9909039457
 21
185.9153486726
  0
LINE
  5
267
100
AcDbEntity
  8
0
100
AcDbLine
 62
7
  6
BYLAYER
 10
148.690903945
 20
181.5153486726
 11
148.690903945
 21
185.9153486726
  0
LINE
  5
268
100
AcDbEntity
  8
0
100
AcDbLine
 62
7
  6
BYLAYER
 10
149.0909039453
 20
181.5153486726
 11
149.0909039453
 21
185.9153486726
  0
LINE
  5
269
100
AcDbEntity
  8
0
100
AcDbLine
 62
7
  6
BYLAYER
 10
149.2909039464
 20
181.5153486726
 11
149.2909039464
 21
185.9153486726
  0
LINE
  5
26A
100
AcDbEntity
  8
0
100
AcDbLine
 62
7
  6
BYLAYER
 10
153.190903945
 20
181.5153486726
 11
153.190903945
 21
185.9153486726
  0
LINE
  5
26B
100
AcDbEntity
  8
0
100
AcDbLine
 62
7
  6
BYLAYER
 10
153.3909039461
 20
181.5153486726
 11
153.3909039461
 21
185.9153486726
  0
LINE
  5
26C
100
AcDbEntity
  8
0
100
AcDbLine
 62
7
  6
BYLAYER
 10
153.7909039464
 20
181.5153486726
 11
153.7909039464
 21
185.9153486726
  0
LINE
  5
26D
100
AcDbEntity
  8
0
100
AcDbLine
 62
7
  6
BYLAYER
 10
154.4909039457
 20
181.5153486726
 11
154.4909039457
 21
185.9153486726
  0
LINE
  5
26E
100
AcDbEntity
  8
0
100
AcDbLine
 62
7
  6
BYLAYER
 10
155.1409039457
 20
181.5153486726
 11
155.1409039457
 21
185.9153486726
  0
LINE
  5
26F
100
AcDbEntity
  8
0
100
AcDbLine
 62
7
  6
BYLAYER
 10
155.6975885456
 20
181.5153486726
 11
155.6975885454
 21
187.3153486726
  0
LINE
  5
270
100
AcDbEntity
  8
0
100
AcDbLine
 62
7
  6
BYLAYER
 10
157.6706269035
 20
181.5153486726
 11
157.6706269035
 21
187.3153486726
  0
LINE
  5
271
100
AcDbEntity
  8
0
100
AcDbLine
 62
7
  6
BYLAYER
 10
160.248182428
 20
183.0359227578
 11
160.3353780848
 21
182.9487271009
  0
LINE
  5
272
100
AcDbEntity
  8
0
100
AcDbLine
 62
7
  6
BYLAYER
 10
163.2409039457
 20
184.4347605223
 11
163.2409039457
 21
187.4219012324
  0
LINE
  5
273
100
AcDbEntity
  8
0
100
AcDbLine
 62
7
  6
BYLAYER
 10
164.6409039461
 20
186.8219012377
 11
164.6409039461
 21
184.5064346213
  0
LINE
  5
274
100
AcDbEntity
  8
0
100
AcDbLine
 62
7
  6
BYLAYER
 10
163.83042535
 20
184.4180196604
 11
163.7432296932
 21
184.5052153172
  0
LINE
  5
275
100
AcDbEntity
  8
0
100
AcDbLine
 62
7
  6
BYLAYER
 10
163.7787206794
 20
184.5053845037
 11
163.8659163362
 21
184.4181888469
  0
LINE
  5
276
100
AcDbEntity
  8
0
100
AcDbLine
 62
7
  6
BYLAYER
 10
166.1545270065
 20
184.5082781761
 11
166.2417226633
 21
184.4210825193
  0
LINE
  5
277
100
AcDbEntity
  8
0
100
AcDbLine
 62
7
  6
BYLAYER
 10
167.8761214373
 20
191.3866837448
 11
167.9051958647
 21
188.0553380899
  0
LINE
  5
278
100
AcDbEntity
  8
0
100
AcDbLine
 62
7
  6
BYLAYER
 10
167.6363700936
 20
182.926435096
 11
167.6363700936
 21
182.2264350893
  0
LINE
  5
279
100
AcDbEntity
  8
0
100
AcDbLine
 62
7
  6
BYLAYER
 10
167.8409039453
 20
182.9219012367
 11
167.8409039453
 21
186.8219012377
  0
LINE
  5
27A
100
AcDbEntity
  8
0
100
AcDbLine
 62
7
  6
BYLAYER
 10
167.8761214374
 20
191.3866837448
 11
167.8761214374
 21
181.5153486726
  0
LINE
  5
27B
100
AcDbEntity
  8
0
100
AcDbLine
 62
7
  6
BYLAYER
 10
167.9107242054
 20
181.5153486726
 11
167.9107242054
 21
186.7136937896
  0
LINE
  5
27C
100
AcDbEntity
  8
0
100
AcDbLine
 62
7
  6
BYLAYER
 10
171.1102368299
 20
181.5153486726
 11
171.1102368299
 21
186.4917214977
  0
LINE
  5
27D
100
AcDbEntity
  8
0
100
AcDbLine
 62
7
  6
BYLAYER
 10
171.2409039457
 20
185.4219012336
 11
171.2409039457
 21
181.5153486726
  0
LINE
  5
27E
100
AcDbEntity
  8
0
100
AcDbLine
 62
7
  6
BYLAYER
 10
167.6376814346
 20
183.4641078728
 11
167.6363700936
 21
182.926435096
  0
LINE
  5
27F
100
AcDbEntity
  8
0
100
AcDbLine
 62
7
  6
BYLAYER
 10
167.2996788946
 20
183.9841607077
 11
167.6376814346
 21
183.4641078728
  0
LINE
  5
280
100
AcDbEntity
  8
0
100
AcDbLine
 62
7
  6
BYLAYER
 10
175.2352439204
 20
189.7162069825
 11
175.9453170125
 21
188.7021175111
  0
LINE
  5
281
100
AcDbEntity
  8
0
100
AcDbLine
 62
7
  6
BYLAYER
 10
176.0998474509
 20
188.441386148
 11
176.5382111169
 21
186.8700788354
  0
LINE
  5
282
100
AcDbEntity
  8
0
100
AcDbLine
 62
7
  6
BYLAYER
 10
176.2334501826
 20
188.0924025335
 11
176.5225132593
 21
187.0562607123
  0
LINE
  5
283
100
AcDbEntity
  8
0
100
AcDbLine
 62
7
  6
BYLAYER
 10
176.0498864801
 20
188.5359801192
 11
176.1796607921
 21
188.0553380909
  0
LINE
  5
284
100
AcDbEntity
  8
0
100
AcDbLine
 62
7
  6
BYLAYER
 10
192.1224560497
 20
164.4219012372
 11
192.1399164344
 21
163.9219012377
  0
LINE
  5
285
100
AcDbEntity
  8
0
100
AcDbLine
 62
7
  6
BYLAYER
 10
192.7975886454
 20
164.9153453482
 11
192.3267568955
 21
180.5469594459
  0
LINE
  5
286
100
AcDbEntity
  8
0
100
AcDbLine
 62
7
  6
BYLAYER
 10
192.1224560497
 20
164.9153486731
 11
192.1224560497
 21
164.4219012372
  0
LINE
  5
287
100
AcDbEntity
  8
0
100
AcDbLine
 62
7
  6
BYLAYER
 10
192.9409039457
 20
146.4219012372
 11
192.9409039457
 21
181.5153486726
  0
LINE
  5
288
100
AcDbEntity
  8
0
100
AcDbLine
 62
7
  6
BYLAYER
 10
192.7409039457
 20
163.9219012377
 11
192.2213452495
 21
147.3904881761
  0
LINE
  5
289
100
AcDbEntity
  8
0
100
AcDbLine
 62
7
  6
BYLAYER
 10
212.6399164344
 20
163.9219012377
 11
212.6224560497
 21
164.4219012371
  0
LINE
  5
28A
100
AcDbEntity
  8
0
100
AcDbLine
 62
7
  6
BYLAYER
 10
213.2975885414
 20
164.915348673
 11
212.7796738584
 21
180.5469555958
  0
LINE
  5
28B
100
AcDbEntity
  8
0
100
AcDbLine
 62
7
  6
BYLAYER
 10
212.6224560497
 20
164.9153486727
 11
212.6224560497
 21
164.4219012371
  0
LINE
  5
28C
100
AcDbEntity
  8
0
100
AcDbLine
 62
7
  6
BYLAYER
 10
212.7975885453
 20
180.5835070075
 11
212.7975885453
 21
181.5153486724
  0
LINE
  5
28D
100
AcDbEntity
  8
0
100
AcDbLine
 62
7
  6
BYLAYER
 10
213.2409039457
 20
163.9219012377
 11
212.7213459672
 21
147.3904928253
  0
ARC
  5
28E
100
AcDbEntity
  8
0
100
AcDbCircle
 62
7
  6
BYLAYER
 10
16.5042399534
 20
186.7606459041
 40
151.4064915342
100
AcDbArc
 50
359.9822295545
 51
0.4899479627
  0
ARC
  5
28F
100
AcDbEntity
  8
0
100
AcDbCircle
 62
7
  6
BYLAYER
 10
163.7940247955
 20
179.5064816892
 40
4.998991701
100
AcDbArc
 50
90.582196418
 51
96.4031423786
  0
ARC
  5
290
100
AcDbEntity
  8
0
100
AcDbCircle
 62
7
  6
BYLAYER
 10
65.9413046461
 20
187.4149479449
 40
4.0004007382
100
AcDbArc
 50
89.9958459056
 51
179.9924307183
  0
ARC
  5
291
100
AcDbEntity
  8
0
100
AcDbCircle
 62
7
  6
BYLAYER
 10
171.9586308715
 20
187.4218918787
 40
4.0000093584
100
AcDbArc
 50
35.0000697819
 51
89.999930211
  0
ARC
  5
292
100
AcDbEntity
  8
0
100
AcDbCircle
 62
7
  6
BYLAYER
 10
167.2409069722
 20
187.4218982106
 40
4.0000030265
100
AcDbArc
 50
90.0000433512
 51
179.9999567165
  0
ARC
  5
293
100
AcDbEntity
  8
0
100
AcDbCircle
 62
7
  6
BYLAYER
 10
165.2185825019
 20
182.9327953851
 40
2.5188572222
100
AcDbArc
 50
324.2710786617
 51
343.7141970632
  0
ARC
  5
294
100
AcDbEntity
  8
0
100
AcDbCircle
 62
7
  6
BYLAYER
 10
166.2409039457
 20
186.8219012375
 40
1.5999999996
100
AcDbArc
 50
0.0000000101
 51
179.99999999
  0
ARC
  5
295
100
AcDbEntity
  8
0
100
AcDbCircle
 62
7
  6
BYLAYER
 10
166.2409039457
 20
182.9219012371
 40
1.5999999996
100
AcDbArc
 50
333.5456170766
 51
359.9999999874
  0
ARC
  5
296
100
AcDbEntity
  8
0
100
AcDbCircle
 62
7
  6
BYLAYER
 10
166.2409138084
 20
182.9218977217
 40
1.4999997801
100
AcDbArc
 50
339.2068782716
 51
20.2315636501
  0
ARC
  5
297
100
AcDbEntity
  8
0
100
AcDbCircle
 62
7
  6
BYLAYER
 10
120.0889494485
 20
160.6915522938
 40
1.0034630957
100
AcDbArc
 50
45.0411364834
 51
56.6471947165
  0
ARC
  5
298
100
AcDbEntity
  8
0
100
AcDbCircle
 62
7
  6
BYLAYER
 10
96.3928584436
 20
160.6915522938
 40
1.0034630956
100
AcDbArc
 50
123.3528053184
 51
134.9588635132
  0
ARC
  5
299
100
AcDbEntity
  8
0
100
AcDbCircle
 62
7
  6
BYLAYER
 10
172.2409039489
 20
185.4219012339
 40
1.0000000032
100
AcDbArc
 50
90.0000000114
 51
180.000000019
  0
ARC
  5
29A
100
AcDbEntity
  8
0
100
AcDbCircle
 62
7
  6
BYLAYER
 10
26.8150047469
 20
180.5153486726
 40
1.0
100
AcDbArc
 50
90.0
 51
178.1877858606
  0
ARC
  5
29B
100
AcDbEntity
  8
0
100
AcDbCircle
 62
7
  6
BYLAYER
 10
47.2679215823
 20
180.5153486726
 40
1.0
100
AcDbArc
 50
90.0
 51
178.1885396578
  0
ARC
  5
29C
100
AcDbEntity
  8
0
100
AcDbCircle
 62
7
  6
BYLAYER
 10
47.2599691299
 20
147.4219012371
 40
1.0
100
AcDbArc
 50
181.8001319513
 51
270.0
  0
ARC
  5
29D
100
AcDbEntity
  8
0
100
AcDbCircle
 62
7
  6
BYLAYER
 10
26.7599691298
 20
147.4218243606
 40
0.9999231215
100
AcDbArc
 50
181.7947127376
 51
269.9999999994
  0
ARC
  5
29E
100
AcDbEntity
  8
0
100
AcDbCircle
 62
7
  6
BYLAYER
 10
96.390692461
 20
160.6317321809
 40
0.9998056984
100
AcDbArc
 50
89.9878806391
 51
179.981872298
  0
ARC
  5
29F
100
AcDbEntity
  8
0
100
AcDbCircle
 62
7
  6
BYLAYER
 10
120.0911154312
 20
160.6317321809
 40
0.9998056984
100
AcDbArc
 50
0.0181276996
 51
90.0121193548
  0
ARC
  5
2A0
100
AcDbEntity
  8
0
100
AcDbCircle
 62
7
  6
BYLAYER
 10
120.7908709928
 20
161.1218407443
 40
0.8000467591
100
AcDbArc
 50
0.0181132294
 51
89.9976400429
  0
ARC
  5
2A1
100
AcDbEntity
  8
0
100
AcDbCircle
 62
7
  6
BYLAYER
 10
95.6909368765
 20
161.1218408967
 40
0.8000466376
100
AcDbArc
 50
90.0023583693
 51
179.9956785414
  0
ARC
  5
2A2
100
AcDbEntity
  8
0
100
AcDbCircle
 62
7
  6
BYLAYER
 10
174.3070071874
 20
187.5549619252
 40
2.0000062553
100
AcDbArc
 50
29.3738223059
 51
34.9999693728
  0
ARC
  5
2A3
100
AcDbEntity
  8
0
100
AcDbCircle
 62
7
  6
BYLAYER
 10
174.3070071874
 20
187.5549619252
 40
2.0000062553
100
AcDbArc
 50
15.5880816863
 51
26.3089553062
  0
ARC
  5
2A4
100
AcDbEntity
  8
0
100
AcDbCircle
 62
7
  6
BYLAYER
 10
191.3272555084
 20
180.5153486726
 40
1.0
100
AcDbArc
 50
1.8114637122
 51
90.0
  0
ARC
  5
2A5
100
AcDbEntity
  8
0
100
AcDbCircle
 62
7
  6
BYLAYER
 10
211.7218387615
 20
147.4219012371
 40
1.0
100
AcDbArc
 50
270.0000000001
 51
358.1998680092
  0
ARC
  5
2A6
100
AcDbEntity
  8
0
100
AcDbCircle
 62
7
  6
BYLAYER
 10
211.7801723437
 20
180.5153486726
 40
1.0
100
AcDbArc
 50
1.854454045
 51
89.9999996726
  0
ARC
  5
2A7
100
AcDbEntity
  8
0
100
AcDbCircle
 62
7
  6
BYLAYER
 10
191.2218387615
 20
147.4219012371
 40
1.0
100
AcDbArc
 50
270.0000000102
 51
358.1998680416
  0
ARC
  5
2A8
100
AcDbEntity
  8
0
100
AcDbCircle
 62
7
  6
BYLAYER
 10
176.0409039467
 20
186.9219012359
 40
0.4999999989
100
AcDbArc
 50
350.9157341995
 51
15.5880513281
  0
ARC
  5
2A9
100
AcDbEntity
  8
0
100
AcDbCircle
 62
7
  6
BYLAYER
 10
176.0409039467
 20
186.9219012359
 40
0.4999999989
100
AcDbArc
 50
269.9999999699
 51
345.5449636296
  0
ARC
  5
2AA
100
AcDbEntity
  8
0
100
AcDbCircle
 62
7
  6
BYLAYER
 10
331.7389918859
 20
230.0830924256
 40
161.136704772
100
AcDbArc
 50
195.118752693
 51
195.5827040954
  0
SPLINE
  5
2AB
100
AcDbEntity
  8
0
100
AcDbSpline
 62
7
  6
BYLAYER
 70
0
 71
3
 72
9
 73
5
 74
0
 42
0.0000001
 43
0.0000001
 44
0.0000000001
 40
0.0
 40
0.0
 40
0.0
 40
0.0
 40
0.4999229332
 40
1.0
 40
1.0
 40
1.0
 40
1.0
 10
167.212047224
 20
184.0709216343
 30
0.0
 10
167.0746104221
 20
184.2085315077
 30
0.0
 10
166.7423591585
 20
184.4323159744
 30
0.0
 10
166.3490739809
 20
184.5086710357
 30
0.0
 10
166.1545270065
 20
184.5082781761
 30
0.0
  0
SPLINE
  5
2AC
100
AcDbEntity
  8
0
100
AcDbSpline
 62
7
  6
BYLAYER
 70
0
 71
3
 72
9
 73
5
 74
0
 42
0.0000001
 43
0.0000001
 44
0.0000000001
 40
0.0
 40
0.0
 40
0.0
 40
0.0
 40
0.500004325
 40
1.0
 40
1.0
 40
1.0
 40
1.0
 10
163.236520069
 20
184.474288701
 30
0.0
 10
162.6793062602
 20
184.4118206119
 30
0.0
 10
161.5779070144
 20
184.0967722892
 30
0.0
 10
160.6445345482
 20
183.432512747
 30
0.0
 10
160.2481824338
 20
183.0359227641
 30
0.0
  0
SPLINE
  5
2AD
100
AcDbEntity
  8
0
100
AcDbSpline
 62
7
  6
BYLAYER
 70
0
 71
3
 72
9
 73
5
 74
0
 42
0.0000001
 43
0.0000001
 44
0.0000000001
 40
0.0
 40
0.0
 40
0.0
 40
0.0
 40
0.3317754994
 40
1.0
 40
1.0
 40
1.0
 40
1.0
 10
116.5909039457
 20
161.7383526719
 30
0.0
 10
116.5909039457
 20
161.7399939614
 30
0.0
 10
116.5660443224
 20
161.7449631719
 30
0.0
 10
116.4687239712
 20
161.749156685
 30
0.0
 10
116.3835253928
 20
161.7510874977
 30
0.0
  0
SPLINE
  5
2AE
100
AcDbEntity
  8
0
100
AcDbSpline
 62
7
  6
BYLAYER
 70
0
 71
3
 72
8
 73
4
 74
0
 42
0.0000001
 43
0.0000001
 44
0.0000000001
 40
0.0
 40
0.0
 40
0.0
 40
0.0
 40
1.0
 40
1.0
 40
1.0
 40
1.0
 10
116.3835253928
 20
161.7510874977
 30
0.0
 10
116.2991752666
 20
161.7529990823
 30
0.0
 10
116.195096869
 20
161.7540580515
 30
0.0
 10
116.0909039475
 20
161.7540580515
 30
0.0
  0
SPLINE
  5
2AF
100
AcDbEntity
  8
0
100
AcDbSpline
 62
7
  6
BYLAYER
 70
0
 71
3
 72
10
 73
6
 74
0
 42
0.0000001
 43
0.0000001
 44
0.0000000001
 40
0.0
 40
0.0
 40
0.0
 40
0.0
 40
0.3855686628
 40
0.7722133698
 40
1.0
 40
1.0
 40
1.0
 40
1.0
 10
100.3909038714
 20
161.7540580519
 30
0.0
 10
100.3043721098
 20
161.7540580515
 30
0.0
 10
100.1317312173
 20
161.7526996874
 30
0.0
 10
99.9371392033
 20
161.7467382533
 30
0.0
 10
99.8909039443
 20
161.7406224394
 30
0.0
 10
99.8909039457
 20
161.738352672
 30
0.0
  0
SPLINE
  5
2B0
100
AcDbEntity
  8
0
100
AcDbSpline
 62
7
  6
BYLAYER
 70
0
 71
3
 72
11
 73
7
 74
0
 42
0.0000001
 43
0.0000001
 44
0.0000000001
 40
0.0
 40
0.0
 40
0.0
 40
0.0
 40
0.2500364878
 40
0.5000007099
 40
0.7499636363
 40
1.0
 40
1.0
 40
1.0
 40
1.0
 10
72.1705763404
 20
191.4153486726
 30
0.0
 10
72.5608346831
 20
191.4153546533
 30
0.0
 10
73.3498475637
 20
191.2593770815
 30
0.0
 10
74.3468111682
 20
190.5914862415
 30
0.0
 10
75.0148528387
 20
189.594662808
 30
0.0
 10
75.1710836871
 20
188.8056797355
 30
0.0
 10
75.1710836871
 20
188.4154215865
 30
0.0
  0
SPLINE
  5
2B1
100
AcDbEntity
  8
0
100
AcDbSpline
 62
7
  6
BYLAYER
 70
0
 71
3
 72
9
 73
5
 74
0
 42
0.0000001
 43
0.0000001
 44
0.0000000001
 40
0.0
 40
0.0
 40
0.0
 40
0.0
 40
0.5000125642
 40
1.0
 40
1.0
 40
1.0
 40
1.0
 10
121.0909039457
 20
160.6948746241
 30
0.0
 10
121.0909039457
 20
160.8248833554
 30
0.0
 10
121.0390938187
 20
161.0874792764
 30
0.0
 10
120.8899435092
 20
161.3097143641
 30
0.0
 10
120.7979953877
 20
161.401617108
 30
0.0
  0
SPLINE
  5
2B2
100
AcDbEntity
  8
0
100
AcDbSpline
 62
7
  6
BYLAYER
 70
0
 71
3
 72
9
 73
5
 74
0
 42
0.0000001
 43
0.0000001
 44
0.0000000001
 40
0.0
 40
0.0
 40
0.0
 40
0.0
 40
0.2513238563
 40
1.0
 40
1.0
 40
1.0
 40
1.0
 10
120.6406463204
 20
161.5297460339
 30
0.0
 10
120.6001656416
 20
161.5563873485
 30
0.0
 10
120.4317010507
 20
161.6508167633
 30
0.0
 10
120.2352651439
 20
161.6943811122
 30
0.0
 10
120.0909039461
 20
161.6943811122
 30
0.0
  0
SPLINE
  5
2B3
100
AcDbEntity
  8
0
100
AcDbSpline
 62
7
  6
BYLAYER
 70
0
 71
3
 72
9
 73
5
 74
0
 42
0.0000001
 43
0.0000001
 44
0.0000000001
 40
0.0
 40
0.0
 40
0.0
 40
0.0
 40
0.7486761437
 40
1.0
 40
1.0
 40
1.0
 40
1.0
 10
96.3909039463
 20
161.6943811122
 30
0.0
 10
96.2465427483
 20
161.6943811122
 30
0.0
 10
96.0501068411
 20
161.6508167632
 30
0.0
 10
95.8816422501
 20
161.5563873482
 30
0.0
 10
95.8411615712
 20
161.5297460335
 30
0.0
  0
SPLINE
  5
2B4
100
AcDbEntity
  8
0
100
AcDbSpline
 62
7
  6
BYLAYER
 70
0
 71
3
 72
9
 73
5
 74
0
 42
0.0000001
 43
0.0000001
 44
0.0000000001
 40
0.0
 40
0.0
 40
0.0
 40
0.0
 40
0.4999874358
 40
1.0
 40
1.0
 40
1.0
 40
1.0
 10
95.6838125044
 20
161.4016171081
 30
0.0
 10
95.5918643829
 20
161.3097143641
 30
0.0
 10
95.4427140735
 20
161.0874792764
 30
0.0
 10
95.3909039464
 20
160.8248833554
 30
0.0
 10
95.3909039464
 20
160.6948746241
 30
0.0
  0
SPLINE
  5
2B5
100
AcDbEntity
  8
0
100
AcDbSpline
 62
7
  6
BYLAYER
 70
0
 71
3
 72
9
 73
5
 74
0
 42
0.0000001
 43
0.0000001
 44
0.0000000001
 40
0.0
 40
0.0
 40
0.0
 40
0.0
 40
0.5002023647
 40
1.0
 40
1.0
 40
1.0
 40
1.0
 10
166.2417226633
 20
184.4210825193
 30
0.0
 10
166.436335107
 20
184.421475511
 30
0.0
 10
166.8294730924
 20
184.3446856706
 30
0.0
 10
167.1622104989
 20
184.1216937495
 30
0.0
 10
167.2997303389
 20
183.9842121662
 30
0.0
  0
SPLINE
  5
2B6
100
AcDbEntity
  8
0
100
AcDbSpline
 62
7
  6
BYLAYER
 70
0
 71
3
 72
9
 73
5
 74
0
 42
0.0000001
 43
0.0000001
 44
0.0000000001
 40
0.0
 40
0.0
 40
0.0
 40
0.0
 40
0.5000806425
 40
1.0
 40
1.0
 40
1.0
 40
1.0
 10
160.3353780906
 20
182.9487271072
 30
0.0
 10
160.7906635254
 20
183.4042857789
 30
0.0
 10
161.8887957102
 20
184.1453310668
 30
0.0
 10
163.1866010723
 20
184.4115931254
 30
0.0
 10
163.83042535
 20
184.4180196604
 30
0.0
  0
ELLIPSE
  5
2B7
100
AcDbEntity
  8
0
100
AcDbEllipse
 62
7
  6
BYLAYER
 10
72.2404469615
 20
188.4153486726
 30
0.0
 11
3.0004569841
 21
0.0
 31
0.0
 40
0.9998476952
 41
0.0000064512
 42
1.5708152076
  0
ELLIPSE
  5
2B8
100
AcDbEntity
  8
0
100
AcDbEllipse
 62
7
  6
BYLAYER
 10
114.5909039457
 20
153.167161087
 30
0.0
 11
2.0
 21
-0.0
 31
0.0
 40
0.9995065604
 41
-1.5707963267
 42
0.0
  0
ELLIPSE
  5
2B9
100
AcDbEntity
  8
0
100
AcDbEllipse
 62
7
  6
BYLAYER
 10
101.8909039457
 20
153.167161087
 30
0.0
 11
2.0
 21
0.0
 31
0.0
 40
0.9995065604
 41
3.1415926536
 42
4.7123889803
  0
ELLIPSE
  5
2BA
100
AcDbEntity
  8
0
100
AcDbEllipse
 62
7
  6
BYLAYER
 10
66.0113335169
 20
187.4153486726
 30
0.0
 11
4.0006093122
 21
-0.0
 31
0.0
 40
0.9998476952
 41
1.5707823734
 42
3.1415833199
  0
ENDSEC
  0
SECTION
  2
OBJECTS
  0
DICTIONARY
  5
C
100
AcDbDictionary
280
0
281
1
  3
ACAD_GROUP
350
D
  3
ACAD_MLINESTYLE
350
17
  3
ACAD_LAYOUT
350
1A
  3
ACAD_PLOTSETTINGS
350
19
  3
ACAD_PLOTSTYLENAME
350
E
  0
DICTIONARY
  5
D
102
{ACAD_REACTORS
330
C
102
}
100
AcDbDictionary
280
0
281
1
  0
ACDBDICTIONARYWDFLT
  5
E
102
{ACAD_REACTORS
330
C
102
}
100
AcDbDictionary
281
1
  3
Normal
350
F
100
AcDbDictionaryWithDefault
340
F
  0
DICTIONARY
  5
17
102
{ACAD_REACTORS
330
C
102
}
100
AcDbDictionary
280
0
281
1
  3
Standard
350
18
  0
DICTIONARY
  5
19
102
{ACAD_REACTORS
330
C
102
}
100
AcDbDictionary
281
1
  0
DICTIONARY
  5
1A
102
{ACAD_REACTORS
330
C
102
}
100
AcDbDictionary
281
1
  3
Model
350
2BB
  3
Layout1
350
2BC
  0
ACDBPLACEHOLDER
  5
F
102
{ACAD_REACTORS
330
E
102
}
  0
MLINESTYLE
  5
18
102
{ACAD_REACTORS
330
17
102
}
100
AcDbMlineStyle
  2
STANDARD
 70
0
  3

 62
256
 51
90.0
 52
90.0
 71
2
 49
0.5
 62
256
  6
BYLAYER
 49
-0.5
 62
256
  6
BYLAYER
  0
LAYOUT
  5
2BB
102
{ACAD_REACTORS
330
1A
102
}
100
AcDbPlotSettings
  1

  2
none_device
  4

  6

 40
0.0
 41
0.0
 42
0.0
 43
0.0
 44
210.0
 45
297.0
 46
0.0
 47
0.0
 48
0.0
 49
0.0
140
0.0
141
0.0
142
1.0
143
1.0
 70
1024
 72
1
 73
0
 74
0
  7

 75
0
147
1.0
148
0.0
149
0.0
100
AcDbLayout
  1
Model
 70
0
 71
0
 10
0.0
 20
0.0
 11
210.0
 21
297.0
 12
0.0
 22
0.0
 32
0.0
 14
0.0
 24
0.0
 34
0.0
 15
0.0
 25
0.0
 35
0.0
146
0.0
 13
0.0
 23
0.0
 33
0.0
 16
1.0
 26
0.0
 36
0.0
 17
0.0
 27
1.0
 37
0.0
 76
0
330
210
345
0
346
0
  0
LAYOUT
  5
2BC
102
{ACAD_REACTORS
330
1A
102
}
100
AcDbPlotSettings
  1

  2
none_device
  4

  6

 40
0.0
 41
0.0
 42
0.0
 43
0.0
 44
210.0
 45
297.0
 46
0.0
 47
0.0
 48
0.0
 49
0.0
140
0.0
141
0.0
142
1.0
143
1.0
 70
0
 72
1
 73
0
 74
0
  7

 75
0
147
1.0
148
0.0
149
0.0
100
AcDbLayout
  1
Layout1
 70
0
 71
1
 10
0.0
 20
0.0
 11
210.0
 21
297.0
 12
0.0
 22
0.0
 32
0.0
 14
0.0
 24
0.0
 34
0.0
 15
0.0
 25
0.0
 35
0.0
146
0.0
 13
0.0
 23
0.0
 33
0.0
 16
1.0
 26
0.0
 36
0.0
 17
0.0
 27
1.0
 37
0.0
 76
0
330
211
345
0
346
0
  0
ENDSEC
  0
EOF
