999
DXF file: C:\Users\sesa63760\Dev\_Creo\CAD\MCADID0004003_3D-CAD\drw0001_7.dxf
999
Pro/ENGINEER 2019471 by Parametric Technology Corporation
  0
SECTION
  2
HEADER
  9
$ACADVER
  1
AC1024
  9
$DWGCODEPAGE
  3
ANSI_1252
  9
$EXTMAX
 10
41.6752525253
 20
58.9407142857
 30
0.0
  9
$EXTMIN
 10
0.0
 20
0.0
 30
0.0
  9
$LIMMIN
 10
0.0
 20
0.0
  9
$LIMMAX
 10
41.6752525253
 20
58.9407142857
  9
$VIEWCTR
 10
20.8376262626
 20
29.4703571429
  9
$VIEWSIZE
 40
58.9407142857
  9
$CLAYER
  8
0
  9
$LTSCALE
 40
3.8420613757
  9
$CELTYPE
  6
BYLAYER
  9
$DIMSCALE
 40
1.0
  9
$DIMASZ
 40
0.4961339586
  9
$DIMEXO
 40
1.0
  9
$DIMDLI
 40
2.6545151323
  9
$DIMEXE
 40
1.0
  9
$DIMCEN
 40
0.6287009524
  9
$DIMLFAC
 40
1.0
  9
$DIMBLK
  1
_FILLED
  9
$DIMALT
 70
0
  9
$DIMALTF
 40
0.0393700787
  9
$DIMTXT
 40
0.6945875421
  9
$DIMTOL
 70
1
  9
$DIMLIM
 70
0
  9
$DIMTFAC
 40
1.0
  9
$DIMTP
 40
0.01
  9
$DIMTM
 40
0.01
  9
$DIMGAP
 40
0.625
  9
$DIMDSEP
 70
46
  9
$AUNITS
 70
0
  9
$PDMODE
 70
3
  9
$PDSIZE
 40
0.3125
  9
$HANDSEED
  5
336
  9
$TILEMODE
 70
1
  9
$MEASUREMENT
 70
1
  9
$INSUNITS
 70
4
  0
ENDSEC
  0
SECTION
  2
CLASSES
  0
CLASS
  1
ACDBDICTIONARYWDFLT
  2
AcDbDictionaryWithDefault
  3
AutoCAD 2000
 90
0
 91
1
280
0
281
0
  0
CLASS
  1
ACDBPLACEHOLDER
  2
AcDbPlaceHolder
  3
AutoCAD 2000
 90
0
 91
1
280
0
281
0
  0
CLASS
  1
LAYOUT
  2
AcDbLayout
  3
AutoCAD 2000
 90
0
 91
0
280
0
281
0
  0
ENDSEC
  0
SECTION
  2
TABLES
  0
TABLE
  2
VPORT
  5
8
100
AcDbSymbolTable
 70
2
  0
VPORT
  5
1F4
100
AcDbSymbolTableRecord
100
AcDbViewportTableRecord
  2
*ACTIVE
 70
0
 10
0.0
 20
0.0
 11
1.0
 21
1.0
 12
20.8376262626
 22
29.4703571429
 13
0.0
 23
0.0
 14
1.0
 24
1.0
 15
0.0
 25
0.0
 16
0.0
 26
0.0
 36
1.0
 17
0.0
 27
0.0
 37
0.0
 40
58.9407142857
 41
0.7070707071
 42
50.0
 43
0.0
 44
0.0
 50
0.0
 51
0.0
 71
0
 72
100
 73
1
 74
1
 75
0
 76
0
 77
0
 78
0
  0
ENDTAB
  0
TABLE
  2
LTYPE
  5
5
100
AcDbSymbolTable
 70
6
  0
LTYPE
  5
14
100
AcDbSymbolTableRecord
100
AcDbLinetypeTableRecord
  2
BYBLOCK
 70
0
  3

 72
65
 73
0
 40
0.0
  0
LTYPE
  5
15
100
AcDbSymbolTableRecord
100
AcDbLinetypeTableRecord
  2
BYLAYER
 70
0
  3

 72
65
 73
0
 40
0.0
  0
LTYPE
  5
16
100
AcDbSymbolTableRecord
100
AcDbLinetypeTableRecord
  2
CONTINUOUS
 70
64
  3
Solid line
 72
65
 73
0
 40
0.0
  0
LTYPE
  5
1F5
100
AcDbSymbolTableRecord
100
AcDbLinetypeTableRecord
  2
CENTER
 70
64
  3
____ _ ____ _ ____ _ ____ _ ____ _ ____ _ ____
 72
65
 73
4
 40
0.6
 49
0.375
 74
0
 49
-0.075
 74
0
 49
0.075
 74
0
 49
-0.075
 74
0
  0
LTYPE
  5
1F6
100
AcDbSymbolTableRecord
100
AcDbLinetypeTableRecord
  2
HIDDEN
 70
64
  3
- - - - - - - - - - - - - - - - - - - -
 72
65
 73
2
 40
0.2
 49
0.1
 74
0
 49
-0.1
 74
0
  0
LTYPE
  5
1F7
100
AcDbSymbolTableRecord
100
AcDbLinetypeTableRecord
  2
PHANTOM
 70
64
  3
_____ _ _ _____ _ _ _____ _ _ _____
 72
65
 73
6
 40
0.8
 49
0.45
 74
0
 49
-0.05
 74
0
 49
0.1
 74
0
 49
-0.05
 74
0
 49
0.1
 74
0
 49
-0.05
 74
0
  0
LTYPE
  5
1F8
100
AcDbSymbolTableRecord
100
AcDbLinetypeTableRecord
  2
DOT
 70
64
  3
. . . . . . . . . . . . . . . . . . . .
 72
65
 73
2
 40
0.2
 49
0.1
 74
0
 49
-0.1
 74
0
  0
LTYPE
  5
1F9
100
AcDbSymbolTableRecord
100
AcDbLinetypeTableRecord
  2
DASHED
 70
64
  3
- - - - - - - - - - - - - - - - - - - -
 72
65
 73
2
 40
0.2
 49
0.1
 74
0
 49
-0.1
 74
0
  0
ENDTAB
  0
TABLE
  2
LAYER
  5
2
100
AcDbSymbolTable
 70
36
  0
LAYER
  5
10
100
AcDbSymbolTableRecord
100
AcDbLayerTableRecord
  2
0
 70
0
 62
7
  6
CONTINUOUS
370
-3
390
F
  0
LAYER
  5
1FA
100
AcDbSymbolTableRecord
100
AcDbLayerTableRecord
  2
DEFAULT_1
 70
0
 62
7
  6
CENTER
370
-3
390
F
  0
LAYER
  5
1FB
100
AcDbSymbolTableRecord
100
AcDbLayerTableRecord
  2
DEFAULT_2
 70
0
 62
7
  6
HIDDEN
370
-3
390
F
  0
LAYER
  5
1FC
100
AcDbSymbolTableRecord
100
AcDbLayerTableRecord
  2
DEFAULT_3
 70
0
 62
7
  6
PHANTOM
370
-3
390
F
  0
LAYER
  5
1FD
100
AcDbSymbolTableRecord
100
AcDbLayerTableRecord
  2
00_COMPONENTS
 70
0
 62
7
  6
CONTINUOUS
370
-3
390
F
  0
LAYER
  5
1FE
100
AcDbSymbolTableRecord
100
AcDbLayerTableRecord
  2
01_1_DEFAULT_DATUMS
 70
0
 62
7
  6
CONTINUOUS
370
-3
390
F
  0
LAYER
  5
1FF
100
AcDbSymbolTableRecord
100
AcDbLayerTableRecord
  2
01_PLANES
 70
0
 62
7
  6
CONTINUOUS
370
-3
390
F
  0
LAYER
  5
200
100
AcDbSymbolTableRecord
100
AcDbLayerTableRecord
  2
02_COORD_SYS
 70
0
 62
7
  6
CONTINUOUS
370
-3
390
F
  0
LAYER
  5
201
100
AcDbSymbolTableRecord
100
AcDbLayerTableRecord
  2
03_AXES
 70
0
 62
7
  6
CONTINUOUS
370
-3
390
F
  0
LAYER
  5
202
100
AcDbSymbolTableRecord
100
AcDbLayerTableRecord
  2
04_POINTS
 70
0
 62
7
  6
CONTINUOUS
370
-3
390
F
  0
LAYER
  5
203
100
AcDbSymbolTableRecord
100
AcDbLayerTableRecord
  2
05_CURVES
 70
0
 62
7
  6
CONTINUOUS
370
-3
390
F
  0
LAYER
  5
204
100
AcDbSymbolTableRecord
100
AcDbLayerTableRecord
  2
06_SURFS
 70
0
 62
7
  6
CONTINUOUS
370
-3
390
F
  0
LAYER
  5
205
100
AcDbSymbolTableRecord
100
AcDbLayerTableRecord
  2
07_COSMETICS
 70
0
 62
7
  6
CONTINUOUS
370
-3
390
F
  0
LAYER
  5
206
100
AcDbSymbolTableRecord
100
AcDbLayerTableRecord
  2
10_NOTES
 70
0
 62
7
  6
CONTINUOUS
370
-3
390
F
  0
LAYER
  5
207
100
AcDbSymbolTableRecord
100
AcDbLayerTableRecord
  2
11_NOTES_PUB
 70
0
 62
7
  6
CONTINUOUS
370
-3
390
F
  0
LAYER
  5
208
100
AcDbSymbolTableRecord
100
AcDbLayerTableRecord
  2
13_REF_GTOL
 70
0
 62
7
  6
CONTINUOUS
370
-3
390
F
  0
LAYER
  5
209
100
AcDbSymbolTableRecord
100
AcDbLayerTableRecord
  2
16_MISC
 70
0
 62
7
  6
CONTINUOUS
370
-3
390
F
  0
LAYER
  5
20A
100
AcDbSymbolTableRecord
100
AcDbLayerTableRecord
  2
17_NO_PRINT
 70
0
 62
7
  6
CONTINUOUS
370
-3
390
F
  0
LAYER
  5
20B
100
AcDbSymbolTableRecord
100
AcDbLayerTableRecord
  2
18_DATUM_CAMS_JOINTS
 70
0
 62
7
  6
CONTINUOUS
370
-3
390
F
  0
LAYER
  5
20C
100
AcDbSymbolTableRecord
100
AcDbLayerTableRecord
  2
19_DATUM_FUNCTIONAL
 70
0
 62
7
  6
CONTINUOUS
370
-3
390
F
  0
LAYER
  5
20D
100
AcDbSymbolTableRecord
100
AcDbLayerTableRecord
  2
20_DATUM_KINEMATIC_SCHEME
 70
0
 62
7
  6
CONTINUOUS
370
-3
390
F
  0
ENDTAB
  0
TABLE
  2
STYLE
  5
3
100
AcDbSymbolTable
 70
1
  0
STYLE
  5
11
100
AcDbSymbolTableRecord
100
AcDbTextStyleTableRecord
  2
STANDARD
 70
0
 40
0.0
 41
1.0
 50
0.0
 71
0
 42
0.2
  3
ARIAL.TTF
  4

  0
STYLE
  5
20E
100
AcDbSymbolTableRecord
100
AcDbTextStyleTableRecord
  2
TEXTSTYLE_1
 70
0
 40
0.0
 41
0.8
 50
0.0
 71
0
 42
0.2
  3
gdt
  4

  0
ENDTAB
  0
TABLE
  2
VIEW
  5
6
100
AcDbSymbolTable
 70
0
  0
ENDTAB
  0
TABLE
  2
UCS
  5
7
100
AcDbSymbolTable
 70
0
  0
ENDTAB
  0
TABLE
  2
APPID
  5
9
100
AcDbSymbolTable
 70
1
  0
APPID
  5
20F
100
AcDbSymbolTableRecord
100
AcDbRegAppTableRecord
  2
ACAD
 70
0
  0
ENDTAB
  0
TABLE
  2
BLOCK_RECORD
  5
1
100
AcDbSymbolTable
 70
0
  0
BLOCK_RECORD
  5
210
100
AcDbSymbolTableRecord
100
AcDbBlockTableRecord
  2
*Model_Space
  0
BLOCK_RECORD
  5
211
100
AcDbSymbolTableRecord
100
AcDbBlockTableRecord
  2
*Paper_Space
  0
BLOCK_RECORD
  5
212
100
AcDbSymbolTableRecord
100
AcDbBlockTableRecord
  2
_FILLED
  0
ENDTAB
  0
TABLE
  2
DIMSTYLE
  5
A
100
AcDbSymbolTable
 70
1
100
AcDbDimStyleTable
 71
0
  0
DIMSTYLE
105
213
100
AcDbSymbolTableRecord
100
AcDbDimStyleTableRecord
  2
STANDARD
 70
0
  3

  4

 40
1.0
 41
0.4961339586
 42
1.0
 43
0.38
 44
1.0
 45
0.0
 46
0.0
 47
0.01
 48
0.01
140
0.6945875421
141
0.09
142
0.0
143
25.4
144
1.0
145
0.0
146
1.0
147
0.625
 71
1
 72
0
 73
0
 74
0
 75
0
 76
0
 77
1
 78
8
 79
2
170
0
171
1
172
0
173
0
174
0
175
0
176
0
177
0
178
0
270
2
179
2
271
2
272
2
273
2
274
2
275
0
280
0
281
0
282
0
283
1
284
8
285
0
286
0
287
3
288
0
340
11
278
46
341
212
342
212
343
212
344
212
  0
ENDTAB
  0
ENDSEC
  0
SECTION
  2
BLOCKS
  0
BLOCK
  5
20
100
AcDbEntity
  8
0
100
AcDbBlockBegin
  2
*Model_Space
 70
0
 10
0.0
 20
0.0
 30
0.0
  3
*Model_Space
  1

  0
ENDBLK
  5
21
100
AcDbEntity
  8
0
100
AcDbBlockEnd
  0
BLOCK
  5
1C
100
AcDbEntity
  8
0
100
AcDbBlockBegin
  2
*Paper_Space
 70
0
 10
0.0
 20
0.0
 30
0.0
  3
*Paper_Space
  1

  0
ENDBLK
  5
1D
100
AcDbEntity
  8
0
100
AcDbBlockEnd
  0
BLOCK
  5
214
100
AcDbEntity
  8
0
100
AcDbBlockBegin
  2
_FILLED
 70
64
 10
0.0
 20
0.0
  3
_FILLED
  1

  0
SOLID
  5
215
100
AcDbEntity
  8
0
  6
BYBLOCK
 62
0
100
AcDbTrace
 10
0.0
 20
0.0
 11
-1.0
 21
0.25
 12
-1.0
 22
-0.25
 13
-1.0
 23
-0.25
  0
ENDBLK
  5
216
100
AcDbEntity
  8
0
  6
BYBLOCK
 62
0
100
AcDbBlockEnd
  0
ENDSEC
  0
SECTION
  2
ENTITIES
  0
LINE
  5
217
100
AcDbEntity
  8
0
100
AcDbLine
 62
7
  6
BYLAYER
 10
24.8796291954
 20
4.3646428571
 11
22.8796291954
 21
4.3646428571
  0
LINE
  5
218
100
AcDbEntity
  8
0
100
AcDbLine
 62
7
  6
BYLAYER
 10
12.1097807144
 20
54.4646428571
 11
11.9097807144
 21
54.2646428571
  0
LINE
  5
219
100
AcDbEntity
  8
0
100
AcDbLine
 62
7
  6
BYLAYER
 10
25.0850207069
 20
14.3646428571
 11
22.6742376673
 21
14.3646428571
  0
LINE
  5
21A
100
AcDbEntity
  8
0
100
AcDbLine
 62
7
  6
BYLAYER
 10
25.2847466304
 20
14.5541756659
 11
22.4745117603
 21
14.5541756659
  0
LINE
  5
21B
100
AcDbEntity
  8
0
100
AcDbLine
 62
7
  6
BYLAYER
 10
10.1583705529
 20
45.0646428571
 11
10.1047807144
 21
44.8646428571
  0
LINE
  5
21C
100
AcDbEntity
  8
0
100
AcDbLine
 62
7
  6
BYLAYER
 10
20.4097807144
 20
48.1646428571
 11
20.9097807144
 21
48.6646428571
  0
LINE
  5
21D
100
AcDbEntity
  8
0
100
AcDbLine
 62
7
  6
BYLAYER
 10
22.389562189
 20
16.1751100483
 11
25.3696962018
 21
16.1751100483
  0
LINE
  5
21E
100
AcDbEntity
  8
0
100
AcDbLine
 62
7
  6
BYLAYER
 10
27.0157303773
 20
16.3646428571
 11
14.8036834886
 21
16.3646428571
  0
LINE
  5
21F
100
AcDbEntity
  8
0
100
AcDbLine
 62
7
  6
BYLAYER
 10
27.2128394909
 20
16.5299132216
 11
14.606721938
 21
16.5299132216
  0
LINE
  5
220
100
AcDbEntity
  8
0
100
AcDbLine
 62
7
  6
BYLAYER
 10
8.9097807144
 20
44.864642858
 11
8.9097807144
 21
41.8646428567
  0
LINE
  5
221
100
AcDbEntity
  8
0
100
AcDbLine
 62
7
  6
BYLAYER
 10
8.9097807144
 20
48.8646428563
 11
8.9097807144
 21
51.8646428576
  0
LINE
  5
222
100
AcDbEntity
  8
0
100
AcDbLine
 62
7
  6
BYLAYER
 10
9.3427934163
 20
44.4323619025
 11
9.3427934163
 21
42.2969238117
  0
LINE
  5
223
100
AcDbEntity
  8
0
100
AcDbLine
 62
7
  6
BYLAYER
 10
9.3427934163
 20
49.2969238118
 11
9.3427934163
 21
51.4323618833
  0
LINE
  5
224
100
AcDbEntity
  8
0
100
AcDbLine
 62
7
  6
BYLAYER
 10
21.4097807144
 20
45.5646428571
 11
20.9097807144
 21
45.0646428571
  0
LINE
  5
225
100
AcDbEntity
  8
0
100
AcDbLine
 62
7
  6
BYLAYER
 10
27.6597807144
 20
19.0646428571
 11
14.1597807144
 21
19.0646428571
  0
LINE
  5
226
100
AcDbEntity
  8
0
100
AcDbLine
 62
7
  6
BYLAYER
 10
28.7096609464
 20
19.5646428571
 11
13.1099004824
 21
19.5646428571
  0
LINE
  5
227
100
AcDbEntity
  8
0
100
AcDbLine
 62
7
  6
BYLAYER
 10
28.9097807144
 20
19.7646428571
 11
12.9097807144
 21
19.7646428571
  0
LINE
  5
228
100
AcDbEntity
  8
0
100
AcDbLine
 62
7
  6
BYLAYER
 10
11.9097807144
 20
54.2646428571
 11
11.9097807144
 21
51.8646428571
  0
LINE
  5
229
100
AcDbEntity
  8
0
100
AcDbLine
 62
7
  6
BYLAYER
 10
11.9097807144
 20
48.2497830945
 11
11.9097807144
 21
45.4795072499
  0
LINE
  5
22A
100
AcDbEntity
  8
0
100
AcDbLine
 62
7
  6
BYLAYER
 10
11.9097807144
 20
41.8646428571
 11
11.9097807144
 21
27.3646428571
  0
LINE
  5
22B
100
AcDbEntity
  8
0
100
AcDbLine
 62
7
  6
BYLAYER
 10
12.6597807144
 20
54.6646428571
 11
12.6597807144
 21
54.4646428571
  0
LINE
  5
22C
100
AcDbEntity
  8
0
100
AcDbLine
 62
7
  6
BYLAYER
 10
12.9097807144
 20
26.3646428571
 11
12.9097807144
 21
23.4646428571
  0
LINE
  5
22D
100
AcDbEntity
  8
0
100
AcDbLine
 62
7
  6
BYLAYER
 10
12.9097807144
 20
23.3646428571
 11
12.9097807144
 21
19.7646428571
  0
LINE
  5
22E
100
AcDbEntity
  8
0
100
AcDbLine
 62
7
  6
BYLAYER
 10
12.9597807144
 20
23.4646428571
 11
12.9597807144
 21
23.3646428571
  0
LINE
  5
22F
100
AcDbEntity
  8
0
100
AcDbLine
 62
7
  6
BYLAYER
 10
12.9097807144
 20
26.3646428571
 11
11.9097807144
 21
27.3646428571
  0
LINE
  5
230
100
AcDbEntity
  8
0
100
AcDbLine
 62
7
  6
BYLAYER
 10
14.606721938
 20
16.5299132216
 11
14.1597807144
 21
19.0646428571
  0
LINE
  5
231
100
AcDbEntity
  8
0
100
AcDbLine
 62
7
  6
BYLAYER
 10
14.1597807144
 20
19.5646428571
 11
14.1597807144
 21
19.0646428572
  0
LINE
  5
232
100
AcDbEntity
  8
0
100
AcDbLine
 62
7
  6
BYLAYER
 10
12.9097807144
 20
23.3646428571
 11
28.9096282989
 21
23.3646428571
  0
LINE
  5
233
100
AcDbEntity
  8
0
100
AcDbLine
 62
7
  6
BYLAYER
 10
28.9096583081
 20
23.4646428571
 11
12.9099031207
 21
23.4646428571
  0
LINE
  5
234
100
AcDbEntity
  8
0
100
AcDbLine
 62
7
  6
BYLAYER
 10
10.1583705529
 20
48.6646428571
 11
10.1047807144
 21
48.8646428571
  0
LINE
  5
235
100
AcDbEntity
  8
0
100
AcDbLine
 62
7
  6
BYLAYER
 10
12.9097807144
 20
26.3646428571
 11
28.9097807144
 21
26.3646428571
  0
LINE
  5
236
100
AcDbEntity
  8
0
100
AcDbLine
 62
7
  6
BYLAYER
 10
29.9097807144
 20
27.3646428571
 11
11.9097807144
 21
27.3646428571
  0
LINE
  5
237
100
AcDbEntity
  8
0
100
AcDbLine
 62
7
  6
BYLAYER
 10
20.002862857
 20
54.4646428571
 11
20.002862857
 21
54.6646428571
  0
LINE
  5
238
100
AcDbEntity
  8
0
100
AcDbLine
 62
7
  6
BYLAYER
 10
20.4767680125
 20
44.4323619016
 11
20.4767680125
 21
42.2969238319
  0
LINE
  5
239
100
AcDbEntity
  8
0
100
AcDbLine
 62
7
  6
BYLAYER
 10
20.4767680125
 20
49.2969238126
 11
20.4767680125
 21
51.4323619016
  0
LINE
  5
23A
100
AcDbEntity
  8
0
100
AcDbLine
 62
7
  6
BYLAYER
 10
22.4745117603
 20
14.5541756659
 11
22.389562189
 21
16.1751100483
  0
LINE
  5
23B
100
AcDbEntity
  8
0
100
AcDbLine
 62
7
  6
BYLAYER
 10
21.1695883355
 20
44.4067529225
 11
21.1695883355
 21
42.322532813
  0
LINE
  5
23C
100
AcDbEntity
  8
0
100
AcDbLine
 62
7
  6
BYLAYER
 10
21.1695883355
 20
49.3225327917
 11
21.1695883355
 21
51.4067529285
  0
LINE
  5
23D
100
AcDbEntity
  8
0
100
AcDbLine
 62
7
  6
BYLAYER
 10
21.8166985718
 20
54.6646428571
 11
21.8166985718
 21
54.4646428571
  0
LINE
  5
23E
100
AcDbEntity
  8
0
100
AcDbLine
 62
7
  6
BYLAYER
 10
22.8796291954
 20
4.3646428571
 11
22.8796291954
 21
14.3646428571
  0
LINE
  5
23F
100
AcDbEntity
  8
0
100
AcDbLine
 62
7
  6
BYLAYER
 10
24.8796291954
 20
4.3646428571
 11
24.8796291954
 21
14.3646428571
  0
LINE
  5
240
100
AcDbEntity
  8
0
100
AcDbLine
 62
7
  6
BYLAYER
 10
25.2847466304
 20
14.5541756659
 11
25.3696962018
 21
16.1751100483
  0
LINE
  5
241
100
AcDbEntity
  8
0
100
AcDbLine
 62
7
  6
BYLAYER
 10
31.6611908759
 20
48.6646428571
 11
31.7147807144
 21
48.8646428571
  0
LINE
  5
242
100
AcDbEntity
  8
0
100
AcDbLine
 62
7
  6
BYLAYER
 10
27.6597807144
 20
19.5646428571
 11
27.6597807144
 21
19.0646428572
  0
LINE
  5
243
100
AcDbEntity
  8
0
100
AcDbLine
 62
7
  6
BYLAYER
 10
28.8597807144
 20
23.4646428571
 11
28.8597807144
 21
23.3646428571
  0
LINE
  5
244
100
AcDbEntity
  8
0
100
AcDbLine
 62
7
  6
BYLAYER
 10
28.9097807144
 20
26.3646428571
 11
28.9097807144
 21
23.4646428571
  0
LINE
  5
245
100
AcDbEntity
  8
0
100
AcDbLine
 62
7
  6
BYLAYER
 10
28.9097807144
 20
23.3646428571
 11
28.9097807144
 21
19.7646428571
  0
LINE
  5
246
100
AcDbEntity
  8
0
100
AcDbLine
 62
7
  6
BYLAYER
 10
29.1597807144
 20
54.6646428571
 11
29.1597807144
 21
54.4646428571
  0
LINE
  5
247
100
AcDbEntity
  8
0
100
AcDbLine
 62
7
  6
BYLAYER
 10
29.9097807144
 20
54.2646428571
 11
29.9097807144
 21
51.8646428571
  0
LINE
  5
248
100
AcDbEntity
  8
0
100
AcDbLine
 62
7
  6
BYLAYER
 10
29.9097807144
 20
48.2497784643
 11
29.9097807144
 21
45.4795026198
  0
LINE
  5
249
100
AcDbEntity
  8
0
100
AcDbLine
 62
7
  6
BYLAYER
 10
29.9097807144
 20
41.8646428571
 11
29.9097807144
 21
27.3646428571
  0
LINE
  5
24A
100
AcDbEntity
  8
0
100
AcDbLine
 62
7
  6
BYLAYER
 10
27.2128394909
 20
16.5299132216
 11
27.6597807144
 21
19.0646428571
  0
LINE
  5
24B
100
AcDbEntity
  8
0
100
AcDbLine
 62
7
  6
BYLAYER
 10
28.9097807144
 20
26.3646428571
 11
29.9097807144
 21
27.3646428571
  0
LINE
  5
24C
100
AcDbEntity
  8
0
100
AcDbLine
 62
7
  6
BYLAYER
 10
20.4097807144
 20
45.5646428571
 11
20.9097807144
 21
45.0646428571
  0
LINE
  5
24D
100
AcDbEntity
  8
0
100
AcDbLine
 62
7
  6
BYLAYER
 10
32.6499730933
 20
44.4067529223
 11
32.6499730933
 21
42.322532786
  0
LINE
  5
24E
100
AcDbEntity
  8
0
100
AcDbLine
 62
7
  6
BYLAYER
 10
32.6499730933
 20
49.322532792
 11
32.6499730933
 21
51.4067529012
  0
LINE
  5
24F
100
AcDbEntity
  8
0
100
AcDbLine
 62
7
  6
BYLAYER
 10
32.9097807144
 20
41.8646428551
 11
32.9097807144
 21
44.8646428584
  0
LINE
  5
250
100
AcDbEntity
  8
0
100
AcDbLine
 62
7
  6
BYLAYER
 10
32.9097807144
 20
48.8646428558
 11
32.9097807144
 21
51.8646428592
  0
LINE
  5
251
100
AcDbEntity
  8
0
100
AcDbLine
 62
7
  6
BYLAYER
 10
32.9097807144
 20
41.8646428571
 11
8.9097807119
 21
41.8646428571
  0
LINE
  5
252
100
AcDbEntity
  8
0
100
AcDbLine
 62
7
  6
BYLAYER
 10
21.4097807144
 20
48.1646428571
 11
20.9097807144
 21
48.6646428571
  0
LINE
  5
253
100
AcDbEntity
  8
0
100
AcDbLine
 62
7
  6
BYLAYER
 10
31.6611908759
 20
45.0646428571
 11
31.7147807144
 21
44.8646428571
  0
LINE
  5
254
100
AcDbEntity
  8
0
100
AcDbLine
 62
7
  6
BYLAYER
 10
8.9097807144
 20
44.8646428571
 11
32.9097807144
 21
44.8646428571
  0
LINE
  5
255
100
AcDbEntity
  8
0
100
AcDbLine
 62
7
  6
BYLAYER
 10
10.3041247713
 20
45.5646428571
 11
10.69822062
 21
45.5646428571
  0
LINE
  5
256
100
AcDbEntity
  8
0
100
AcDbLine
 62
7
  6
BYLAYER
 10
10.7949132568
 20
45.5646428571
 11
11.0751596661
 21
45.5646428571
  0
LINE
  5
257
100
AcDbEntity
  8
0
100
AcDbLine
 62
7
  6
BYLAYER
 10
11.3027739759
 20
45.5646428571
 11
11.620371805
 21
45.5646428571
  0
LINE
  5
258
100
AcDbEntity
  8
0
100
AcDbLine
 62
7
  6
BYLAYER
 10
11.9750132439
 20
45.5646428571
 11
12.3245283058
 21
45.5646428571
  0
LINE
  5
259
100
AcDbEntity
  8
0
100
AcDbLine
 62
7
  6
BYLAYER
 10
12.8001288605
 20
45.5646428571
 11
13.1755808556
 21
45.5646428571
  0
LINE
  5
25A
100
AcDbEntity
  8
0
100
AcDbLine
 62
7
  6
BYLAYER
 10
13.7640028687
 20
45.5646428571
 11
14.1589677094
 21
45.5646428571
  0
LINE
  5
25B
100
AcDbEntity
  8
0
100
AcDbLine
 62
7
  6
BYLAYER
 10
14.8501431171
 20
45.5646428571
 11
15.2578628453
 21
45.5646428571
  0
LINE
  5
25C
100
AcDbEntity
  8
0
100
AcDbLine
 62
7
  6
BYLAYER
 10
16.0399654448
 20
45.5646428571
 11
16.453463863
 21
45.5646428571
  0
LINE
  5
25D
100
AcDbEntity
  8
0
100
AcDbLine
 62
7
  6
BYLAYER
 10
17.3131116619
 20
45.5646428571
 11
17.7253136976
 21
45.5646428571
  0
LINE
  5
25E
100
AcDbEntity
  8
0
100
AcDbLine
 62
7
  6
BYLAYER
 10
18.6477978837
 20
45.5646428571
 11
19.0516506457
 21
45.5646428571
  0
LINE
  5
25F
100
AcDbEntity
  8
0
100
AcDbLine
 62
7
  6
BYLAYER
 10
20.0211872588
 20
45.5646428571
 11
20.4097807144
 21
45.5646428571
  0
LINE
  5
260
100
AcDbEntity
  8
0
100
AcDbLine
 62
7
  6
BYLAYER
 10
21.4097807144
 20
45.5646428571
 11
21.79837417
 21
45.5646428571
  0
LINE
  5
261
100
AcDbEntity
  8
0
100
AcDbLine
 62
7
  6
BYLAYER
 10
22.7679107832
 20
45.5646428571
 11
23.1717635451
 21
45.5646428571
  0
LINE
  5
262
100
AcDbEntity
  8
0
100
AcDbLine
 62
7
  6
BYLAYER
 10
24.0942477312
 20
45.5646428571
 11
24.5064497669
 21
45.5646428571
  0
LINE
  5
263
100
AcDbEntity
  8
0
100
AcDbLine
 62
7
  6
BYLAYER
 10
25.3660975658
 20
45.5646428571
 11
25.7795959841
 21
45.5646428571
  0
LINE
  5
264
100
AcDbEntity
  8
0
100
AcDbLine
 62
7
  6
BYLAYER
 10
26.5616985835
 20
45.5646428571
 11
26.9694183118
 21
45.5646428571
  0
LINE
  5
265
100
AcDbEntity
  8
0
100
AcDbLine
 62
7
  6
BYLAYER
 10
27.6605937194
 20
45.5646428571
 11
28.0555585601
 21
45.5646428571
  0
LINE
  5
266
100
AcDbEntity
  8
0
100
AcDbLine
 62
7
  6
BYLAYER
 10
28.6439805732
 20
45.5646428571
 11
29.0194325683
 21
45.5646428571
  0
LINE
  5
267
100
AcDbEntity
  8
0
100
AcDbLine
 62
7
  6
BYLAYER
 10
29.495033123
 20
45.5646428571
 11
29.8445481849
 21
45.5646428571
  0
LINE
  5
268
100
AcDbEntity
  8
0
100
AcDbLine
 62
7
  6
BYLAYER
 10
30.1991896239
 20
45.5646428571
 11
30.5167874529
 21
45.5646428571
  0
LINE
  5
269
100
AcDbEntity
  8
0
100
AcDbLine
 62
7
  6
BYLAYER
 10
30.7444017628
 20
45.5646428571
 11
31.024648172
 21
45.5646428571
  0
LINE
  5
26A
100
AcDbEntity
  8
0
100
AcDbLine
 62
7
  6
BYLAYER
 10
31.1213408088
 20
45.5646428571
 11
31.5154366575
 21
45.5646428571
  0
LINE
  5
26B
100
AcDbEntity
  8
0
100
AcDbLine
 62
7
  6
BYLAYER
 10
31.5154366575
 20
48.1646428571
 11
31.1213408088
 21
48.1646428571
  0
LINE
  5
26C
100
AcDbEntity
  8
0
100
AcDbLine
 62
7
  6
BYLAYER
 10
31.024648172
 20
48.1646428571
 11
30.7444017628
 21
48.1646428571
  0
LINE
  5
26D
100
AcDbEntity
  8
0
100
AcDbLine
 62
7
  6
BYLAYER
 10
30.5167874529
 20
48.1646428571
 11
30.1991896239
 21
48.1646428571
  0
LINE
  5
26E
100
AcDbEntity
  8
0
100
AcDbLine
 62
7
  6
BYLAYER
 10
29.8445481849
 20
48.1646428571
 11
29.495033123
 21
48.1646428571
  0
LINE
  5
26F
100
AcDbEntity
  8
0
100
AcDbLine
 62
7
  6
BYLAYER
 10
29.0194325683
 20
48.1646428571
 11
28.6439805732
 21
48.1646428571
  0
LINE
  5
270
100
AcDbEntity
  8
0
100
AcDbLine
 62
7
  6
BYLAYER
 10
28.0555585601
 20
48.1646428571
 11
27.6605937194
 21
48.1646428571
  0
LINE
  5
271
100
AcDbEntity
  8
0
100
AcDbLine
 62
7
  6
BYLAYER
 10
26.9694183118
 20
48.1646428571
 11
26.5616985835
 21
48.1646428571
  0
LINE
  5
272
100
AcDbEntity
  8
0
100
AcDbLine
 62
7
  6
BYLAYER
 10
25.7795959841
 20
48.1646428571
 11
25.3660975658
 21
48.1646428571
  0
LINE
  5
273
100
AcDbEntity
  8
0
100
AcDbLine
 62
7
  6
BYLAYER
 10
24.5064497669
 20
48.1646428571
 11
24.0942477312
 21
48.1646428571
  0
LINE
  5
274
100
AcDbEntity
  8
0
100
AcDbLine
 62
7
  6
BYLAYER
 10
23.1717635451
 20
48.1646428571
 11
22.7679107832
 21
48.1646428571
  0
LINE
  5
275
100
AcDbEntity
  8
0
100
AcDbLine
 62
7
  6
BYLAYER
 10
21.79837417
 20
48.1646428571
 11
21.4097807144
 21
48.1646428571
  0
LINE
  5
276
100
AcDbEntity
  8
0
100
AcDbLine
 62
7
  6
BYLAYER
 10
20.4097807144
 20
48.1646428571
 11
20.0211872588
 21
48.1646428571
  0
LINE
  5
277
100
AcDbEntity
  8
0
100
AcDbLine
 62
7
  6
BYLAYER
 10
19.0516506457
 20
48.1646428571
 11
18.6477978837
 21
48.1646428571
  0
LINE
  5
278
100
AcDbEntity
  8
0
100
AcDbLine
 62
7
  6
BYLAYER
 10
17.7253136976
 20
48.1646428571
 11
17.3131116619
 21
48.1646428571
  0
LINE
  5
279
100
AcDbEntity
  8
0
100
AcDbLine
 62
7
  6
BYLAYER
 10
16.453463863
 20
48.1646428571
 11
16.0399654448
 21
48.1646428571
  0
LINE
  5
27A
100
AcDbEntity
  8
0
100
AcDbLine
 62
7
  6
BYLAYER
 10
15.2578628453
 20
48.1646428571
 11
14.8501431171
 21
48.1646428571
  0
LINE
  5
27B
100
AcDbEntity
  8
0
100
AcDbLine
 62
7
  6
BYLAYER
 10
14.1589677094
 20
48.1646428571
 11
13.7640028687
 21
48.1646428571
  0
LINE
  5
27C
100
AcDbEntity
  8
0
100
AcDbLine
 62
7
  6
BYLAYER
 10
13.1755808556
 20
48.1646428571
 11
12.8001288605
 21
48.1646428571
  0
LINE
  5
27D
100
AcDbEntity
  8
0
100
AcDbLine
 62
7
  6
BYLAYER
 10
12.3245283058
 20
48.1646428571
 11
11.9750132439
 21
48.1646428571
  0
LINE
  5
27E
100
AcDbEntity
  8
0
100
AcDbLine
 62
7
  6
BYLAYER
 10
11.620371805
 20
48.1646428571
 11
11.3027739759
 21
48.1646428571
  0
LINE
  5
27F
100
AcDbEntity
  8
0
100
AcDbLine
 62
7
  6
BYLAYER
 10
11.0751596661
 20
48.1646428571
 11
10.7949132568
 21
48.1646428571
  0
LINE
  5
280
100
AcDbEntity
  8
0
100
AcDbLine
 62
7
  6
BYLAYER
 10
10.69822062
 20
48.1646428571
 11
10.3041247713
 21
48.1646428571
  0
LINE
  5
281
100
AcDbEntity
  8
0
100
AcDbLine
 62
7
  6
BYLAYER
 10
32.9097807144
 20
48.8646428571
 11
8.9097807144
 21
48.8646428571
  0
LINE
  5
282
100
AcDbEntity
  8
0
100
AcDbLine
 62
7
  6
BYLAYER
 10
8.9097807119
 20
51.8646428571
 11
32.9097807144
 21
51.8646428571
  0
LINE
  5
283
100
AcDbEntity
  8
0
100
AcDbLine
 62
7
  6
BYLAYER
 10
29.7097807144
 20
54.4646428571
 11
29.9097807144
 21
54.2646428571
  0
LINE
  5
284
100
AcDbEntity
  8
0
100
AcDbLine
 62
7
  6
BYLAYER
 10
11.9097807144
 20
54.2646428571
 11
29.9097807144
 21
54.2646428571
  0
LINE
  5
285
100
AcDbEntity
  8
0
100
AcDbLine
 62
7
  6
BYLAYER
 10
12.1097807144
 20
54.4646428571
 11
29.7096168241
 21
54.4646428571
  0
LINE
  5
286
100
AcDbEntity
  8
0
100
AcDbLine
 62
7
  6
BYLAYER
 10
12.6597807144
 20
54.6646428571
 11
20.002862857
 21
54.6646428571
  0
LINE
  5
287
100
AcDbEntity
  8
0
100
AcDbLine
 62
7
  6
BYLAYER
 10
21.8166985718
 20
54.6646428571
 11
29.1597807144
 21
54.6646428571
  0
LINE
  5
288
100
AcDbEntity
  8
0
100
AcDbLine
 62
7
  6
BYLAYER
 10
12.8597807144
 20
54.8646428571
 11
28.9597721709
 21
54.8646428571
  0
ARC
  5
289
100
AcDbEntity
  8
0
100
AcDbCircle
 62
7
  6
BYLAYER
 10
18.9394699518
 20
100.2712029433
 40
50.9974550171
100
AcDbArc
 50
271.7274202396
 51
272.5063433257
  0
ARC
  5
28A
100
AcDbEntity
  8
0
100
AcDbCircle
 62
7
  6
BYLAYER
 10
18.9394699518
 20
-6.5419172287
 40
50.9974550168
100
AcDbArc
 50
87.4936566743
 51
88.2725797604
  0
ARC
  5
28B
100
AcDbEntity
  8
0
100
AcDbCircle
 62
7
  6
BYLAYER
 10
18.9394744493
 20
0.458154439
 40
50.9973832268
100
AcDbArc
 50
87.4936582016
 51
88.2725823831
  0
ARC
  5
28C
100
AcDbEntity
  8
0
100
AcDbCircle
 62
7
  6
BYLAYER
 10
18.9394744495
 20
93.2711312692
 40
50.9973832208
100
AcDbArc
 50
271.7274176169
 51
272.5063417985
  0
ARC
  5
28D
100
AcDbEntity
  8
0
100
AcDbCircle
 62
7
  6
BYLAYER
 10
10.3082952763
 20
31.4334012804
 40
20.0222530959
100
AcDbArc
 50
92.7639568287
 51
94.0052575436
  0
ARC
  5
28E
100
AcDbEntity
  8
0
100
AcDbCircle
 62
7
  6
BYLAYER
 10
10.3068875946
 20
62.2720824289
 40
19.9984109018
100
AcDbArc
 50
265.9940024827
 51
267.2367831398
  0
ARC
  5
28F
100
AcDbEntity
  8
0
100
AcDbCircle
 62
7
  6
BYLAYER
 10
10.3052383169
 20
24.4851099315
 40
19.9704572152
100
AcDbArc
 50
92.7623503502
 51
94.0068706645
  0
ARC
  5
290
100
AcDbEntity
  8
0
100
AcDbCircle
 62
7
  6
BYLAYER
 10
10.3036819413
 20
69.2178596217
 40
19.9440966278
100
AcDbArc
 50
265.9923068496
 51
267.238472141
  0
ARC
  5
291
100
AcDbEntity
  8
0
100
AcDbCircle
 62
7
  6
BYLAYER
 10
33.4938486545
 20
44.1761662546
 40
7.2796641137
100
AcDbArc
 50
94.6019480384
 51
96.6568259677
  0
ARC
  5
292
100
AcDbEntity
  8
0
100
AcDbCircle
 62
7
  6
BYLAYER
 10
33.492998804
 20
49.5444975616
 40
7.271001827
100
AcDbArc
 50
263.3419498732
 51
265.3992761382
  0
ARC
  5
293
100
AcDbEntity
  8
0
100
AcDbCircle
 62
7
  6
BYLAYER
 10
33.4912006882
 20
37.2030334952
 40
7.2526710563
100
AcDbArc
 50
94.5981260731
 51
96.6606526988
  0
ARC
  5
294
100
AcDbEntity
  8
0
100
AcDbCircle
 62
7
  6
BYLAYER
 10
33.4902354133
 20
56.5164592989
 40
7.2428322743
100
AcDbArc
 50
263.3379462559
 51
265.4032749547
  0
ARC
  5
295
100
AcDbEntity
  8
0
100
AcDbCircle
 62
7
  6
BYLAYER
 10
28.9597807144
 20
54.6646428571
 40
0.2
100
AcDbArc
 50
0.0
 51
90.0
  0
ARC
  5
296
100
AcDbEntity
  8
0
100
AcDbCircle
 62
7
  6
BYLAYER
 10
12.8597807144
 20
54.6646428571
 40
0.2
100
AcDbArc
 50
90.0
 51
180.0
  0
ARC
  5
297
100
AcDbEntity
  8
0
100
AcDbCircle
 62
7
  6
BYLAYER
 10
13.1097807144
 20
19.7646428571
 40
0.2
100
AcDbArc
 50
180.0
 51
270.0
  0
ARC
  5
298
100
AcDbEntity
  8
0
100
AcDbCircle
 62
7
  6
BYLAYER
 10
28.7097807144
 20
19.7646428571
 40
0.2
100
AcDbArc
 50
270.0
 51
360.0
  0
ARC
  5
299
100
AcDbEntity
  8
0
100
AcDbCircle
 62
7
  6
BYLAYER
 10
22.189836282
 20
16.1646428571
 40
0.2
100
AcDbArc
 50
2.9999999861
 51
90.0
  0
ARC
  5
29A
100
AcDbEntity
  8
0
100
AcDbCircle
 62
7
  6
BYLAYER
 10
14.8036834886
 20
16.5646428571
 40
0.2
100
AcDbArc
 50
190.0
 51
270.0
  0
ARC
  5
29B
100
AcDbEntity
  8
0
100
AcDbCircle
 62
7
  6
BYLAYER
 10
25.5694221087
 20
16.1646428571
 40
0.2
100
AcDbArc
 50
90.0
 51
177.0000000139
  0
ARC
  5
29C
100
AcDbEntity
  8
0
100
AcDbCircle
 62
7
  6
BYLAYER
 10
22.6742376673
 20
14.5646428571
 40
0.2
100
AcDbArc
 50
182.9999999861
 51
270.0
  0
ARC
  5
29D
100
AcDbEntity
  8
0
100
AcDbCircle
 62
7
  6
BYLAYER
 10
25.0850207235
 20
14.5646428571
 40
0.2
100
AcDbArc
 50
270.0
 51
357.0000000139
  0
ARC
  5
29E
100
AcDbEntity
  8
0
100
AcDbCircle
 62
7
  6
BYLAYER
 10
27.0158779403
 20
16.5646428571
 40
0.2
100
AcDbArc
 50
270.0
 51
350.0
  0
SPLINE
  5
29F
100
AcDbEntity
  8
0
100
AcDbSpline
 62
7
  6
BYLAYER
 70
0
 71
3
 72
11
 73
7
 74
0
 42
0.0000001
 43
0.0000001
 44
0.0000000001
 40
0.0
 40
0.0
 40
0.0
 40
0.0
 40
0.2502906311
 40
0.5003498462
 40
0.7502262012
 40
1.0
 40
1.0
 40
1.0
 40
1.0
 10
20.4767680125
 20
42.2969238126
 30
0.0
 10
20.0154210431
 20
42.2295213457
 30
0.0
 10
19.0912196832
 20
42.1075154041
 30
0.0
 10
17.7002025195
 20
41.9698511605
 30
0.0
 10
16.305929529
 20
41.8840787547
 30
0.0
 10
15.3750626665
 20
41.8646438658
 30
0.0
 10
14.9097807303
 20
41.8646439131
 30
0.0
  0
SPLINE
  5
2A0
100
AcDbEntity
  8
0
100
AcDbSpline
 62
7
  6
BYLAYER
 70
0
 71
3
 72
11
 73
7
 74
0
 42
0.0000001
 43
0.0000001
 44
0.0000000001
 40
0.0
 40
0.0
 40
0.0
 40
0.0
 40
0.2497610148
 40
0.4996305173
 40
0.7496940754
 40
1.0
 40
1.0
 40
1.0
 40
1.0
 10
26.9097807898
 20
41.8646439121
 30
0.0
 10
26.4299480849
 20
41.8646430221
 30
0.0
 10
25.4699523887
 20
41.8853375239
 30
0.0
 10
24.0321780216
 20
41.9764421714
 30
0.0
 10
22.5979499889
 20
42.1224154804
 30
0.0
 10
21.6451758659
 20
42.2513874706
 30
0.0
 10
21.1695883355
 20
42.322532813
 30
0.0
  0
SPLINE
  5
2A1
100
AcDbEntity
  8
0
100
AcDbSpline
 62
7
  6
BYLAYER
 70
0
 71
3
 72
11
 73
7
 74
0
 42
0.0000001
 43
0.0000001
 44
0.0000000001
 40
0.0
 40
0.0
 40
0.0
 40
0.0
 40
0.2497738006
 40
0.4996501564
 40
0.7497093704
 40
1.0
 40
1.0
 40
1.0
 40
1.0
 10
14.9097807303
 20
41.8646439131
 30
0.0
 10
14.4444987881
 20
41.8646438653
 30
0.0
 10
13.5136319156
 20
41.8840787544
 30
0.0
 10
12.1193589139
 20
41.9698511556
 30
0.0
 10
10.7283417467
 20
42.1075154097
 30
0.0
 10
9.8041403857
 20
42.2295213449
 30
0.0
 10
9.3427934163
 20
42.2969238117
 30
0.0
  0
SPLINE
  5
2A2
100
AcDbEntity
  8
0
100
AcDbSpline
 62
7
  6
BYLAYER
 70
0
 71
3
 72
11
 73
7
 74
0
 42
0.0000001
 43
0.0000001
 44
0.0000000001
 40
0.0
 40
0.0
 40
0.0
 40
0.0
 40
0.2502906311
 40
0.5003498463
 40
0.7502262012
 40
1.0
 40
1.0
 40
1.0
 40
1.0
 10
9.3427934163
 20
44.4323619025
 30
0.0
 10
9.8041403873
 20
44.4997643772
 30
0.0
 10
10.7283417539
 20
44.6217703093
 30
0.0
 10
12.119358925
 20
44.7594345572
 30
0.0
 10
13.5136319238
 20
44.8452069584
 30
0.0
 10
14.4444987914
 20
44.864641849
 30
0.0
 10
14.9097807303
 20
44.8646418011
 30
0.0
  0
SPLINE
  5
2A3
100
AcDbEntity
  8
0
100
AcDbSpline
 62
7
  6
BYLAYER
 70
0
 71
3
 72
11
 73
7
 74
0
 42
0.0000001
 43
0.0000001
 44
0.0000000001
 40
0.0
 40
0.0
 40
0.0
 40
0.0
 40
0.249761011
 40
0.4996305185
 40
0.7496940601
 40
1.0
 40
1.0
 40
1.0
 40
1.0
 10
26.9097807303
 20
44.8646418011
 30
0.0
 10
27.3896134311
 20
44.8646418605
 30
0.0
 10
28.3496091745
 20
44.8439493493
 30
0.0
 10
29.7873834015
 20
44.7528431816
 30
0.0
 10
31.2216119964
 20
44.6068748851
 30
0.0
 10
32.1743855308
 20
44.477898271
 30
0.0
 10
32.6499730933
 20
44.4067529223
 30
0.0
  0
SPLINE
  5
2A4
100
AcDbEntity
  8
0
100
AcDbSpline
 62
7
  6
BYLAYER
 70
0
 71
3
 72
11
 73
7
 74
0
 42
0.0000001
 43
0.0000001
 44
0.0000000001
 40
0.0
 40
0.0
 40
0.0
 40
0.0
 40
0.2503070893
 40
0.5003710161
 40
0.7502402897
 40
1.0
 40
1.0
 40
1.0
 40
1.0
 10
32.6499730933
 20
42.3225328138
 30
0.0
 10
32.1743833002
 20
42.251387133
 30
0.0
 10
31.2216090167
 20
42.1223922086
 30
0.0
 10
29.7873754887
 20
41.976445522
 30
0.0
 10
28.3496042886
 20
41.8853270401
 30
0.0
 10
27.3896110387
 20
41.864642507
 30
0.0
 10
26.9097807898
 20
41.8646439121
 30
0.0
  0
SPLINE
  5
2A5
100
AcDbEntity
  8
0
100
AcDbSpline
 62
7
  6
BYLAYER
 70
0
 71
3
 72
11
 73
7
 74
0
 42
0.0000001
 43
0.0000001
 44
0.0000000001
 40
0.0
 40
0.0
 40
0.0
 40
0.0
 40
0.2497738006
 40
0.4996501564
 40
0.7497093704
 40
1.0
 40
1.0
 40
1.0
 40
1.0
 10
14.9097807303
 20
44.8646418011
 30
0.0
 10
15.3750626699
 20
44.8646418485
 30
0.0
 10
16.3059295371
 20
44.8452069606
 30
0.0
 10
17.7002025308
 20
44.759434557
 30
0.0
 10
19.0912196894
 20
44.621770299
 30
0.0
 10
20.0154210469
 20
44.4997643755
 30
0.0
 10
20.4767680125
 20
44.4323619016
 30
0.0
  0
SPLINE
  5
2A6
100
AcDbEntity
  8
0
100
AcDbSpline
 62
7
  6
BYLAYER
 70
0
 71
3
 72
11
 73
7
 74
0
 42
0.0000001
 43
0.0000001
 44
0.0000000001
 40
0.0
 40
0.0
 40
0.0
 40
0.0
 40
0.2503070893
 40
0.500371016
 40
0.7502402896
 40
1.0
 40
1.0
 40
1.0
 40
1.0
 10
21.1695883355
 20
44.4067529225
 30
0.0
 10
21.6451781355
 20
44.4778986059
 30
0.0
 10
22.5979524382
 20
44.606893545
 30
0.0
 10
24.0321859864
 20
44.752840035
 30
0.0
 10
25.4699572093
 20
44.8439592859
 30
0.0
 10
26.429950474
 20
44.8646418956
 30
0.0
 10
26.9097807303
 20
44.8646418011
 30
0.0
  0
SPLINE
  5
2A7
100
AcDbEntity
  8
0
100
AcDbSpline
 62
7
  6
BYLAYER
 70
0
 71
3
 72
11
 73
7
 74
0
 42
0.0000001
 43
0.0000001
 44
0.0000000001
 40
0.0
 40
0.0
 40
0.0
 40
0.0
 40
0.2497738006
 40
0.4996501564
 40
0.7497093704
 40
1.0
 40
1.0
 40
1.0
 40
1.0
 10
14.9097807303
 20
48.8646439131
 30
0.0
 10
14.4444987881
 20
48.8646438653
 30
0.0
 10
13.5136319156
 20
48.8840787546
 30
0.0
 10
12.1193589138
 20
48.9698511548
 30
0.0
 10
10.7283417472
 20
49.1075154129
 30
0.0
 10
9.8041403846
 20
49.2295213375
 30
0.0
 10
9.3427934163
 20
49.2969238118
 30
0.0
  0
SPLINE
  5
2A8
100
AcDbEntity
  8
0
100
AcDbSpline
 62
7
  6
BYLAYER
 70
0
 71
3
 72
11
 73
7
 74
0
 42
0.0000001
 43
0.0000001
 44
0.0000000001
 40
0.0
 40
0.0
 40
0.0
 40
0.0
 40
0.2502906311
 40
0.5003498462
 40
0.7502262012
 40
1.0
 40
1.0
 40
1.0
 40
1.0
 10
20.4767680125
 20
49.2969238126
 30
0.0
 10
20.0154210441
 20
49.2295213383
 30
0.0
 10
19.0912196827
 20
49.1075154073
 30
0.0
 10
17.7002025197
 20
48.9698511596
 30
0.0
 10
16.3059295289
 20
48.884078755
 30
0.0
 10
15.3750626665
 20
48.8646438657
 30
0.0
 10
14.9097807303
 20
48.8646439131
 30
0.0
  0
SPLINE
  5
2A9
100
AcDbEntity
  8
0
100
AcDbSpline
 62
7
  6
BYLAYER
 70
0
 71
3
 72
11
 73
7
 74
0
 42
0.0000001
 43
0.0000001
 44
0.0000000001
 40
0.0
 40
0.0
 40
0.0
 40
0.0
 40
0.249761011
 40
0.4996305185
 40
0.74969406
 40
1.0
 40
1.0
 40
1.0
 40
1.0
 10
26.9097807303
 20
48.8646439131
 30
0.0
 10
26.4299480269
 20
48.8646438533
 30
0.0
 10
25.4699522783
 20
48.8853363651
 30
0.0
 10
24.0321780432
 20
48.9764425312
 30
0.0
 10
22.59794944
 20
49.1224108257
 30
0.0
 10
21.6451759007
 20
49.2513874427
 30
0.0
 10
21.1695883355
 20
49.3225327917
 30
0.0
  0
SPLINE
  5
2AA
100
AcDbEntity
  8
0
100
AcDbSpline
 62
7
  6
BYLAYER
 70
0
 71
3
 72
11
 73
7
 74
0
 42
0.0000001
 43
0.0000001
 44
0.0000000001
 40
0.0
 40
0.0
 40
0.0
 40
0.0
 40
0.2497610148
 40
0.4996305173
 40
0.7496940754
 40
1.0
 40
1.0
 40
1.0
 40
1.0
 10
26.9097808242
 20
51.8646418022
 30
0.0
 10
27.3896135136
 20
51.8646426896
 30
0.0
 10
28.3496091792
 20
51.8439481952
 30
0.0
 10
29.7873834993
 20
51.752843532
 30
0.0
 10
31.2216114852
 20
51.6068702228
 30
0.0
 10
32.1743855782
 20
51.4778982412
 30
0.0
 10
32.6499730933
 20
51.4067529012
 30
0.0
  0
SPLINE
  5
2AB
100
AcDbEntity
  8
0
100
AcDbSpline
 62
7
  6
BYLAYER
 70
0
 71
3
 72
11
 73
7
 74
0
 42
0.0000001
 43
0.0000001
 44
0.0000000001
 40
0.0
 40
0.0
 40
0.0
 40
0.0
 40
0.2503070893
 40
0.500371016
 40
0.7502402896
 40
1.0
 40
1.0
 40
1.0
 40
1.0
 10
32.6499730933
 20
49.322532792
 30
0.0
 10
32.1743832959
 20
49.251387109
 30
0.0
 10
31.2216089986
 20
49.1223921702
 30
0.0
 10
29.7873754583
 20
48.9764456808
 30
0.0
 10
28.3496042434
 20
48.8853264295
 30
0.0
 10
27.389610984
 20
48.8646438191
 30
0.0
 10
26.9097807303
 20
48.8646439131
 30
0.0
  0
SPLINE
  5
2AC
100
AcDbEntity
  8
0
100
AcDbSpline
 62
7
  6
BYLAYER
 70
0
 71
3
 72
11
 73
7
 74
0
 42
0.0000001
 43
0.0000001
 44
0.0000000001
 40
0.0
 40
0.0
 40
0.0
 40
0.0
 40
0.2502906311
 40
0.5003498463
 40
0.7502262012
 40
1.0
 40
1.0
 40
1.0
 40
1.0
 10
9.3427934163
 20
51.4323619025
 30
0.0
 10
9.8041403884
 20
51.4997643697
 30
0.0
 10
10.7283417534
 20
51.6217703126
 30
0.0
 10
12.1193589251
 20
51.7594345563
 30
0.0
 10
13.5136319238
 20
51.8452069586
 30
0.0
 10
14.4444987914
 20
51.864641849
 30
0.0
 10
14.9097807303
 20
51.8646418012
 30
0.0
  0
SPLINE
  5
2AD
100
AcDbEntity
  8
0
100
AcDbSpline
 62
7
  6
BYLAYER
 70
0
 71
3
 72
11
 73
7
 74
0
 42
0.0000001
 43
0.0000001
 44
0.0000000001
 40
0.0
 40
0.0
 40
0.0
 40
0.0
 40
0.2497738006
 40
0.4996501564
 40
0.7497093704
 40
1.0
 40
1.0
 40
1.0
 40
1.0
 10
14.9097807303
 20
51.8646418012
 30
0.0
 10
15.3750626699
 20
51.8646418485
 30
0.0
 10
16.3059295372
 20
51.8452069608
 30
0.0
 10
17.7002025307
 20
51.7594345562
 30
0.0
 10
19.0912196899
 20
51.6217703022
 30
0.0
 10
20.0154210458
 20
51.4997643682
 30
0.0
 10
20.4767680125
 20
51.4323619016
 30
0.0
  0
SPLINE
  5
2AE
100
AcDbEntity
  8
0
100
AcDbSpline
 62
7
  6
BYLAYER
 70
0
 71
3
 72
11
 73
7
 74
0
 42
0.0000001
 43
0.0000001
 44
0.0000000001
 40
0.0
 40
0.0
 40
0.0
 40
0.0
 40
0.2503070893
 40
0.5003710161
 40
0.7502402897
 40
1.0
 40
1.0
 40
1.0
 40
1.0
 10
21.1695883355
 20
51.4067529006
 30
0.0
 10
21.6451781439
 20
51.4778985837
 30
0.0
 10
22.5979524581
 20
51.6068935117
 30
0.0
 10
24.0321860324
 20
51.7528402006
 30
0.0
 10
25.469957279
 20
51.8439586808
 30
0.0
 10
26.4299505598
 20
51.8646432099
 30
0.0
 10
26.9097808242
 20
51.8646418022
 30
0.0
  0
SPLINE
  5
2AF
100
AcDbEntity
  8
0
100
AcDbSpline
 62
7
  6
BYLAYER
 70
0
 71
3
 72
45
 73
41
 74
0
 42
0.0000001
 43
0.0000001
 44
0.0000000001
 40
0.0
 40
0.0
 40
0.0
 40
0.0
 40
0.0078203778
 40
0.0156510645
 40
0.0234682528
 40
0.0312835034
 40
0.0390967836
 40
0.046909626
 40
0.0547228749
 40
0.0625352919
 40
0.0937788046
 40
0.1250248258
 40
0.1562718187
 40
0.1875194719
 40
0.2187673276
 40
0.2500152641
 40
0.312509981
 40
0.3750052191
 40
0.4375008119
 40
0.499996469
 40
0.5624921235
 40
0.6249876715
 40
0.6874829815
 40
0.749977728
 40
0.8124710813
 40
0.8437187014
 40
0.8749659298
 40
0.8905900104
 40
0.9062140463
 40
0.921838007
 40
0.9374616981
 40
0.945274178
 40
0.9530863577
 40
0.9608999312
 40
0.9687153215
 40
0.9765265511
 40
0.9804364343
 40
0.9843518203
 40
0.9921794233
 40
1.0
 40
1.0
 40
1.0
 40
1.0
 10
21.8166985718
 20
54.6646428571
 30
0.0
 10
21.8166985718
 20
54.6695217783
 30
0.0
 10
21.8130292762
 20
54.6792476711
 30
0.0
 10
21.8028072188
 20
54.6898951271
 30
0.0
 10
21.7907751054
 20
54.6983227896
 30
0.0
 10
21.778023039
 20
54.7055090958
 30
0.0
 10
21.764800565
 20
54.7117842302
 30
0.0
 10
21.7512226417
 20
54.7172324274
 30
0.0
 10
21.7374062717
 20
54.7220334502
 30
0.0
 10
21.709464773
 20
54.7306622221
 30
0.0
 10
21.6669063165
 20
54.7414275281
 30
0.0
 10
21.6095097401
 20
54.7527156612
 30
0.0
 10
21.5517048346
 20
54.7616745521
 30
0.0
 10
21.4936688199
 20
54.7689337515
 30
0.0
 10
21.435506216
 20
54.7750858876
 30
0.0
 10
21.3578266268
 20
54.7819380303
 30
0.0
 10
21.2605569917
 20
54.7884113915
 30
0.0
 10
21.1436902641
 20
54.7934464689
 30
0.0
 10
21.0267512899
 20
54.7962862979
 30
0.0
 10
20.9097823809
 20
54.7972411925
 30
0.0
 10
20.7928127853
 20
54.796313122
 30
0.0
 10
20.6758753704
 20
54.7934092409
 30
0.0
 10
20.5590094245
 20
54.7883465988
 30
0.0
 10
20.4422868475
 20
54.7806494758
 30
0.0
 10
20.3452283385
 20
54.7714359099
 30
0.0
 10
20.2678705262
 20
54.7615809637
 30
0.0
 10
20.219700998
 20
54.7541060448
 30
0.0
 10
20.1813573072
 20
54.7470262634
 30
0.0
 10
20.1527238647
 20
54.7410776595
 30
0.0
 10
20.1242525896
 20
54.7343882981
 30
0.0
 10
20.1007685704
 20
54.7278418405
 30
0.0
 10
20.0822147298
 20
54.7218514275
 30
0.0
 10
20.0684163518
 20
54.7170055074
 30
0.0
 10
20.0547960601
 20
54.7116691523
 30
0.0
 10
20.0414652248
 20
54.7056325458
 30
0.0
 10
20.0308280903
 20
54.6996306033
 30
0.0
 10
20.0227835424
 20
54.694103128
 30
0.0
 10
20.0150652975
 20
54.6881119661
 30
0.0
 10
20.0065229396
 20
54.6792510442
 30
0.0
 10
20.002862857
 20
54.6695219023
 30
0.0
 10
20.002862857
 20
54.6646428571
 30
0.0
  0
ELLIPSE
  5
2B0
100
AcDbEntity
  8
0
100
AcDbEllipse
 62
7
  6
BYLAYER
 10
22.0247346223
 20
49.372493956
 30
0.0
 11
8.0474192635
 21
10.195190748
 31
0.0
 40
0.7470541823
 41
4.9099662904
 42
4.9176315918
  0
ELLIPSE
  5
2B1
100
AcDbEntity
  8
0
100
AcDbEllipse
 62
7
  6
BYLAYER
 10
22.558323959
 20
49.372493956
 30
0.0
 11
8.919591999
 21
10.3341729894
 31
0.0
 40
0.6468548444
 41
-1.404243728
 42
-1.3891458436
  0
ELLIPSE
  5
2B2
100
AcDbEntity
  8
0
100
AcDbEllipse
 62
7
  6
BYLAYER
 10
23.0637062638
 20
49.372493956
 30
0.0
 11
9.5757833526
 21
10.5743403885
 31
0.0
 40
0.5552272381
 41
-1.4530004987
 42
-1.4324654912
  0
ELLIPSE
  5
2B3
100
AcDbEntity
  8
0
100
AcDbEllipse
 62
7
  6
BYLAYER
 10
23.5322343053
 20
49.372493956
 30
0.0
 11
10.1170563979
 21
10.8336078883
 31
0.0
 40
0.4711119558
 41
-1.5086873256
 42
-1.4838808103
  0
ELLIPSE
  5
2B4
100
AcDbEntity
  8
0
100
AcDbEllipse
 62
7
  6
BYLAYER
 10
23.9558914388
 20
49.372493956
 30
0.0
 11
10.57430594
 21
11.0811640271
 31
0.0
 40
0.3932536107
 41
-1.5677038183
 42
-1.5393435277
  0
ELLIPSE
  5
2B5
100
AcDbEntity
  8
0
100
AcDbEllipse
 62
7
  6
BYLAYER
 10
24.3274287732
 20
49.372493956
 30
0.0
 11
10.9583479679
 21
11.3026503924
 31
0.0
 40
0.32049021
 41
-1.6285433084
 42
-1.5970782097
  0
ELLIPSE
  5
2B6
100
AcDbEntity
  8
0
100
AcDbEllipse
 62
7
  6
BYLAYER
 10
24.6404892017
 20
49.372493956
 30
0.0
 11
11.272755276
 21
11.4903624333
 31
0.0
 40
0.2517837063
 41
-1.690470904
 42
-1.6561797436
  0
ELLIPSE
  5
2B7
100
AcDbEntity
  8
0
100
AcDbEllipse
 62
7
  6
BYLAYER
 10
24.8897161737
 20
49.372493956
 30
0.0
 11
11.5182116851
 21
11.6397811956
 31
0.0
 40
0.1862029912
 41
-1.7527475135
 42
-1.7161329273
  0
ELLIPSE
  5
2B8
100
AcDbEntity
  8
0
100
AcDbEllipse
 62
7
  6
BYLAYER
 10
25.0708453466
 20
49.372493956
 30
0.0
 11
11.6942962282
 21
11.7481381864
 31
0.0
 40
0.1228992729
 41
-1.8159349801
 42
-1.776616227
  0
ELLIPSE
  5
2B9
100
AcDbEntity
  8
0
100
AcDbEllipse
 62
7
  6
BYLAYER
 10
25.1807775499
 20
49.372493956
 30
0.0
 11
11.8003161272
 21
11.8137551981
 31
0.0
 40
0.0610824685
 41
-1.8795294874
 42
-1.8374099321
  0
ELLIPSE
  5
2BA
100
AcDbEntity
  8
0
100
AcDbEllipse
 62
7
  6
BYLAYER
 10
20.9097807144
 20
41.9609780817
 30
0.0
 11
0.0
 21
11.5830346317
 31
0.0
 40
0.963433044
 41
-1.2995325731
 42
-1.2544294813
  0
ELLIPSE
  5
2BB
100
AcDbEntity
  8
0
100
AcDbEllipse
 62
7
  6
BYLAYER
 10
21.3148902595
 20
41.9609780817
 30
0.0
 11
-7.3844602403
 21
9.6458827394
 31
0.0
 40
0.8684143762
 41
-1.8862553139
 42
-1.8411522221
  0
ELLIPSE
  5
2BC
100
AcDbEntity
  8
0
100
AcDbEllipse
 62
7
  6
BYLAYER
 10
21.7130682679
 20
41.9609780817
 30
0.0
 11
-8.472058128
 21
9.6390686169
 31
0.0
 40
0.7581403628
 41
-1.8873170525
 42
-1.8422139607
  0
ELLIPSE
  5
2BD
100
AcDbEntity
  8
0
100
AcDbEllipse
 62
7
  6
BYLAYER
 10
22.0975018036
 20
41.9609780817
 30
0.0
 11
-9.1398053983
 21
9.9008743148
 31
0.0
 40
0.657738698
 41
-1.8452140898
 42
-1.800110998
  0
ELLIPSE
  5
2BE
100
AcDbEntity
  8
0
100
AcDbEllipse
 62
7
  6
BYLAYER
 10
22.4616131021
 20
41.9609780817
 30
0.0
 11
-9.672197328
 21
10.207034137
 31
0.0
 40
0.5661264515
 41
-1.7919226086
 42
-1.7468195168
  0
ELLIPSE
  5
2BF
100
AcDbEntity
  8
0
100
AcDbEllipse
 62
7
  6
BYLAYER
 10
19.7948268066
 20
49.372493956
 30
0.0
 11
-8.0474192635
 21
10.195190748
 31
0.0
 40
0.7470541823
 41
1.3655537154
 42
1.3732190188
  0
ELLIPSE
  5
2C0
100
AcDbEntity
  8
0
100
AcDbEllipse
 62
7
  6
BYLAYER
 10
22.7991721183
 20
41.9609780817
 30
0.0
 11
-10.1235279518
 21
10.5062434209
 31
0.0
 40
0.4817532195
 41
-1.7341357163
 42
-1.6890326245
  0
ELLIPSE
  5
2C1
100
AcDbEntity
  8
0
100
AcDbEllipse
 62
7
  6
BYLAYER
 10
19.2612374698
 20
49.372493956
 30
0.0
 11
-8.919591999
 21
10.3341729894
 31
0.0
 40
0.6468548444
 41
1.3891458436
 42
1.4042437168
  0
ELLIPSE
  5
2C2
100
AcDbEntity
  8
0
100
AcDbEllipse
 62
7
  6
BYLAYER
 10
23.1044031237
 20
41.9609780817
 30
0.0
 11
-10.5096998268
 21
10.7798633581
 31
0.0
 40
0.4032531911
 41
-1.674117191
 42
-1.6290140991
  0
ELLIPSE
  5
2C3
100
AcDbEntity
  8
0
100
AcDbEllipse
 62
7
  6
BYLAYER
 10
18.755855165
 20
49.372493956
 30
0.0
 11
-9.5757833526
 21
10.5743403885
 31
0.0
 40
0.5552272381
 41
1.4324654912
 42
1.4530004966
  0
ELLIPSE
  5
2C4
100
AcDbEntity
  8
0
100
AcDbEllipse
 62
7
  6
BYLAYER
 10
23.3720835312
 20
41.9609780817
 30
0.0
 11
-10.8359096051
 21
11.0191384116
 31
0.0
 40
0.3294650235
 41
-1.6128476156
 42
-1.5677445238
  0
ELLIPSE
  5
2C5
100
AcDbEntity
  8
0
100
AcDbEllipse
 62
7
  6
BYLAYER
 10
18.2873271235
 20
49.372493956
 30
0.0
 11
-10.1170563979
 21
10.8336078883
 31
0.0
 40
0.4711119558
 41
1.4838808103
 42
1.5086873211
  0
ELLIPSE
  5
2C6
100
AcDbEntity
  8
0
100
AcDbEllipse
 62
7
  6
BYLAYER
 10
23.5976332548
 20
41.9609780817
 30
0.0
 11
-11.103573653
 21
11.2192358625
 31
0.0
 40
0.2593921815
 41
-1.5508240306
 42
-1.5057209388
  0
ELLIPSE
  5
2C7
100
AcDbEntity
  8
0
100
AcDbEllipse
 62
7
  6
BYLAYER
 10
17.8636699901
 20
49.372493956
 30
0.0
 11
-10.57430594
 21
11.0811640271
 31
0.0
 40
0.3932536107
 41
1.5393435277
 42
1.5677038056
  0
ELLIPSE
  5
2C8
100
AcDbEntity
  8
0
100
AcDbEllipse
 62
7
  6
BYLAYER
 10
23.7771930762
 20
41.9609780817
 30
0.0
 11
-11.3126576757
 21
11.377213794
 31
0.0
 40
0.1921623568
 41
-1.4883289622
 42
-1.4432258704
  0
ELLIPSE
  5
2C9
100
AcDbEntity
  8
0
100
AcDbEllipse
 62
7
  6
BYLAYER
 10
17.4921326557
 20
49.372493956
 30
0.0
 11
-10.9583479679
 21
11.3026503924
 31
0.0
 40
0.32049021
 41
-4.6861070975
 42
-4.6546419184
  0
ELLIPSE
  5
2CA
100
AcDbEntity
  8
0
100
AcDbEllipse
 62
7
  6
BYLAYER
 10
23.9076906772
 20
41.9609780817
 30
0.0
 11
-11.4626280056
 21
11.4912004934
 31
0.0
 40
0.1269935126
 41
-1.425539161
 42
-1.3804360692
  0
ELLIPSE
  5
2CB
100
AcDbEntity
  8
0
100
AcDbEllipse
 62
7
  6
BYLAYER
 10
17.1790722271
 20
49.372493956
 30
0.0
 11
-11.272755276
 21
11.4903624333
 31
0.0
 40
0.2517837063
 41
-4.6270055636
 42
-4.5927143299
  0
ELLIPSE
  5
2CC
100
AcDbEntity
  8
0
100
AcDbEllipse
 62
7
  6
BYLAYER
 10
23.9868932075
 20
41.9609780817
 30
0.0
 11
-11.5528949874
 21
11.5600239517
 31
0.0
 40
0.0631661312
 41
-1.3625760954
 42
-1.3174730036
  0
ELLIPSE
  5
2CD
100
AcDbEntity
  8
0
100
AcDbEllipse
 62
7
  6
BYLAYER
 10
16.9298452551
 20
49.372493956
 30
0.0
 11
-11.5182116851
 21
11.6397811956
 31
0.0
 40
0.1862029912
 41
-4.5670523798
 42
-4.5304377202
  0
ELLIPSE
  5
2CE
100
AcDbEntity
  8
0
100
AcDbEllipse
 62
7
  6
BYLAYER
 10
20.9097807144
 20
41.9609780817
 30
0.0
 11
0.0
 21
11.5830346317
 31
0.0
 40
0.963433044
 41
1.2544294813
 42
1.2995325731
  0
ELLIPSE
  5
2CF
100
AcDbEntity
  8
0
100
AcDbEllipse
 62
7
  6
BYLAYER
 10
20.5046711693
 20
41.9609780817
 30
0.0
 11
7.3844602403
 21
9.6458827394
 31
0.0
 40
0.8684143762
 41
-4.4420330851
 42
-4.3969299932
  0
ELLIPSE
  5
2D0
100
AcDbEntity
  8
0
100
AcDbEllipse
 62
7
  6
BYLAYER
 10
20.1064931609
 20
41.9609780817
 30
0.0
 11
8.472058128
 21
9.6390686169
 31
0.0
 40
0.7581403628
 41
-4.4409713465
 42
-4.3958682546
  0
ELLIPSE
  5
2D1
100
AcDbEntity
  8
0
100
AcDbEllipse
 62
7
  6
BYLAYER
 10
19.7220596252
 20
41.9609780817
 30
0.0
 11
9.1398053983
 21
9.9008743148
 31
0.0
 40
0.657738698
 41
-4.4830743092
 42
-4.4379712174
  0
ELLIPSE
  5
2D2
100
AcDbEntity
  8
0
100
AcDbEllipse
 62
7
  6
BYLAYER
 10
19.3579483267
 20
41.9609780817
 30
0.0
 11
9.672197328
 21
10.207034137
 31
0.0
 40
0.5661264515
 41
-4.5363657904
 42
-4.4912626986
  0
ELLIPSE
  5
2D3
100
AcDbEntity
  8
0
100
AcDbEllipse
 62
7
  6
BYLAYER
 10
19.0203893105
 20
41.9609780817
 30
0.0
 11
10.1235279518
 21
10.5062434209
 31
0.0
 40
0.4817532195
 41
-4.5941526827
 42
-4.5490495909
  0
ELLIPSE
  5
2D4
100
AcDbEntity
  8
0
100
AcDbEllipse
 62
7
  6
BYLAYER
 10
18.7151583052
 20
41.9609780817
 30
0.0
 11
10.5096998268
 21
10.7798633581
 31
0.0
 40
0.4032531911
 41
-4.654171208
 42
-4.6090681162
  0
ELLIPSE
  5
2D5
100
AcDbEntity
  8
0
100
AcDbEllipse
 62
7
  6
BYLAYER
 10
18.4474778977
 20
41.9609780817
 30
0.0
 11
10.8359096051
 21
11.0191384116
 31
0.0
 40
0.3294650235
 41
1.5677445238
 42
1.6128476156
  0
ELLIPSE
  5
2D6
100
AcDbEntity
  8
0
100
AcDbEllipse
 62
7
  6
BYLAYER
 10
18.221928174
 20
41.9609780817
 30
0.0
 11
11.103573653
 21
11.2192358625
 31
0.0
 40
0.2593921815
 41
1.5057209388
 42
1.5508240306
  0
ELLIPSE
  5
2D7
100
AcDbEntity
  8
0
100
AcDbEllipse
 62
7
  6
BYLAYER
 10
18.0423683526
 20
41.9609780817
 30
0.0
 11
11.3126576757
 21
11.377213794
 31
0.0
 40
0.1921623568
 41
1.4432258704
 42
1.4883289622
  0
ELLIPSE
  5
2D8
100
AcDbEntity
  8
0
100
AcDbEllipse
 62
7
  6
BYLAYER
 10
17.9118707517
 20
41.9609780817
 30
0.0
 11
11.4626280056
 21
11.4912004934
 31
0.0
 40
0.1269935126
 41
1.3804360692
 42
1.425539161
  0
ELLIPSE
  5
2D9
100
AcDbEntity
  8
0
100
AcDbEllipse
 62
7
  6
BYLAYER
 10
17.8326682214
 20
41.9609780817
 30
0.0
 11
11.5528949874
 21
11.5600239517
 31
0.0
 40
0.0631661312
 41
1.3174730036
 42
1.3625760954
  0
ELLIPSE
  5
2DA
100
AcDbEntity
  8
0
100
AcDbEllipse
 62
7
  6
BYLAYER
 10
16.7487160822
 20
49.372493956
 30
0.0
 11
-11.6942962282
 21
11.7481381864
 31
0.0
 40
0.1228992729
 41
-4.5065690802
 42
-4.4672502745
  0
ELLIPSE
  5
2DB
100
AcDbEntity
  8
0
100
AcDbEllipse
 62
7
  6
BYLAYER
 10
16.6387838789
 20
49.372493956
 30
0.0
 11
-11.8003161272
 21
11.8137551981
 31
0.0
 40
0.0610824685
 41
-4.4457753751
 42
-4.4036557914
  0
ELLIPSE
  5
2DC
100
AcDbEntity
  8
0
100
AcDbEllipse
 62
7
  6
BYLAYER
 10
22.4616131021
 20
41.9609780817
 30
0.0
 11
-9.672197328
 21
10.207034137
 31
0.0
 40
0.5661264515
 41
0.7620394457
 42
0.8071425375
  0
ELLIPSE
  5
2DD
100
AcDbEntity
  8
0
100
AcDbEllipse
 62
7
  6
BYLAYER
 10
22.7991721183
 20
41.9609780817
 30
0.0
 11
-10.1235279518
 21
10.5062434209
 31
0.0
 40
0.4817532195
 41
0.819826338
 42
0.8649294298
  0
ELLIPSE
  5
2DE
100
AcDbEntity
  8
0
100
AcDbEllipse
 62
7
  6
BYLAYER
 10
23.1044031237
 20
41.9609780817
 30
0.0
 11
-10.5096998268
 21
10.7798633581
 31
0.0
 40
0.4032531911
 41
0.8798448634
 42
0.9249479552
  0
ELLIPSE
  5
2DF
100
AcDbEntity
  8
0
100
AcDbEllipse
 62
7
  6
BYLAYER
 10
23.3720835312
 20
41.9609780817
 30
0.0
 11
-10.8359096051
 21
11.0191384116
 31
0.0
 40
0.3294650235
 41
0.9411144387
 42
0.9862175305
  0
ELLIPSE
  5
2E0
100
AcDbEntity
  8
0
100
AcDbEllipse
 62
7
  6
BYLAYER
 10
23.5976332548
 20
41.9609780817
 30
0.0
 11
-11.103573653
 21
11.2192358625
 31
0.0
 40
0.2593921815
 41
1.0031380237
 42
1.0482411156
  0
ELLIPSE
  5
2E1
100
AcDbEntity
  8
0
100
AcDbEllipse
 62
7
  6
BYLAYER
 10
23.7771930762
 20
41.9609780817
 30
0.0
 11
-11.3126576757
 21
11.377213794
 31
0.0
 40
0.1921623568
 41
1.0656330921
 42
1.1107361839
  0
ELLIPSE
  5
2E2
100
AcDbEntity
  8
0
100
AcDbEllipse
 62
7
  6
BYLAYER
 10
23.9868932075
 20
41.9609780817
 30
0.0
 11
-11.5528949874
 21
11.5600239517
 31
0.0
 40
0.0631661312
 41
1.1913859589
 42
1.2364890507
  0
ELLIPSE
  5
2E3
100
AcDbEntity
  8
0
100
AcDbEllipse
 62
7
  6
BYLAYER
 10
21.3148902595
 20
41.9609780817
 30
0.0
 11
-7.3844602403
 21
9.6458827394
 31
0.0
 40
0.8684143762
 41
0.6677067404
 42
0.7128098322
  0
ELLIPSE
  5
2E4
100
AcDbEntity
  8
0
100
AcDbEllipse
 62
7
  6
BYLAYER
 10
21.7130682679
 20
41.9609780817
 30
0.0
 11
-8.472058128
 21
9.6390686169
 31
0.0
 40
0.7581403628
 41
0.6666450018
 42
0.7117480936
  0
ELLIPSE
  5
2E5
100
AcDbEntity
  8
0
100
AcDbEllipse
 62
7
  6
BYLAYER
 10
17.8326682214
 20
41.9609780817
 30
0.0
 11
11.5528949874
 21
11.5600239517
 31
0.0
 40
0.0631661312
 41
-1.2364890507
 42
-1.1913859589
  0
ELLIPSE
  5
2E6
100
AcDbEntity
  8
0
100
AcDbEllipse
 62
7
  6
BYLAYER
 10
17.9118707517
 20
41.9609780817
 30
0.0
 11
11.4626280056
 21
11.4912004934
 31
0.0
 40
0.1269935126
 41
-1.1735259851
 42
-1.1284228933
  0
ELLIPSE
  5
2E7
100
AcDbEntity
  8
0
100
AcDbEllipse
 62
7
  6
BYLAYER
 10
18.0423683526
 20
41.9609780817
 30
0.0
 11
11.3126576757
 21
11.377213794
 31
0.0
 40
0.1921623568
 41
-1.1107361839
 42
-1.0656330921
  0
ELLIPSE
  5
2E8
100
AcDbEntity
  8
0
100
AcDbEllipse
 62
7
  6
BYLAYER
 10
18.221928174
 20
41.9609780817
 30
0.0
 11
11.103573653
 21
11.2192358625
 31
0.0
 40
0.2593921815
 41
-1.0482411156
 42
-1.0031380237
  0
ELLIPSE
  5
2E9
100
AcDbEntity
  8
0
100
AcDbEllipse
 62
7
  6
BYLAYER
 10
18.4474778977
 20
41.9609780817
 30
0.0
 11
10.8359096051
 21
11.0191384116
 31
0.0
 40
0.3294650235
 41
-0.9862175305
 42
-0.9411144387
  0
ELLIPSE
  5
2EA
100
AcDbEntity
  8
0
100
AcDbEllipse
 62
7
  6
BYLAYER
 10
18.7151583052
 20
41.9609780817
 30
0.0
 11
10.5096998268
 21
10.7798633581
 31
0.0
 40
0.4032531911
 41
-0.9249479552
 42
-0.8798448634
  0
ELLIPSE
  5
2EB
100
AcDbEntity
  8
0
100
AcDbEllipse
 62
7
  6
BYLAYER
 10
19.0203893105
 20
41.9609780817
 30
0.0
 11
10.1235279518
 21
10.5062434209
 31
0.0
 40
0.4817532195
 41
-0.8649294298
 42
-0.819826338
  0
ELLIPSE
  5
2EC
100
AcDbEntity
  8
0
100
AcDbEllipse
 62
7
  6
BYLAYER
 10
19.3579483267
 20
41.9609780817
 30
0.0
 11
9.672197328
 21
10.207034137
 31
0.0
 40
0.5661264515
 41
-0.8071425375
 42
-0.7620394457
  0
ELLIPSE
  5
2ED
100
AcDbEntity
  8
0
100
AcDbEllipse
 62
7
  6
BYLAYER
 10
19.7220596252
 20
41.9609780817
 30
0.0
 11
9.1398053983
 21
9.9008743148
 31
0.0
 40
0.657738698
 41
-0.7538510564
 42
-0.7087479645
  0
ELLIPSE
  5
2EE
100
AcDbEntity
  8
0
100
AcDbEllipse
 62
7
  6
BYLAYER
 10
20.1064931609
 20
41.9609780817
 30
0.0
 11
8.472058128
 21
9.6390686169
 31
0.0
 40
0.7581403628
 41
-0.7117480936
 42
-0.6666450018
  0
ELLIPSE
  5
2EF
100
AcDbEntity
  8
0
100
AcDbEllipse
 62
7
  6
BYLAYER
 10
20.5046711693
 20
41.9609780817
 30
0.0
 11
7.3844602403
 21
9.6458827394
 31
0.0
 40
0.8684143762
 41
-0.7128098322
 42
-0.6677067404
  0
ELLIPSE
  5
2F0
100
AcDbEntity
  8
0
100
AcDbEllipse
 62
7
  6
BYLAYER
 10
23.9076906772
 20
41.9609780817
 30
0.0
 11
-11.4626280056
 21
11.4912004934
 31
0.0
 40
0.1269935126
 41
1.1284228933
 42
1.1735259851
  0
ELLIPSE
  5
2F1
100
AcDbEntity
  8
0
100
AcDbEllipse
 62
7
  6
BYLAYER
 10
22.0975018036
 20
41.9609780817
 30
0.0
 11
-9.1398053983
 21
9.9008743148
 31
0.0
 40
0.657738698
 41
0.7087479645
 42
0.7538510564
  0
ELLIPSE
  5
2F2
100
AcDbEntity
  8
0
100
AcDbEllipse
 62
7
  6
BYLAYER
 10
20.9097807144
 20
51.7683076326
 30
0.0
 11
-0.0
 21
11.5830346317
 31
0.0
 40
0.963433044
 41
-4.4411252267
 42
-4.3960221348
  0
ELLIPSE
  5
2F3
100
AcDbEntity
  8
0
100
AcDbEllipse
 62
7
  6
BYLAYER
 10
19.7948268066
 20
44.3567917583
 30
0.0
 11
8.0474192635
 21
10.195190748
 31
0.0
 40
0.7470541823
 41
1.7683736368
 42
1.7760389382
  0
ELLIPSE
  5
2F4
100
AcDbEntity
  8
0
100
AcDbEllipse
 62
7
  6
BYLAYER
 10
19.2612374698
 20
44.3567917583
 30
0.0
 11
8.919591999
 21
10.3341729894
 31
0.0
 40
0.6468548444
 41
-4.5458363816
 42
-4.5307384971
  0
ELLIPSE
  5
2F5
100
AcDbEntity
  8
0
100
AcDbEllipse
 62
7
  6
BYLAYER
 10
18.755855165
 20
44.3567917583
 30
0.0
 11
9.5757833526
 21
10.5743403885
 31
0.0
 40
0.5552272381
 41
-4.5945931523
 42
-4.5740581448
  0
ELLIPSE
  5
2F6
100
AcDbEntity
  8
0
100
AcDbEllipse
 62
7
  6
BYLAYER
 10
18.2873271235
 20
44.3567917583
 30
0.0
 11
10.1170563979
 21
10.8336078883
 31
0.0
 40
0.4711119558
 41
-4.6502799792
 42
-4.6254734639
  0
ELLIPSE
  5
2F7
100
AcDbEntity
  8
0
100
AcDbEllipse
 62
7
  6
BYLAYER
 10
17.8636699901
 20
44.3567917583
 30
0.0
 11
10.57430594
 21
11.0811640271
 31
0.0
 40
0.3932536107
 41
-4.7092964719
 42
-4.6809361813
  0
ELLIPSE
  5
2F8
100
AcDbEntity
  8
0
100
AcDbEllipse
 62
7
  6
BYLAYER
 10
17.4921326557
 20
44.3567917583
 30
0.0
 11
10.9583479679
 21
11.3026503924
 31
0.0
 40
0.32049021
 41
1.5130493452
 42
1.5445144439
  0
ELLIPSE
  5
2F9
100
AcDbEntity
  8
0
100
AcDbEllipse
 62
7
  6
BYLAYER
 10
17.1790722271
 20
44.3567917583
 30
0.0
 11
11.272755276
 21
11.4903624333
 31
0.0
 40
0.2517837063
 41
1.4511217496
 42
1.48541291
  0
ELLIPSE
  5
2FA
100
AcDbEntity
  8
0
100
AcDbEllipse
 62
7
  6
BYLAYER
 10
16.9298452551
 20
44.3567917583
 30
0.0
 11
11.5182116851
 21
11.6397811956
 31
0.0
 40
0.1862029912
 41
1.3888451401
 42
1.4254597263
  0
ELLIPSE
  5
2FB
100
AcDbEntity
  8
0
100
AcDbEllipse
 62
7
  6
BYLAYER
 10
16.7487160822
 20
44.3567917583
 30
0.0
 11
11.6942962282
 21
11.7481381864
 31
0.0
 40
0.1228992729
 41
1.3256576735
 42
1.3649764266
  0
ELLIPSE
  5
2FC
100
AcDbEntity
  8
0
100
AcDbEllipse
 62
7
  6
BYLAYER
 10
16.6387838789
 20
44.3567917583
 30
0.0
 11
11.8003161272
 21
11.8137551981
 31
0.0
 40
0.0610824685
 41
1.2620631662
 42
1.3041827215
  0
ELLIPSE
  5
2FD
100
AcDbEntity
  8
0
100
AcDbEllipse
 62
7
  6
BYLAYER
 10
22.0247346223
 20
44.3567917583
 30
0.0
 11
-8.0474192635
 21
10.195190748
 31
0.0
 40
0.7470541823
 41
-1.7760389382
 42
-1.7683736348
  0
ELLIPSE
  5
2FE
100
AcDbEntity
  8
0
100
AcDbEllipse
 62
7
  6
BYLAYER
 10
22.558323959
 20
44.3567917583
 30
0.0
 11
-8.919591999
 21
10.3341729894
 31
0.0
 40
0.6468548444
 41
-1.75244681
 42
-1.7373489368
  0
ELLIPSE
  5
2FF
100
AcDbEntity
  8
0
100
AcDbEllipse
 62
7
  6
BYLAYER
 10
23.9868932075
 20
51.7683076326
 30
0.0
 11
11.5528949874
 21
11.5600239517
 31
0.0
 40
0.0631661312
 41
-1.82411965
 42
-1.7790165582
  0
ELLIPSE
  5
300
100
AcDbEntity
  8
0
100
AcDbEllipse
 62
7
  6
BYLAYER
 10
23.9076906772
 20
51.7683076326
 30
0.0
 11
11.4626280056
 21
11.4912004934
 31
0.0
 40
0.1269935126
 41
-1.7611565844
 42
-1.7160534926
  0
ELLIPSE
  5
301
100
AcDbEntity
  8
0
100
AcDbEllipse
 62
7
  6
BYLAYER
 10
23.7771930762
 20
51.7683076326
 30
0.0
 11
11.3126576757
 21
11.377213794
 31
0.0
 40
0.1921623568
 41
-1.6983667832
 42
-1.6532636914
  0
ELLIPSE
  5
302
100
AcDbEntity
  8
0
100
AcDbEllipse
 62
7
  6
BYLAYER
 10
23.0637062638
 20
44.3567917583
 30
0.0
 11
-9.5757833526
 21
10.5743403885
 31
0.0
 40
0.5552272381
 41
-1.7091271624
 42
-1.688592157
  0
ELLIPSE
  5
303
100
AcDbEntity
  8
0
100
AcDbEllipse
 62
7
  6
BYLAYER
 10
23.5976332548
 20
51.7683076326
 30
0.0
 11
11.103573653
 21
11.2192358625
 31
0.0
 40
0.2593921815
 41
-1.6358717148
 42
-1.590768623
  0
ELLIPSE
  5
304
100
AcDbEntity
  8
0
100
AcDbEllipse
 62
7
  6
BYLAYER
 10
23.3720835312
 20
51.7683076326
 30
0.0
 11
10.8359096051
 21
11.0191384116
 31
0.0
 40
0.3294650235
 41
-1.5738481298
 42
-1.5287450379
  0
ELLIPSE
  5
305
100
AcDbEntity
  8
0
100
AcDbEllipse
 62
7
  6
BYLAYER
 10
23.1044031237
 20
51.7683076326
 30
0.0
 11
10.5096998268
 21
10.7798633581
 31
0.0
 40
0.4032531911
 41
-1.5125785545
 42
-1.4674754626
  0
ELLIPSE
  5
306
100
AcDbEntity
  8
0
100
AcDbEllipse
 62
7
  6
BYLAYER
 10
23.5322343053
 20
44.3567917583
 30
0.0
 11
-10.1170563979
 21
10.8336078883
 31
0.0
 40
0.4711119558
 41
-1.6577118433
 42
-1.6329053324
  0
ELLIPSE
  5
307
100
AcDbEntity
  8
0
100
AcDbEllipse
 62
7
  6
BYLAYER
 10
22.7991721183
 20
51.7683076326
 30
0.0
 11
10.1235279518
 21
10.5062434209
 31
0.0
 40
0.4817532195
 41
-1.4525600291
 42
-1.4074569373
  0
ELLIPSE
  5
308
100
AcDbEntity
  8
0
100
AcDbEllipse
 62
7
  6
BYLAYER
 10
22.4616131021
 20
51.7683076326
 30
0.0
 11
9.672197328
 21
10.207034137
 31
0.0
 40
0.5661264515
 41
-1.3947731368
 42
-1.349670045
  0
ELLIPSE
  5
309
100
AcDbEntity
  8
0
100
AcDbEllipse
 62
7
  6
BYLAYER
 10
22.0975018036
 20
51.7683076326
 30
0.0
 11
9.1398053983
 21
9.9008743148
 31
0.0
 40
0.657738698
 41
-1.3414816556
 42
-1.2963785638
  0
ELLIPSE
  5
30A
100
AcDbEntity
  8
0
100
AcDbEllipse
 62
7
  6
BYLAYER
 10
23.9558914388
 20
44.3567917583
 30
0.0
 11
-10.57430594
 21
11.0811640271
 31
0.0
 40
0.3932536107
 41
-1.6022491259
 42
-1.573888848
  0
ELLIPSE
  5
30B
100
AcDbEntity
  8
0
100
AcDbEllipse
 62
7
  6
BYLAYER
 10
21.7130682679
 20
51.7683076326
 30
0.0
 11
8.472058128
 21
9.6390686169
 31
0.0
 40
0.7581403628
 41
-1.2993786929
 42
-1.2542756011
  0
ELLIPSE
  5
30C
100
AcDbEntity
  8
0
100
AcDbEllipse
 62
7
  6
BYLAYER
 10
21.3148902595
 20
51.7683076326
 30
0.0
 11
7.3844602403
 21
9.6458827394
 31
0.0
 40
0.8684143762
 41
-1.3004404315
 42
-1.2553373397
  0
ELLIPSE
  5
30D
100
AcDbEntity
  8
0
100
AcDbEllipse
 62
7
  6
BYLAYER
 10
20.9097807144
 20
51.7683076326
 30
0.0
 11
-0.0
 21
11.5830346317
 31
0.0
 40
0.963433044
 41
-1.8871631723
 42
-1.8420600805
  0
ELLIPSE
  5
30E
100
AcDbEntity
  8
0
100
AcDbEllipse
 62
7
  6
BYLAYER
 10
24.3274287732
 20
44.3567917583
 30
0.0
 11
-10.9583479679
 21
11.3026503924
 31
0.0
 40
0.32049021
 41
-1.5445144439
 42
-1.5130492648
  0
ELLIPSE
  5
30F
100
AcDbEntity
  8
0
100
AcDbEllipse
 62
7
  6
BYLAYER
 10
24.6404892017
 20
44.3567917583
 30
0.0
 11
-11.272755276
 21
11.4903624333
 31
0.0
 40
0.2517837063
 41
-1.48541291
 42
-1.4511216763
  0
ELLIPSE
  5
310
100
AcDbEntity
  8
0
100
AcDbEllipse
 62
7
  6
BYLAYER
 10
20.5046711693
 20
51.7683076326
 30
0.0
 11
-7.3844602403
 21
9.6458827394
 31
0.0
 40
0.8684143762
 41
1.2553373397
 42
1.3004404315
  0
ELLIPSE
  5
311
100
AcDbEntity
  8
0
100
AcDbEllipse
 62
7
  6
BYLAYER
 10
24.8897161737
 20
44.3567917583
 30
0.0
 11
-11.5182116851
 21
11.6397811956
 31
0.0
 40
0.1862029912
 41
-1.4254597263
 42
-1.3888450666
  0
ELLIPSE
  5
312
100
AcDbEntity
  8
0
100
AcDbEllipse
 62
7
  6
BYLAYER
 10
20.1064931609
 20
51.7683076326
 30
0.0
 11
-8.472058128
 21
9.6390686169
 31
0.0
 40
0.7581403628
 41
1.2542756011
 42
1.2993786929
  0
ELLIPSE
  5
313
100
AcDbEntity
  8
0
100
AcDbEllipse
 62
7
  6
BYLAYER
 10
25.0708453466
 20
44.3567917583
 30
0.0
 11
-11.6942962282
 21
11.7481381864
 31
0.0
 40
0.1228992729
 41
-1.3649764266
 42
-1.3256576209
  0
ELLIPSE
  5
314
100
AcDbEntity
  8
0
100
AcDbEllipse
 62
7
  6
BYLAYER
 10
19.7220596252
 20
51.7683076326
 30
0.0
 11
-9.1398053983
 21
9.9008743148
 31
0.0
 40
0.657738698
 41
1.2963785638
 42
1.3414816556
  0
ELLIPSE
  5
315
100
AcDbEntity
  8
0
100
AcDbEllipse
 62
7
  6
BYLAYER
 10
25.1807775499
 20
44.3567917583
 30
0.0
 11
-11.8003161272
 21
11.8137551981
 31
0.0
 40
0.0610824685
 41
-1.3041827215
 42
-1.2620631378
  0
ELLIPSE
  5
316
100
AcDbEntity
  8
0
100
AcDbEllipse
 62
7
  6
BYLAYER
 10
19.3579483267
 20
51.7683076326
 30
0.0
 11
-9.672197328
 21
10.207034137
 31
0.0
 40
0.5661264515
 41
1.349670045
 42
1.3947731368
  0
ELLIPSE
  5
317
100
AcDbEntity
  8
0
100
AcDbEllipse
 62
7
  6
BYLAYER
 10
19.0203893105
 20
51.7683076326
 30
0.0
 11
-10.1235279518
 21
10.5062434209
 31
0.0
 40
0.4817532195
 41
1.4074569373
 42
1.4525600291
  0
ELLIPSE
  5
318
100
AcDbEntity
  8
0
100
AcDbEllipse
 62
7
  6
BYLAYER
 10
18.7151583052
 20
51.7683076326
 30
0.0
 11
-10.5096998268
 21
10.7798633581
 31
0.0
 40
0.4032531911
 41
1.4674754626
 42
1.5125785545
  0
ELLIPSE
  5
319
100
AcDbEntity
  8
0
100
AcDbEllipse
 62
7
  6
BYLAYER
 10
18.4474778977
 20
51.7683076326
 30
0.0
 11
-10.8359096051
 21
11.0191384116
 31
0.0
 40
0.3294650235
 41
1.5287450379
 42
1.5738481298
  0
ELLIPSE
  5
31A
100
AcDbEntity
  8
0
100
AcDbEllipse
 62
7
  6
BYLAYER
 10
17.8326682214
 20
51.7683076326
 30
0.0
 11
-11.5528949874
 21
11.5600239517
 31
0.0
 40
0.0631661312
 41
-4.504168749
 42
-4.4590656572
  0
ELLIPSE
  5
31B
100
AcDbEntity
  8
0
100
AcDbEllipse
 62
7
  6
BYLAYER
 10
18.221928174
 20
51.7683076326
 30
0.0
 11
-11.103573653
 21
11.2192358625
 31
0.0
 40
0.2593921815
 41
-4.6924166842
 42
-4.6473135924
  0
ELLIPSE
  5
31C
100
AcDbEntity
  8
0
100
AcDbEllipse
 62
7
  6
BYLAYER
 10
17.9118707517
 20
51.7683076326
 30
0.0
 11
-11.4626280056
 21
11.4912004934
 31
0.0
 40
0.1269935126
 41
-4.5671318146
 42
-4.5220287228
  0
ELLIPSE
  5
31D
100
AcDbEntity
  8
0
100
AcDbEllipse
 62
7
  6
BYLAYER
 10
18.0423683526
 20
51.7683076326
 30
0.0
 11
-11.3126576757
 21
11.377213794
 31
0.0
 40
0.1921623568
 41
-4.6299216158
 42
-4.584818524
  0
ELLIPSE
  5
31E
100
AcDbEntity
  8
0
100
AcDbEllipse
 62
7
  6
BYLAYER
 10
19.3579483267
 20
51.7683076326
 30
0.0
 11
-9.672197328
 21
10.207034137
 31
0.0
 40
0.5661264515
 41
-2.3795532079
 42
-2.3344501161
  0
ELLIPSE
  5
31F
100
AcDbEntity
  8
0
100
AcDbEllipse
 62
7
  6
BYLAYER
 10
19.0203893105
 20
51.7683076326
 30
0.0
 11
-10.1235279518
 21
10.5062434209
 31
0.0
 40
0.4817532195
 41
-2.3217663156
 42
-2.2766632237
  0
ELLIPSE
  5
320
100
AcDbEntity
  8
0
100
AcDbEllipse
 62
7
  6
BYLAYER
 10
18.7151583052
 20
51.7683076326
 30
0.0
 11
-10.5096998268
 21
10.7798633581
 31
0.0
 40
0.4032531911
 41
-2.2617477902
 42
-2.2166446984
  0
ELLIPSE
  5
321
100
AcDbEntity
  8
0
100
AcDbEllipse
 62
7
  6
BYLAYER
 10
18.4474778977
 20
51.7683076326
 30
0.0
 11
-10.8359096051
 21
11.0191384116
 31
0.0
 40
0.3294650235
 41
-2.2004782149
 42
-2.1553751231
  0
ELLIPSE
  5
322
100
AcDbEntity
  8
0
100
AcDbEllipse
 62
7
  6
BYLAYER
 10
18.221928174
 20
51.7683076326
 30
0.0
 11
-11.103573653
 21
11.2192358625
 31
0.0
 40
0.2593921815
 41
-2.1384546298
 42
-2.093351538
  0
ELLIPSE
  5
323
100
AcDbEntity
  8
0
100
AcDbEllipse
 62
7
  6
BYLAYER
 10
18.0423683526
 20
51.7683076326
 30
0.0
 11
-11.3126576757
 21
11.377213794
 31
0.0
 40
0.1921623568
 41
-2.0759595615
 42
-2.0308564696
  0
ELLIPSE
  5
324
100
AcDbEntity
  8
0
100
AcDbEllipse
 62
7
  6
BYLAYER
 10
17.9118707517
 20
51.7683076326
 30
0.0
 11
-11.4626280056
 21
11.4912004934
 31
0.0
 40
0.1269935126
 41
-2.0131697603
 42
-1.9680666685
  0
ELLIPSE
  5
325
100
AcDbEntity
  8
0
100
AcDbEllipse
 62
7
  6
BYLAYER
 10
21.3148902595
 20
51.7683076326
 30
0.0
 11
7.3844602403
 21
9.6458827394
 31
0.0
 40
0.8684143762
 41
-3.8544024858
 42
-3.809299394
  0
ELLIPSE
  5
326
100
AcDbEntity
  8
0
100
AcDbEllipse
 62
7
  6
BYLAYER
 10
21.7130682679
 20
51.7683076326
 30
0.0
 11
8.472058128
 21
9.6390686169
 31
0.0
 40
0.7581403628
 41
-3.8533407472
 42
-3.8082376554
  0
ELLIPSE
  5
327
100
AcDbEntity
  8
0
100
AcDbEllipse
 62
7
  6
BYLAYER
 10
22.0975018036
 20
51.7683076326
 30
0.0
 11
9.1398053983
 21
9.9008743148
 31
0.0
 40
0.657738698
 41
-3.8954437099
 42
-3.8503406181
  0
ELLIPSE
  5
328
100
AcDbEntity
  8
0
100
AcDbEllipse
 62
7
  6
BYLAYER
 10
22.4616131021
 20
51.7683076326
 30
0.0
 11
9.672197328
 21
10.207034137
 31
0.0
 40
0.5661264515
 41
-3.9487351911
 42
-3.9036320993
  0
ELLIPSE
  5
329
100
AcDbEntity
  8
0
100
AcDbEllipse
 62
7
  6
BYLAYER
 10
22.7991721183
 20
51.7683076326
 30
0.0
 11
10.1235279518
 21
10.5062434209
 31
0.0
 40
0.4817532195
 41
-4.0065220834
 42
-3.9614189916
  0
ELLIPSE
  5
32A
100
AcDbEntity
  8
0
100
AcDbEllipse
 62
7
  6
BYLAYER
 10
17.8326682214
 20
51.7683076326
 30
0.0
 11
-11.5528949874
 21
11.5600239517
 31
0.0
 40
0.0631661312
 41
-1.9502066947
 42
-1.9051036029
  0
ELLIPSE
  5
32B
100
AcDbEntity
  8
0
100
AcDbEllipse
 62
7
  6
BYLAYER
 10
23.1044031237
 20
51.7683076326
 30
0.0
 11
10.5096998268
 21
10.7798633581
 31
0.0
 40
0.4032531911
 41
-4.0665406088
 42
-4.021437517
  0
ELLIPSE
  5
32C
100
AcDbEntity
  8
0
100
AcDbEllipse
 62
7
  6
BYLAYER
 10
23.3720835312
 20
51.7683076326
 30
0.0
 11
10.8359096051
 21
11.0191384116
 31
0.0
 40
0.3294650235
 41
-4.1278101841
 42
-4.0827070923
  0
ELLIPSE
  5
32D
100
AcDbEntity
  8
0
100
AcDbEllipse
 62
7
  6
BYLAYER
 10
20.5046711693
 20
51.7683076326
 30
0.0
 11
-7.3844602403
 21
9.6458827394
 31
0.0
 40
0.8684143762
 41
-2.4738859132
 42
-2.4287828214
  0
ELLIPSE
  5
32E
100
AcDbEntity
  8
0
100
AcDbEllipse
 62
7
  6
BYLAYER
 10
23.5976332548
 20
51.7683076326
 30
0.0
 11
11.103573653
 21
11.2192358625
 31
0.0
 40
0.2593921815
 41
-4.1898337691
 42
-4.1447306773
  0
ELLIPSE
  5
32F
100
AcDbEntity
  8
0
100
AcDbEllipse
 62
7
  6
BYLAYER
 10
23.7771930762
 20
51.7683076326
 30
0.0
 11
11.3126576757
 21
11.377213794
 31
0.0
 40
0.1921623568
 41
-4.2523288375
 42
-4.2072257457
  0
ELLIPSE
  5
330
100
AcDbEntity
  8
0
100
AcDbEllipse
 62
7
  6
BYLAYER
 10
23.9076906772
 20
51.7683076326
 30
0.0
 11
11.4626280056
 21
11.4912004934
 31
0.0
 40
0.1269935126
 41
-4.3151186387
 42
-4.2700155469
  0
ELLIPSE
  5
331
100
AcDbEntity
  8
0
100
AcDbEllipse
 62
7
  6
BYLAYER
 10
20.1064931609
 20
51.7683076326
 30
0.0
 11
-8.472058128
 21
9.6390686169
 31
0.0
 40
0.7581403628
 41
-2.4749476518
 42
-2.42984456
  0
ELLIPSE
  5
332
100
AcDbEntity
  8
0
100
AcDbEllipse
 62
7
  6
BYLAYER
 10
23.9868932075
 20
51.7683076326
 30
0.0
 11
11.5528949874
 21
11.5600239517
 31
0.0
 40
0.0631661312
 41
-4.3780817043
 42
-4.3329786125
  0
ELLIPSE
  5
333
100
AcDbEntity
  8
0
100
AcDbEllipse
 62
7
  6
BYLAYER
 10
19.7220596252
 20
51.7683076326
 30
0.0
 11
-9.1398053983
 21
9.9008743148
 31
0.0
 40
0.657738698
 41
-2.432844689
 42
-2.3877415972
  0
ENDSEC
  0
SECTION
  2
OBJECTS
  0
DICTIONARY
  5
C
100
AcDbDictionary
280
0
281
1
  3
ACAD_GROUP
350
D
  3
ACAD_MLINESTYLE
350
17
  3
ACAD_LAYOUT
350
1A
  3
ACAD_PLOTSETTINGS
350
19
  3
ACAD_PLOTSTYLENAME
350
E
  0
DICTIONARY
  5
D
102
{ACAD_REACTORS
330
C
102
}
100
AcDbDictionary
280
0
281
1
  0
ACDBDICTIONARYWDFLT
  5
E
102
{ACAD_REACTORS
330
C
102
}
100
AcDbDictionary
281
1
  3
Normal
350
F
100
AcDbDictionaryWithDefault
340
F
  0
DICTIONARY
  5
17
102
{ACAD_REACTORS
330
C
102
}
100
AcDbDictionary
280
0
281
1
  3
Standard
350
18
  0
DICTIONARY
  5
19
102
{ACAD_REACTORS
330
C
102
}
100
AcDbDictionary
281
1
  0
DICTIONARY
  5
1A
102
{ACAD_REACTORS
330
C
102
}
100
AcDbDictionary
281
1
  3
Model
350
334
  3
Layout1
350
335
  0
ACDBPLACEHOLDER
  5
F
102
{ACAD_REACTORS
330
E
102
}
  0
MLINESTYLE
  5
18
102
{ACAD_REACTORS
330
17
102
}
100
AcDbMlineStyle
  2
STANDARD
 70
0
  3

 62
256
 51
90.0
 52
90.0
 71
2
 49
0.5
 62
256
  6
BYLAYER
 49
-0.5
 62
256
  6
BYLAYER
  0
LAYOUT
  5
334
102
{ACAD_REACTORS
330
1A
102
}
100
AcDbPlotSettings
  1

  2
none_device
  4

  6

 40
0.0
 41
0.0
 42
0.0
 43
0.0
 44
210.0
 45
297.0
 46
0.0
 47
0.0
 48
0.0
 49
0.0
140
0.0
141
0.0
142
1.0
143
1.0
 70
1024
 72
1
 73
0
 74
0
  7

 75
0
147
1.0
148
0.0
149
0.0
100
AcDbLayout
  1
Model
 70
0
 71
0
 10
0.0
 20
0.0
 11
210.0
 21
297.0
 12
0.0
 22
0.0
 32
0.0
 14
0.0
 24
0.0
 34
0.0
 15
0.0
 25
0.0
 35
0.0
146
0.0
 13
0.0
 23
0.0
 33
0.0
 16
1.0
 26
0.0
 36
0.0
 17
0.0
 27
1.0
 37
0.0
 76
0
330
210
345
0
346
0
  0
LAYOUT
  5
335
102
{ACAD_REACTORS
330
1A
102
}
100
AcDbPlotSettings
  1

  2
none_device
  4

  6

 40
0.0
 41
0.0
 42
0.0
 43
0.0
 44
210.0
 45
297.0
 46
0.0
 47
0.0
 48
0.0
 49
0.0
140
0.0
141
0.0
142
1.0
143
1.0
 70
0
 72
1
 73
0
 74
0
  7

 75
0
147
1.0
148
0.0
149
0.0
100
AcDbLayout
  1
Layout1
 70
0
 71
1
 10
0.0
 20
0.0
 11
210.0
 21
297.0
 12
0.0
 22
0.0
 32
0.0
 14
0.0
 24
0.0
 34
0.0
 15
0.0
 25
0.0
 35
0.0
146
0.0
 13
0.0
 23
0.0
 33
0.0
 16
1.0
 26
0.0
 36
0.0
 17
0.0
 27
1.0
 37
0.0
 76
0
330
211
345
0
346
0
  0
ENDSEC
  0
EOF
