999
DXF file: C:\Users\sesa63760\Dev\_Creo\CAD\MCADID0004241_3D-CAD\drw0001_6.dxf
999
Pro/ENGINEER 2019471 by Parametric Technology Corporation
  0
SECTION
  2
HEADER
  9
$ACADVER
  1
AC1024
  9
$DWGCODEPAGE
  3
ANSI_1252
  9
$EXTMAX
 10
587.9258728174
 20
831.4951629847
 30
0.0
  9
$EXTMIN
 10
0.0
 20
0.0
 30
0.0
  9
$LIMMIN
 10
0.0
 20
0.0
  9
$LIMMAX
 10
587.9258728174
 20
831.4951629847
  9
$VIEWCTR
 10
293.9629364087
 20
415.7475814923
  9
$VIEWSIZE
 40
831.4951629847
  9
$CLAYER
  8
0
  9
$LTSCALE
 40
54.2011661797
  9
$CELTYPE
  6
BYLAYER
  9
$DIMSCALE
 40
1.0
  9
$DIMASZ
 40
6.9991175335
  9
$DIMEXO
 40
1.0
  9
$DIMDLI
 40
37.4480784515
  9
$DIMEXE
 40
1.0
  9
$DIMCEN
 40
8.8692817385
  9
$DIMLFAC
 40
1.0
  9
$DIMBLK
  1
_FILLED
  9
$DIMALT
 70
0
  9
$DIMALTF
 40
0.0393700787
  9
$DIMTXT
 40
9.798764547
  9
$DIMTOL
 70
1
  9
$DIMLIM
 70
0
  9
$DIMTFAC
 40
1.0
  9
$DIMTP
 40
0.01
  9
$DIMTM
 40
0.01
  9
$DIMGAP
 40
0.625
  9
$DIMDSEP
 70
46
  9
$AUNITS
 70
0
  9
$PDMODE
 70
3
  9
$PDSIZE
 40
0.3125
  9
$HANDSEED
  5
320
  9
$TILEMODE
 70
1
  9
$MEASUREMENT
 70
1
  9
$INSUNITS
 70
4
  0
ENDSEC
  0
SECTION
  2
CLASSES
  0
CLASS
  1
ACDBDICTIONARYWDFLT
  2
AcDbDictionaryWithDefault
  3
AutoCAD 2000
 90
0
 91
1
280
0
281
0
  0
CLASS
  1
ACDBPLACEHOLDER
  2
AcDbPlaceHolder
  3
AutoCAD 2000
 90
0
 91
1
280
0
281
0
  0
CLASS
  1
LAYOUT
  2
AcDbLayout
  3
AutoCAD 2000
 90
0
 91
0
280
0
281
0
  0
ENDSEC
  0
SECTION
  2
TABLES
  0
TABLE
  2
VPORT
  5
8
100
AcDbSymbolTable
 70
2
  0
VPORT
  5
1F4
100
AcDbSymbolTableRecord
100
AcDbViewportTableRecord
  2
*ACTIVE
 70
0
 10
0.0
 20
0.0
 11
1.0
 21
1.0
 12
293.9629364087
 22
415.7475814923
 13
0.0
 23
0.0
 14
1.0
 24
1.0
 15
0.0
 25
0.0
 16
0.0
 26
0.0
 36
1.0
 17
0.0
 27
0.0
 37
0.0
 40
831.4951629847
 41
0.7070707071
 42
50.0
 43
0.0
 44
0.0
 50
0.0
 51
0.0
 71
0
 72
100
 73
1
 74
1
 75
0
 76
0
 77
0
 78
0
  0
ENDTAB
  0
TABLE
  2
LTYPE
  5
5
100
AcDbSymbolTable
 70
6
  0
LTYPE
  5
14
100
AcDbSymbolTableRecord
100
AcDbLinetypeTableRecord
  2
BYBLOCK
 70
0
  3

 72
65
 73
0
 40
0.0
  0
LTYPE
  5
15
100
AcDbSymbolTableRecord
100
AcDbLinetypeTableRecord
  2
BYLAYER
 70
0
  3

 72
65
 73
0
 40
0.0
  0
LTYPE
  5
16
100
AcDbSymbolTableRecord
100
AcDbLinetypeTableRecord
  2
CONTINUOUS
 70
64
  3
Solid line
 72
65
 73
0
 40
0.0
  0
LTYPE
  5
1F5
100
AcDbSymbolTableRecord
100
AcDbLinetypeTableRecord
  2
CENTER
 70
64
  3
____ _ ____ _ ____ _ ____ _ ____ _ ____ _ ____
 72
65
 73
4
 40
0.6
 49
0.375
 74
0
 49
-0.075
 74
0
 49
0.075
 74
0
 49
-0.075
 74
0
  0
LTYPE
  5
1F6
100
AcDbSymbolTableRecord
100
AcDbLinetypeTableRecord
  2
HIDDEN
 70
64
  3
- - - - - - - - - - - - - - - - - - - -
 72
65
 73
2
 40
0.2
 49
0.1
 74
0
 49
-0.1
 74
0
  0
LTYPE
  5
1F7
100
AcDbSymbolTableRecord
100
AcDbLinetypeTableRecord
  2
PHANTOM
 70
64
  3
_____ _ _ _____ _ _ _____ _ _ _____
 72
65
 73
6
 40
0.8
 49
0.45
 74
0
 49
-0.05
 74
0
 49
0.1
 74
0
 49
-0.05
 74
0
 49
0.1
 74
0
 49
-0.05
 74
0
  0
LTYPE
  5
1F8
100
AcDbSymbolTableRecord
100
AcDbLinetypeTableRecord
  2
DOT
 70
64
  3
. . . . . . . . . . . . . . . . . . . .
 72
65
 73
2
 40
0.2
 49
0.1
 74
0
 49
-0.1
 74
0
  0
LTYPE
  5
1F9
100
AcDbSymbolTableRecord
100
AcDbLinetypeTableRecord
  2
DASHED
 70
64
  3
- - - - - - - - - - - - - - - - - - - -
 72
65
 73
2
 40
0.2
 49
0.1
 74
0
 49
-0.1
 74
0
  0
ENDTAB
  0
TABLE
  2
LAYER
  5
2
100
AcDbSymbolTable
 70
36
  0
LAYER
  5
10
100
AcDbSymbolTableRecord
100
AcDbLayerTableRecord
  2
0
 70
0
 62
7
  6
CONTINUOUS
370
-3
390
F
  0
LAYER
  5
1FA
100
AcDbSymbolTableRecord
100
AcDbLayerTableRecord
  2
DEFAULT_1
 70
0
 62
7
  6
CENTER
370
-3
390
F
  0
LAYER
  5
1FB
100
AcDbSymbolTableRecord
100
AcDbLayerTableRecord
  2
DEFAULT_2
 70
0
 62
7
  6
HIDDEN
370
-3
390
F
  0
LAYER
  5
1FC
100
AcDbSymbolTableRecord
100
AcDbLayerTableRecord
  2
DEFAULT_3
 70
0
 62
7
  6
PHANTOM
370
-3
390
F
  0
LAYER
  5
1FD
100
AcDbSymbolTableRecord
100
AcDbLayerTableRecord
  2
00_COMPONENTS
 70
0
 62
7
  6
CONTINUOUS
370
-3
390
F
  0
LAYER
  5
1FE
100
AcDbSymbolTableRecord
100
AcDbLayerTableRecord
  2
01_1_DEFAULT_DATUMS
 70
0
 62
7
  6
CONTINUOUS
370
-3
390
F
  0
LAYER
  5
1FF
100
AcDbSymbolTableRecord
100
AcDbLayerTableRecord
  2
01_PLANES
 70
0
 62
7
  6
CONTINUOUS
370
-3
390
F
  0
LAYER
  5
200
100
AcDbSymbolTableRecord
100
AcDbLayerTableRecord
  2
02_COORD_SYS
 70
0
 62
7
  6
CONTINUOUS
370
-3
390
F
  0
LAYER
  5
201
100
AcDbSymbolTableRecord
100
AcDbLayerTableRecord
  2
03_AXES
 70
0
 62
7
  6
CONTINUOUS
370
-3
390
F
  0
LAYER
  5
202
100
AcDbSymbolTableRecord
100
AcDbLayerTableRecord
  2
04_POINTS
 70
0
 62
7
  6
CONTINUOUS
370
-3
390
F
  0
LAYER
  5
203
100
AcDbSymbolTableRecord
100
AcDbLayerTableRecord
  2
05_CURVES
 70
0
 62
7
  6
CONTINUOUS
370
-3
390
F
  0
LAYER
  5
204
100
AcDbSymbolTableRecord
100
AcDbLayerTableRecord
  2
06_SURFS
 70
0
 62
7
  6
CONTINUOUS
370
-3
390
F
  0
LAYER
  5
205
100
AcDbSymbolTableRecord
100
AcDbLayerTableRecord
  2
07_COSMETICS
 70
0
 62
7
  6
CONTINUOUS
370
-3
390
F
  0
LAYER
  5
206
100
AcDbSymbolTableRecord
100
AcDbLayerTableRecord
  2
10_NOTES
 70
0
 62
7
  6
CONTINUOUS
370
-3
390
F
  0
LAYER
  5
207
100
AcDbSymbolTableRecord
100
AcDbLayerTableRecord
  2
11_NOTES_PUB
 70
0
 62
7
  6
CONTINUOUS
370
-3
390
F
  0
LAYER
  5
208
100
AcDbSymbolTableRecord
100
AcDbLayerTableRecord
  2
13_REF_GTOL
 70
0
 62
7
  6
CONTINUOUS
370
-3
390
F
  0
LAYER
  5
209
100
AcDbSymbolTableRecord
100
AcDbLayerTableRecord
  2
16_MISC
 70
0
 62
7
  6
CONTINUOUS
370
-3
390
F
  0
LAYER
  5
20A
100
AcDbSymbolTableRecord
100
AcDbLayerTableRecord
  2
17_NO_PRINT
 70
0
 62
7
  6
CONTINUOUS
370
-3
390
F
  0
LAYER
  5
20B
100
AcDbSymbolTableRecord
100
AcDbLayerTableRecord
  2
18_DATUM_CAMS_JOINTS
 70
0
 62
7
  6
CONTINUOUS
370
-3
390
F
  0
LAYER
  5
20C
100
AcDbSymbolTableRecord
100
AcDbLayerTableRecord
  2
19_DATUM_FUNCTIONAL
 70
0
 62
7
  6
CONTINUOUS
370
-3
390
F
  0
LAYER
  5
20D
100
AcDbSymbolTableRecord
100
AcDbLayerTableRecord
  2
20_DATUM_KINEMATIC_SCHEME
 70
0
 62
7
  6
CONTINUOUS
370
-3
390
F
  0
LAYER
  5
20E
100
AcDbSymbolTableRecord
100
AcDbLayerTableRecord
  2
3
 70
0
 62
7
  6
CONTINUOUS
370
-3
390
F
  0
LAYER
  5
20F
100
AcDbSymbolTableRecord
100
AcDbLayerTableRecord
  2
4
 70
0
 62
7
  6
CONTINUOUS
370
-3
390
F
  0
ENDTAB
  0
TABLE
  2
STYLE
  5
3
100
AcDbSymbolTable
 70
1
  0
STYLE
  5
11
100
AcDbSymbolTableRecord
100
AcDbTextStyleTableRecord
  2
STANDARD
 70
0
 40
0.0
 41
1.0
 50
0.0
 71
0
 42
0.2
  3
ARIAL.TTF
  4

  0
STYLE
  5
210
100
AcDbSymbolTableRecord
100
AcDbTextStyleTableRecord
  2
TEXTSTYLE_1
 70
0
 40
0.0
 41
0.8
 50
0.0
 71
0
 42
0.2
  3
gdt
  4

  0
ENDTAB
  0
TABLE
  2
VIEW
  5
6
100
AcDbSymbolTable
 70
0
  0
ENDTAB
  0
TABLE
  2
UCS
  5
7
100
AcDbSymbolTable
 70
0
  0
ENDTAB
  0
TABLE
  2
APPID
  5
9
100
AcDbSymbolTable
 70
1
  0
APPID
  5
211
100
AcDbSymbolTableRecord
100
AcDbRegAppTableRecord
  2
ACAD
 70
0
  0
ENDTAB
  0
TABLE
  2
BLOCK_RECORD
  5
1
100
AcDbSymbolTable
 70
0
  0
BLOCK_RECORD
  5
212
100
AcDbSymbolTableRecord
100
AcDbBlockTableRecord
  2
*Model_Space
  0
BLOCK_RECORD
  5
213
100
AcDbSymbolTableRecord
100
AcDbBlockTableRecord
  2
*Paper_Space
  0
BLOCK_RECORD
  5
214
100
AcDbSymbolTableRecord
100
AcDbBlockTableRecord
  2
_FILLED
  0
ENDTAB
  0
TABLE
  2
DIMSTYLE
  5
A
100
AcDbSymbolTable
 70
1
100
AcDbDimStyleTable
 71
0
  0
DIMSTYLE
105
215
100
AcDbSymbolTableRecord
100
AcDbDimStyleTableRecord
  2
STANDARD
 70
0
  3

  4

 40
1.0
 41
6.9991175335
 42
1.0
 43
0.38
 44
1.0
 45
0.0
 46
0.0
 47
0.01
 48
0.01
140
9.798764547
141
0.09
142
0.0
143
25.4
144
1.0
145
0.0
146
1.0
147
0.625
 71
1
 72
0
 73
0
 74
0
 75
0
 76
0
 77
1
 78
8
 79
2
170
0
171
1
172
0
173
0
174
0
175
0
176
0
177
0
178
0
270
2
179
2
271
2
272
2
273
2
274
2
275
0
280
0
281
0
282
0
283
1
284
8
285
0
286
0
287
3
288
0
340
11
278
46
341
214
342
214
343
214
344
214
  0
ENDTAB
  0
ENDSEC
  0
SECTION
  2
BLOCKS
  0
BLOCK
  5
20
100
AcDbEntity
  8
0
100
AcDbBlockBegin
  2
*Model_Space
 70
0
 10
0.0
 20
0.0
 30
0.0
  3
*Model_Space
  1

  0
ENDBLK
  5
21
100
AcDbEntity
  8
0
100
AcDbBlockEnd
  0
BLOCK
  5
1C
100
AcDbEntity
  8
0
100
AcDbBlockBegin
  2
*Paper_Space
 70
0
 10
0.0
 20
0.0
 30
0.0
  3
*Paper_Space
  1

  0
ENDBLK
  5
1D
100
AcDbEntity
  8
0
100
AcDbBlockEnd
  0
BLOCK
  5
216
100
AcDbEntity
  8
0
100
AcDbBlockBegin
  2
_FILLED
 70
64
 10
0.0
 20
0.0
  3
_FILLED
  1

  0
SOLID
  5
217
100
AcDbEntity
  8
0
  6
BYBLOCK
 62
0
100
AcDbTrace
 10
0.0
 20
0.0
 11
-1.0
 21
0.25
 12
-1.0
 22
-0.25
 13
-1.0
 23
-0.25
  0
ENDBLK
  5
218
100
AcDbEntity
  8
0
  6
BYBLOCK
 62
0
100
AcDbBlockEnd
  0
ENDSEC
  0
SECTION
  2
ENTITIES
  0
LINE
  5
219
100
AcDbEntity
  8
0
100
AcDbLine
 62
7
  6
BYLAYER
 10
299.2310928531
 20
68.6975807851
 11
294.6312695508
 21
68.6975807851
  0
LINE
  5
21A
100
AcDbEntity
  8
0
100
AcDbLine
 62
7
  6
BYLAYER
 10
259.2311047319
 20
68.6975807851
 11
254.6312814296
 21
68.6975807851
  0
LINE
  5
21B
100
AcDbEntity
  8
0
100
AcDbLine
 62
7
  6
BYLAYER
 10
254.25840317
 20
68.7974706467
 11
247.4311854522
 21
68.7974706467
  0
LINE
  5
21C
100
AcDbEntity
  8
0
100
AcDbLine
 62
7
  6
BYLAYER
 10
259.603991492
 20
68.7974706467
 11
294.2583912912
 21
68.7974706467
  0
LINE
  5
21D
100
AcDbEntity
  8
0
100
AcDbLine
 62
7
  6
BYLAYER
 10
299.6039796132
 20
68.7974706467
 11
300.4311854522
 21
68.7974706467
  0
LINE
  5
21E
100
AcDbEntity
  8
0
100
AcDbLine
 62
7
  6
BYLAYER
 10
278.0726336323
 20
69.2974706467
 11
269.790701798
 21
69.2974706467
  0
LINE
  5
21F
100
AcDbEntity
  8
0
100
AcDbLine
 62
7
  6
BYLAYER
 10
300.2311854522
 20
69.6975807851
 11
293.6311854522
 21
69.6975807851
  0
LINE
  5
220
100
AcDbEntity
  8
0
100
AcDbLine
 62
7
  6
BYLAYER
 10
260.231197331
 20
69.6975807851
 11
253.631197331
 21
69.6975807851
  0
LINE
  5
221
100
AcDbEntity
  8
0
100
AcDbLine
 62
7
  6
BYLAYER
 10
301.4311854522
 20
69.7974706467
 11
300.2311854522
 21
69.7974706467
  0
LINE
  5
222
100
AcDbEntity
  8
0
100
AcDbLine
 62
7
  6
BYLAYER
 10
293.6311854522
 20
69.7974706467
 11
277.9311854522
 21
69.7974706533
  0
LINE
  5
223
100
AcDbEntity
  8
0
100
AcDbLine
 62
7
  6
BYLAYER
 10
269.9311854522
 20
69.7974706467
 11
260.231197331
 21
69.7974706467
  0
LINE
  5
224
100
AcDbEntity
  8
0
100
AcDbLine
 62
7
  6
BYLAYER
 10
253.631197331
 20
69.7974706467
 11
246.4311854522
 21
69.7974706467
  0
LINE
  5
225
100
AcDbEntity
  8
0
100
AcDbLine
 62
7
  6
BYLAYER
 10
253.0188702227
 20
70.7974706467
 11
253.631197331
 21
70.7974706467
  0
LINE
  5
226
100
AcDbEntity
  8
0
100
AcDbLine
 62
7
  6
BYLAYER
 10
260.231197331
 20
70.7974706467
 11
261.4311854522
 21
70.7974705895
  0
LINE
  5
227
100
AcDbEntity
  8
0
100
AcDbLine
 62
7
  6
BYLAYER
 10
292.4311854522
 20
70.7974705778
 11
293.6311854522
 21
70.7974706467
  0
LINE
  5
228
100
AcDbEntity
  8
0
100
AcDbLine
 62
7
  6
BYLAYER
 10
300.2311854522
 20
70.7974706467
 11
301.4311854522
 21
70.7974705777
  0
LINE
  5
229
100
AcDbEntity
  8
0
100
AcDbLine
 62
7
  6
BYLAYER
 10
293.9311854522
 20
71.2974706467
 11
300.9311854522
 21
71.2974706467
  0
LINE
  5
22A
100
AcDbEntity
  8
0
100
AcDbLine
 62
7
  6
BYLAYER
 10
253.3814319586
 20
71.2974706467
 11
259.9311854522
 21
71.2974706467
  0
LINE
  5
22B
100
AcDbEntity
  8
0
100
AcDbLine
 62
7
  6
BYLAYER
 10
301.4311854522
 20
71.7974706467
 11
293.9311854522
 21
71.7974706467
  0
LINE
  5
22C
100
AcDbEntity
  8
0
100
AcDbLine
 62
7
  6
BYLAYER
 10
259.9311854522
 20
71.7974706467
 11
251.5191037604
 21
71.7974706467
  0
LINE
  5
22D
100
AcDbEntity
  8
0
100
AcDbLine
 62
7
  6
BYLAYER
 10
246.4311854522
 20
86.2974706467
 11
277.930686663
 21
86.2974706467
  0
LINE
  5
22E
100
AcDbEntity
  8
0
100
AcDbLine
 62
7
  6
BYLAYER
 10
277.9311854522
 20
86.2974706467
 11
301.4311854522
 21
86.2974706467
  0
LINE
  5
22F
100
AcDbEntity
  8
3
100
AcDbLine
 62
7
  6
BYLAYER
 10
246.430686663
 20
86.2975935937
 11
301.4307039779
 21
86.2975935937
  0
LINE
  5
230
100
AcDbEntity
  8
4
100
AcDbLine
 62
7
  6
BYLAYER
 10
346.67260553
 20
113.6457559084
 11
301.67260553
 21
113.6457559084
  0
LINE
  5
231
100
AcDbEntity
  8
4
100
AcDbLine
 62
7
  6
BYLAYER
 10
329.97260553
 20
120.3957559084
 11
343.47260553
 21
120.3957559084
  0
LINE
  5
232
100
AcDbEntity
  8
4
100
AcDbLine
 62
7
  6
BYLAYER
 10
301.67260553
 20
120.6457559084
 11
301.4307039779
 21
120.6457559084
  0
LINE
  5
233
100
AcDbEntity
  8
4
100
AcDbLine
 62
7
  6
BYLAYER
 10
301.67260553
 20
126.6457559084
 11
301.4307039779
 21
126.6457559084
  0
LINE
  5
234
100
AcDbEntity
  8
4
100
AcDbLine
 62
7
  6
BYLAYER
 10
343.47260553
 20
126.8957559084
 11
329.97260553
 21
126.8957559084
  0
LINE
  5
235
100
AcDbEntity
  8
0
100
AcDbLine
 62
7
  6
BYLAYER
 10
257.9309441508
 20
762.7975821995
 11
257.4309431671
 21
762.2975813957
  0
LINE
  5
236
100
AcDbEntity
  8
0
100
AcDbLine
 62
7
  6
BYLAYER
 10
256.180944715
 20
758.7975807851
 11
255.680944715
 21
758.2975807851
  0
LINE
  5
237
100
AcDbEntity
  8
0
100
AcDbLine
 62
7
  6
BYLAYER
 10
256.180944715
 20
753.7975807851
 11
255.680944715
 21
753.2975807851
  0
LINE
  5
238
100
AcDbEntity
  8
0
100
AcDbLine
 62
7
  6
BYLAYER
 10
271.180944715
 20
752.4975807851
 11
270.980944715
 21
752.2975807851
  0
LINE
  5
239
100
AcDbEntity
  8
0
100
AcDbLine
 62
7
  6
BYLAYER
 10
278.680944715
 20
758.7975807851
 11
278.180944715
 21
758.2975807851
  0
LINE
  5
23A
100
AcDbEntity
  8
4
100
AcDbLine
 62
7
  6
BYLAYER
 10
329.97260553
 20
150.3957559084
 11
343.47260553
 21
150.3957559084
  0
LINE
  5
23B
100
AcDbEntity
  8
4
100
AcDbLine
 62
7
  6
BYLAYER
 10
301.67260553
 20
150.6457559084
 11
301.4307039779
 21
150.6457559084
  0
LINE
  5
23C
100
AcDbEntity
  8
4
100
AcDbLine
 62
7
  6
BYLAYER
 10
301.67260553
 20
156.6457559084
 11
301.4307039779
 21
156.6457559084
  0
LINE
  5
23D
100
AcDbEntity
  8
4
100
AcDbLine
 62
7
  6
BYLAYER
 10
343.47260553
 20
156.8957559084
 11
329.97260553
 21
156.8957559084
  0
LINE
  5
23E
100
AcDbEntity
  8
4
100
AcDbLine
 62
7
  6
BYLAYER
 10
301.67260553
 20
163.6457559084
 11
346.67260553
 21
163.6457559084
  0
LINE
  5
23F
100
AcDbEntity
  8
3
100
AcDbLine
 62
7
  6
BYLAYER
 10
246.430686663
 20
734.7975935937
 11
246.430686663
 21
86.2975935937
  0
LINE
  5
240
100
AcDbEntity
  8
0
100
AcDbLine
 62
7
  6
BYLAYER
 10
246.430944715
 20
751.2975807851
 11
246.430944715
 21
734.7975807851
  0
LINE
  5
241
100
AcDbEntity
  8
0
100
AcDbLine
 62
7
  6
BYLAYER
 10
246.4311854522
 20
86.2974706467
 11
246.4311854522
 21
69.7974706467
  0
LINE
  5
242
100
AcDbEntity
  8
3
100
AcDbLine
 62
7
  6
BYLAYER
 10
247.8812444072
 20
86.2975935937
 11
247.8812444072
 21
734.7975935937
  0
LINE
  5
243
100
AcDbEntity
  8
0
100
AcDbLine
 62
7
  6
BYLAYER
 10
247.8815024592
 20
734.7975807851
 11
247.8815024592
 21
751.2975807851
  0
LINE
  5
244
100
AcDbEntity
  8
0
100
AcDbLine
 62
7
  6
BYLAYER
 10
247.8817431964
 20
69.7974706467
 11
247.8817431964
 21
86.2974706467
  0
LINE
  5
245
100
AcDbEntity
  8
0
100
AcDbLine
 62
7
  6
BYLAYER
 10
251.5188630232
 20
751.2975807851
 11
251.5188630232
 21
749.2975807851
  0
LINE
  5
246
100
AcDbEntity
  8
0
100
AcDbLine
 62
7
  6
BYLAYER
 10
251.5191037604
 20
71.7974706467
 11
251.5191037604
 21
69.7974706467
  0
LINE
  5
247
100
AcDbEntity
  8
3
100
AcDbLine
 62
7
  6
BYLAYER
 10
252.0840248305
 20
734.7975935937
 11
252.0840248305
 21
86.2975935937
  0
LINE
  5
248
100
AcDbEntity
  8
0
100
AcDbLine
 62
7
  6
BYLAYER
 10
252.0842828825
 20
749.2975807851
 11
252.0842828825
 21
734.7975807851
  0
LINE
  5
249
100
AcDbEntity
  8
0
100
AcDbLine
 62
7
  6
BYLAYER
 10
252.0845236196
 20
86.2974706467
 11
252.0845236196
 21
71.7974706467
  0
LINE
  5
24A
100
AcDbEntity
  8
0
100
AcDbLine
 62
7
  6
BYLAYER
 10
253.430944715
 20
750.2975807851
 11
253.430944715
 21
751.2975807851
  0
LINE
  5
24B
100
AcDbEntity
  8
0
100
AcDbLine
 62
7
  6
BYLAYER
 10
253.4311854522
 20
69.7974706467
 11
253.4311854522
 21
70.7974706467
  0
LINE
  5
24C
100
AcDbEntity
  8
0
100
AcDbLine
 62
7
  6
BYLAYER
 10
253.630944715
 20
749.8991796618
 11
253.630944715
 21
751.3975807851
  0
LINE
  5
24D
100
AcDbEntity
  8
0
100
AcDbLine
 62
7
  6
BYLAYER
 10
253.631197331
 20
71.1958836488
 11
253.631197331
 21
69.6975807851
  0
LINE
  5
24E
100
AcDbEntity
  8
3
100
AcDbLine
 62
7
  6
BYLAYER
 10
254.8312361094
 20
86.2975935937
 11
254.8312361094
 21
734.7975935937
  0
LINE
  5
24F
100
AcDbEntity
  8
0
100
AcDbLine
 62
7
  6
BYLAYER
 10
254.8314941614
 20
734.7975807851
 11
254.8314941614
 21
749.7975807851
  0
LINE
  5
250
100
AcDbEntity
  8
0
100
AcDbLine
 62
7
  6
BYLAYER
 10
254.8317348986
 20
71.2974706467
 11
254.8317348986
 21
86.2974706467
  0
LINE
  5
251
100
AcDbEntity
  8
0
100
AcDbLine
 62
7
  6
BYLAYER
 10
255.680944715
 20
752.3975807851
 11
255.680944715
 21
758.2975807851
  0
LINE
  5
252
100
AcDbEntity
  8
0
100
AcDbLine
 62
7
  6
BYLAYER
 10
257.430944715
 20
754.7975807851
 11
257.430944715
 21
762.2975798477
  0
LINE
  5
253
100
AcDbEntity
  8
0
100
AcDbLine
 62
7
  6
BYLAYER
 10
257.930944715
 20
753.7975807851
 11
257.930944715
 21
754.7975807851
  0
LINE
  5
254
100
AcDbEntity
  8
0
100
AcDbLine
 62
7
  6
BYLAYER
 10
259.9309446422
 20
749.7975807851
 11
259.9309446422
 21
749.2975807851
  0
LINE
  5
255
100
AcDbEntity
  8
0
100
AcDbLine
 62
7
  6
BYLAYER
 10
259.9311853847
 20
71.7974706467
 11
259.9311853847
 21
71.2974706467
  0
LINE
  5
256
100
AcDbEntity
  8
0
100
AcDbLine
 62
7
  6
BYLAYER
 10
260.230944715
 20
749.9017632204
 11
260.230944715
 21
751.3975807851
  0
LINE
  5
257
100
AcDbEntity
  8
0
100
AcDbLine
 62
7
  6
BYLAYER
 10
260.231197331
 20
71.1934079018
 11
260.231197331
 21
69.6975807851
  0
LINE
  5
258
100
AcDbEntity
  8
0
100
AcDbLine
 62
7
  6
BYLAYER
 10
260.430944715
 20
751.2975807851
 11
260.430944715
 21
750.2975807851
  0
LINE
  5
259
100
AcDbEntity
  8
0
100
AcDbLine
 62
7
  6
BYLAYER
 10
260.4311854522
 20
70.7974706467
 11
260.4311854522
 21
69.7974706467
  0
LINE
  5
25A
100
AcDbEntity
  8
0
100
AcDbLine
 62
7
  6
BYLAYER
 10
261.430944715
 20
750.2975807851
 11
261.430944715
 21
752.2975807851
  0
LINE
  5
25B
100
AcDbEntity
  8
0
100
AcDbLine
 62
7
  6
BYLAYER
 10
261.4311854522
 20
68.7974706467
 11
261.4311854522
 21
70.7974706467
  0
LINE
  5
25C
100
AcDbEntity
  8
0
100
AcDbLine
 62
7
  6
BYLAYER
 10
268.930944715
 20
754.7975807851
 11
268.930944715
 21
753.7975807851
  0
LINE
  5
25D
100
AcDbEntity
  8
3
100
AcDbLine
 62
7
  6
BYLAYER
 10
269.430686663
 20
734.7975935937
 11
269.430686663
 21
86.2975935937
  0
LINE
  5
25E
100
AcDbEntity
  8
0
100
AcDbLine
 62
7
  6
BYLAYER
 10
269.430944715
 20
751.2975807851
 11
269.430944715
 21
734.7975807851
  0
LINE
  5
25F
100
AcDbEntity
  8
0
100
AcDbLine
 62
7
  6
BYLAYER
 10
269.430944715
 20
754.7975807851
 11
269.430944715
 21
762.2975798477
  0
LINE
  5
260
100
AcDbEntity
  8
0
100
AcDbLine
 62
7
  6
BYLAYER
 10
269.4311854522
 20
86.2974706467
 11
269.4311854522
 21
69.7974706467
  0
LINE
  5
261
100
AcDbEntity
  8
3
100
AcDbLine
 62
7
  6
BYLAYER
 10
269.930686663
 20
86.2975935937
 11
269.930686663
 21
734.7975935937
  0
LINE
  5
262
100
AcDbEntity
  8
0
100
AcDbLine
 62
7
  6
BYLAYER
 10
269.930944715
 20
734.7975807851
 11
269.930944715
 21
751.2975807851
  0
LINE
  5
263
100
AcDbEntity
  8
0
100
AcDbLine
 62
7
  6
BYLAYER
 10
269.9311854522
 20
69.7974706467
 11
269.9311854522
 21
86.2974706467
  0
LINE
  5
264
100
AcDbEntity
  8
0
100
AcDbLine
 62
7
  6
BYLAYER
 10
271.180944715
 20
752.2975807851
 11
271.180944715
 21
758.2975807851
  0
LINE
  5
265
100
AcDbEntity
  8
3
100
AcDbLine
 62
7
  6
BYLAYER
 10
277.930686663
 20
734.7975935937
 11
277.930686663
 21
86.2975935937
  0
LINE
  5
266
100
AcDbEntity
  8
0
100
AcDbLine
 62
7
  6
BYLAYER
 10
277.930944715
 20
751.2975807851
 11
277.930944715
 21
734.7975807851
  0
LINE
  5
267
100
AcDbEntity
  8
0
100
AcDbLine
 62
7
  6
BYLAYER
 10
277.9311854522
 20
86.2974706467
 11
277.9311854522
 21
69.7974706467
  0
LINE
  5
268
100
AcDbEntity
  8
0
100
AcDbLine
 62
7
  6
BYLAYER
 10
278.180944715
 20
752.2975807851
 11
278.180944715
 21
758.2975807851
  0
LINE
  5
269
100
AcDbEntity
  8
3
100
AcDbLine
 62
7
  6
BYLAYER
 10
278.430686663
 20
86.2975935937
 11
278.430686663
 21
734.7975935937
  0
LINE
  5
26A
100
AcDbEntity
  8
0
100
AcDbLine
 62
7
  6
BYLAYER
 10
278.430944715
 20
734.7975807851
 11
278.430944715
 21
751.2975807851
  0
LINE
  5
26B
100
AcDbEntity
  8
0
100
AcDbLine
 62
7
  6
BYLAYER
 10
278.4311854522
 20
69.7974706467
 11
278.4311854522
 21
86.2974706467
  0
LINE
  5
26C
100
AcDbEntity
  8
0
100
AcDbLine
 62
7
  6
BYLAYER
 10
281.804684715
 20
759.9975807851
 11
281.804684715
 21
758.7975807851
  0
LINE
  5
26D
100
AcDbEntity
  8
0
100
AcDbLine
 62
7
  6
BYLAYER
 10
290.054684715
 20
759.9975807851
 11
290.054684715
 21
758.7975807851
  0
LINE
  5
26E
100
AcDbEntity
  8
0
100
AcDbLine
 62
7
  6
BYLAYER
 10
292.430944715
 20
752.2975807851
 11
292.430944715
 21
750.2975807851
  0
LINE
  5
26F
100
AcDbEntity
  8
0
100
AcDbLine
 62
7
  6
BYLAYER
 10
292.4311854522
 20
70.7974706467
 11
292.4311854522
 21
68.7974706467
  0
LINE
  5
270
100
AcDbEntity
  8
0
100
AcDbLine
 62
7
  6
BYLAYER
 10
293.430944715
 20
750.2975807851
 11
293.430944715
 21
751.2975807851
  0
LINE
  5
271
100
AcDbEntity
  8
0
100
AcDbLine
 62
7
  6
BYLAYER
 10
293.4311854522
 20
69.7974706467
 11
293.4311854522
 21
70.7974706467
  0
LINE
  5
272
100
AcDbEntity
  8
0
100
AcDbLine
 62
7
  6
BYLAYER
 10
293.630944715
 20
749.9016477797
 11
293.630944715
 21
751.3975807851
  0
LINE
  5
273
100
AcDbEntity
  8
0
100
AcDbLine
 62
7
  6
BYLAYER
 10
293.6311854522
 20
71.1932882118
 11
293.6311854522
 21
69.6975807851
  0
LINE
  5
274
100
AcDbEntity
  8
0
100
AcDbLine
 62
7
  6
BYLAYER
 10
293.680944715
 20
752.2975807851
 11
293.680944715
 21
758.2975807851
  0
LINE
  5
275
100
AcDbEntity
  8
0
100
AcDbLine
 62
7
  6
BYLAYER
 10
293.9309447875
 20
749.2975807851
 11
293.9309447875
 21
749.7975807851
  0
LINE
  5
276
100
AcDbEntity
  8
0
100
AcDbLine
 62
7
  6
BYLAYER
 10
293.9311855251
 20
71.2974706467
 11
293.9311855251
 21
71.7974706467
  0
LINE
  5
277
100
AcDbEntity
  8
3
100
AcDbLine
 62
7
  6
BYLAYER
 10
297.4307039779
 20
734.7975935937
 11
297.4307039779
 21
86.2975935937
  0
LINE
  5
278
100
AcDbEntity
  8
0
100
AcDbLine
 62
7
  6
BYLAYER
 10
297.430944715
 20
749.7975807851
 11
297.430944715
 21
734.7975807851
  0
LINE
  5
279
100
AcDbEntity
  8
0
100
AcDbLine
 62
7
  6
BYLAYER
 10
297.4311854522
 20
86.2974706467
 11
297.4311854522
 21
71.2974706467
  0
LINE
  5
27A
100
AcDbEntity
  8
0
100
AcDbLine
 62
7
  6
BYLAYER
 10
300.230944715
 20
749.7975807851
 11
300.230944715
 21
751.3975807851
  0
LINE
  5
27B
100
AcDbEntity
  8
0
100
AcDbLine
 62
7
  6
BYLAYER
 10
300.2311854522
 20
71.2975807851
 11
300.2311854522
 21
69.6975807851
  0
LINE
  5
27C
100
AcDbEntity
  8
0
100
AcDbLine
 62
7
  6
BYLAYER
 10
300.430944715
 20
752.2975807851
 11
300.4309447167
 21
750.2975807851
  0
LINE
  5
27D
100
AcDbEntity
  8
0
100
AcDbLine
 62
7
  6
BYLAYER
 10
300.4311854539
 20
70.7974706467
 11
300.4311854522
 21
68.7974706467
  0
LINE
  5
27E
100
AcDbEntity
  8
3
100
AcDbLine
 62
7
  6
BYLAYER
 10
301.4307039779
 20
86.2975935937
 11
301.4307039779
 21
734.7975935937
  0
LINE
  5
27F
100
AcDbEntity
  8
0
100
AcDbLine
 62
7
  6
BYLAYER
 10
301.430944715
 20
734.7975807851
 11
301.430944715
 21
751.2975807851
  0
LINE
  5
280
100
AcDbEntity
  8
0
100
AcDbLine
 62
7
  6
BYLAYER
 10
301.4311854522
 20
69.7974706467
 11
301.4311854522
 21
86.2974706467
  0
LINE
  5
281
100
AcDbEntity
  8
4
100
AcDbLine
 62
7
  6
BYLAYER
 10
301.67260553
 20
709.9806583692
 11
301.67260553
 21
659.9806583692
  0
LINE
  5
282
100
AcDbEntity
  8
4
100
AcDbLine
 62
7
  6
BYLAYER
 10
301.67260553
 20
163.6457559084
 11
301.67260553
 21
113.6457559084
  0
LINE
  5
283
100
AcDbEntity
  8
4
100
AcDbLine
 62
7
  6
BYLAYER
 10
308.67260553
 20
113.6457559084
 11
308.67260553
 21
163.6457559084
  0
LINE
  5
284
100
AcDbEntity
  8
4
100
AcDbLine
 62
7
  6
BYLAYER
 10
308.67260553
 20
659.9806583692
 11
308.67260553
 21
709.9806583692
  0
LINE
  5
285
100
AcDbEntity
  8
4
100
AcDbLine
 62
7
  6
BYLAYER
 10
351.67260553
 20
704.9806583692
 11
351.67260553
 21
664.9806583692
  0
LINE
  5
286
100
AcDbEntity
  8
4
100
AcDbLine
 62
7
  6
BYLAYER
 10
351.67260553
 20
158.6457559084
 11
351.67260553
 21
118.6457559084
  0
LINE
  5
287
100
AcDbEntity
  8
0
100
AcDbLine
 62
7
  6
BYLAYER
 10
255.780944715
 20
752.3975807851
 11
255.680944715
 21
752.4975807851
  0
LINE
  5
288
100
AcDbEntity
  8
0
100
AcDbLine
 62
7
  6
BYLAYER
 10
271.180944715
 20
753.2975807851
 11
270.680944715
 21
753.7975807851
  0
LINE
  5
289
100
AcDbEntity
  8
0
100
AcDbLine
 62
7
  6
BYLAYER
 10
271.180944715
 20
758.2975807851
 11
270.680944715
 21
758.7975807851
  0
LINE
  5
28A
100
AcDbEntity
  8
0
100
AcDbLine
 62
7
  6
BYLAYER
 10
269.430946263
 20
762.2975813957
 11
268.9309452793
 21
762.7975821995
  0
LINE
  5
28B
100
AcDbEntity
  8
4
100
AcDbLine
 62
7
  6
BYLAYER
 10
346.67260553
 20
659.9806583692
 11
301.67260553
 21
659.9806583692
  0
LINE
  5
28C
100
AcDbEntity
  8
4
100
AcDbLine
 62
7
  6
BYLAYER
 10
329.97260553
 20
666.7306583692
 11
343.47260553
 21
666.7306583692
  0
LINE
  5
28D
100
AcDbEntity
  8
4
100
AcDbLine
 62
7
  6
BYLAYER
 10
301.67260553
 20
666.9806583692
 11
301.4307039779
 21
666.9806583692
  0
LINE
  5
28E
100
AcDbEntity
  8
4
100
AcDbLine
 62
7
  6
BYLAYER
 10
301.67260553
 20
672.9806583692
 11
301.4307039779
 21
672.9806583692
  0
LINE
  5
28F
100
AcDbEntity
  8
4
100
AcDbLine
 62
7
  6
BYLAYER
 10
343.47260553
 20
673.2306583692
 11
329.97260553
 21
673.2306583692
  0
LINE
  5
290
100
AcDbEntity
  8
0
100
AcDbLine
 62
7
  6
BYLAYER
 10
293.680944715
 20
758.2975807851
 11
293.180944715
 21
758.7975807851
  0
LINE
  5
291
100
AcDbEntity
  8
4
100
AcDbLine
 62
7
  6
BYLAYER
 10
329.97260553
 20
696.7306583692
 11
343.47260553
 21
696.7306583692
  0
LINE
  5
292
100
AcDbEntity
  8
4
100
AcDbLine
 62
7
  6
BYLAYER
 10
301.67260553
 20
696.9806583692
 11
301.4307039779
 21
696.9806583692
  0
LINE
  5
293
100
AcDbEntity
  8
4
100
AcDbLine
 62
7
  6
BYLAYER
 10
301.67260553
 20
702.9806583692
 11
301.4307039779
 21
702.9806583692
  0
LINE
  5
294
100
AcDbEntity
  8
4
100
AcDbLine
 62
7
  6
BYLAYER
 10
343.47260553
 20
703.2306583692
 11
329.97260553
 21
703.2306583692
  0
LINE
  5
295
100
AcDbEntity
  8
4
100
AcDbLine
 62
7
  6
BYLAYER
 10
301.67260553
 20
709.9806583692
 11
346.67260553
 21
709.9806583692
  0
LINE
  5
296
100
AcDbEntity
  8
0
100
AcDbLine
 62
7
  6
BYLAYER
 10
246.430944715
 20
734.7975807851
 11
301.430944715
 21
734.7975807851
  0
LINE
  5
297
100
AcDbEntity
  8
3
100
AcDbLine
 62
7
  6
BYLAYER
 10
246.430686663
 20
734.7975935937
 11
301.4307039779
 21
734.7975935937
  0
LINE
  5
298
100
AcDbEntity
  8
0
100
AcDbLine
 62
7
  6
BYLAYER
 10
285.9473466235
 20
748.2975807851
 11
277.930944715
 21
748.2975807851
  0
LINE
  5
299
100
AcDbEntity
  8
0
100
AcDbLine
 62
7
  6
BYLAYER
 10
263.4145428065
 20
748.2975807851
 11
271.430944715
 21
748.2975807851
  0
LINE
  5
29A
100
AcDbEntity
  8
0
100
AcDbLine
 62
7
  6
BYLAYER
 10
263.4147585101
 20
748.3087750362
 11
271.3257356861
 21
748.3087750362
  0
LINE
  5
29B
100
AcDbEntity
  8
0
100
AcDbLine
 62
7
  6
BYLAYER
 10
285.9471307406
 20
748.3087938681
 11
278.0362411997
 21
748.3087938681
  0
LINE
  5
29C
100
AcDbEntity
  8
0
100
AcDbLine
 62
7
  6
BYLAYER
 10
285.9475629128
 20
749.2863249684
 11
277.8254500548
 21
749.2863249684
  0
LINE
  5
29D
100
AcDbEntity
  8
0
100
AcDbLine
 62
7
  6
BYLAYER
 10
263.4143271029
 20
749.2863865341
 11
271.5361537439
 21
749.2863865341
  0
LINE
  5
29E
100
AcDbEntity
  8
0
100
AcDbLine
 62
7
  6
BYLAYER
 10
251.5188630232
 20
749.2975807851
 11
259.930944715
 21
749.2975807851
  0
LINE
  5
29F
100
AcDbEntity
  8
0
100
AcDbLine
 62
7
  6
BYLAYER
 10
293.930944715
 20
749.2975807851
 11
301.430944715
 21
749.2975807851
  0
LINE
  5
2A0
100
AcDbEntity
  8
0
100
AcDbLine
 62
7
  6
BYLAYER
 10
253.3811912226
 20
749.7975807851
 11
259.930944715
 21
749.7975807851
  0
LINE
  5
2A1
100
AcDbEntity
  8
0
100
AcDbLine
 62
7
  6
BYLAYER
 10
293.930944715
 20
749.7975807851
 11
300.930944715
 21
749.7975807851
  0
LINE
  5
2A2
100
AcDbEntity
  8
0
100
AcDbLine
 62
7
  6
BYLAYER
 10
301.430944715
 20
750.297580854
 11
300.230944715
 21
750.2975807851
  0
LINE
  5
2A3
100
AcDbEntity
  8
0
100
AcDbLine
 62
7
  6
BYLAYER
 10
293.630944715
 20
750.2975807851
 11
292.430944715
 21
750.2975808541
  0
LINE
  5
2A4
100
AcDbEntity
  8
0
100
AcDbLine
 62
7
  6
BYLAYER
 10
261.430944715
 20
750.297580854
 11
260.230944715
 21
750.2975807851
  0
LINE
  5
2A5
100
AcDbEntity
  8
0
100
AcDbLine
 62
7
  6
BYLAYER
 10
253.630944715
 20
750.2975807851
 11
253.0186295062
 21
750.2975807851
  0
LINE
  5
2A6
100
AcDbEntity
  8
0
100
AcDbLine
 62
7
  6
BYLAYER
 10
246.430944715
 20
751.2975807851
 11
253.630944715
 21
751.2975807851
  0
LINE
  5
2A7
100
AcDbEntity
  8
0
100
AcDbLine
 62
7
  6
BYLAYER
 10
260.230944715
 20
751.2975807851
 11
269.930944715
 21
751.2975807785
  0
LINE
  5
2A8
100
AcDbEntity
  8
0
100
AcDbLine
 62
7
  6
BYLAYER
 10
277.930944715
 20
751.2975807851
 11
293.630944715
 21
751.2975807851
  0
LINE
  5
2A9
100
AcDbEntity
  8
0
100
AcDbLine
 62
7
  6
BYLAYER
 10
300.230944715
 20
751.2975807851
 11
301.430944715
 21
751.2975807851
  0
LINE
  5
2AA
100
AcDbEntity
  8
0
100
AcDbLine
 62
7
  6
BYLAYER
 10
253.630944715
 20
751.3975807851
 11
260.230944715
 21
751.3975807851
  0
LINE
  5
2AB
100
AcDbEntity
  8
0
100
AcDbLine
 62
7
  6
BYLAYER
 10
293.630944715
 20
751.3975807851
 11
300.230944715
 21
751.3975807851
  0
LINE
  5
2AC
100
AcDbEntity
  8
0
100
AcDbLine
 62
7
  6
BYLAYER
 10
269.789496535
 20
751.7975807851
 11
278.0714283691
 21
751.7975807851
  0
LINE
  5
2AD
100
AcDbEntity
  8
0
100
AcDbLine
 62
7
  6
BYLAYER
 10
300.430944715
 20
752.2975807851
 11
299.6041499185
 21
752.2975807851
  0
LINE
  5
2AE
100
AcDbEntity
  8
0
100
AcDbLine
 62
7
  6
BYLAYER
 10
247.430944715
 20
752.2975807851
 11
254.2577395115
 21
752.2975807851
  0
LINE
  5
2AF
100
AcDbEntity
  8
0
100
AcDbLine
 62
7
  6
BYLAYER
 10
259.6041499185
 20
752.2975807851
 11
294.2577395115
 21
752.2975807851
  0
LINE
  5
2B0
100
AcDbEntity
  8
0
100
AcDbLine
 62
7
  6
BYLAYER
 10
254.6310288136
 20
752.3975807851
 11
259.2308521159
 21
752.3975807851
  0
LINE
  5
2B1
100
AcDbEntity
  8
0
100
AcDbLine
 62
7
  6
BYLAYER
 10
294.6310288136
 20
752.3975807851
 11
299.2308521159
 21
752.3975807851
  0
LINE
  5
2B2
100
AcDbEntity
  8
0
100
AcDbLine
 62
7
  6
BYLAYER
 10
271.180944715
 20
752.4975807851
 11
255.680944715
 21
752.4975807851
  0
LINE
  5
2B3
100
AcDbEntity
  8
0
100
AcDbLine
 62
7
  6
BYLAYER
 10
255.680944715
 20
753.2975807851
 11
271.180944715
 21
753.2975807851
  0
LINE
  5
2B4
100
AcDbEntity
  8
0
100
AcDbLine
 62
7
  6
BYLAYER
 10
293.6808804182
 20
753.7975807851
 11
278.1810090119
 21
753.7975807851
  0
LINE
  5
2B5
100
AcDbEntity
  8
0
100
AcDbLine
 62
7
  6
BYLAYER
 10
255.6810090119
 20
753.7975807851
 11
271.1808804182
 21
753.7975807851
  0
LINE
  5
2B6
100
AcDbEntity
  8
0
100
AcDbLine
 62
7
  6
BYLAYER
 10
269.4309381317
 20
754.7975807851
 11
257.4309512984
 21
754.7975807851
  0
LINE
  5
2B7
100
AcDbEntity
  8
0
100
AcDbLine
 62
7
  6
BYLAYER
 10
293.680944715
 20
756.7975807851
 11
278.180944715
 21
756.7975807851
  0
LINE
  5
2B8
100
AcDbEntity
  8
0
100
AcDbLine
 62
7
  6
BYLAYER
 10
271.180944715
 20
756.7975807851
 11
269.430944715
 21
756.7975807851
  0
LINE
  5
2B9
100
AcDbEntity
  8
0
100
AcDbLine
 62
7
  6
BYLAYER
 10
257.430944715
 20
756.7975807851
 11
255.680944715
 21
756.7975807851
  0
LINE
  5
2BA
100
AcDbEntity
  8
0
100
AcDbLine
 62
7
  6
BYLAYER
 10
255.680944715
 20
758.2975807851
 11
257.430944715
 21
758.2975807851
  0
LINE
  5
2BB
100
AcDbEntity
  8
0
100
AcDbLine
 62
7
  6
BYLAYER
 10
269.430944715
 20
758.2975807851
 11
271.180944715
 21
758.2975807851
  0
LINE
  5
2BC
100
AcDbEntity
  8
0
100
AcDbLine
 62
7
  6
BYLAYER
 10
278.180944715
 20
758.2975807851
 11
293.680944715
 21
758.2975807851
  0
LINE
  5
2BD
100
AcDbEntity
  8
0
100
AcDbLine
 62
7
  6
BYLAYER
 10
256.180944715
 20
758.7975807851
 11
257.430944715
 21
758.7975807851
  0
LINE
  5
2BE
100
AcDbEntity
  8
0
100
AcDbLine
 62
7
  6
BYLAYER
 10
269.430944715
 20
758.7975807851
 11
270.680944715
 21
758.7975807851
  0
LINE
  5
2BF
100
AcDbEntity
  8
0
100
AcDbLine
 62
7
  6
BYLAYER
 10
278.680944715
 20
758.7975807851
 11
293.180944715
 21
758.7975807851
  0
LINE
  5
2C0
100
AcDbEntity
  8
0
100
AcDbLine
 62
7
  6
BYLAYER
 10
281.804684715
 20
759.9975807851
 11
290.054684715
 21
759.9975807851
  0
LINE
  5
2C1
100
AcDbEntity
  8
0
100
AcDbLine
 62
7
  6
BYLAYER
 10
282.1046243471
 20
760.2975807851
 11
289.7547066063
 21
760.2975807851
  0
LINE
  5
2C2
100
AcDbEntity
  8
0
100
AcDbLine
 62
7
  6
BYLAYER
 10
257.430944715
 20
762.2975798477
 11
269.430944715
 21
762.2975798477
  0
LINE
  5
2C3
100
AcDbEntity
  8
0
100
AcDbLine
 62
7
  6
BYLAYER
 10
257.9309441508
 20
762.7975807851
 11
268.9309452793
 21
762.7975807851
  0
ARC
  5
2C4
100
AcDbEntity
  8
0
100
AcDbCircle
 62
7
  6
BYLAYER
 10
275.158173513
 20
56.2660908868
 40
27.6896077368
100
AcDbArc
 50
146.3934359332
 51
146.9026052163
  0
ARC
  5
2C5
100
AcDbEntity
  8
0
100
AcDbCircle
 62
7
  6
BYLAYER
 10
294.6311854522
 20
69.6975807851
 40
1.0
100
AcDbArc
 50
180.0
 51
270.0
  0
ARC
  5
2C6
100
AcDbEntity
  8
0
100
AcDbCircle
 62
7
  6
BYLAYER
 10
259.231197331
 20
69.6975807851
 40
1.0
100
AcDbArc
 50
270.0
 51
360.0
  0
ARC
  5
2C7
100
AcDbEntity
  8
0
100
AcDbCircle
 62
7
  6
BYLAYER
 10
254.631197331
 20
69.6975807851
 40
1.0
100
AcDbArc
 50
180.0
 51
270.0
  0
ARC
  5
2C8
100
AcDbEntity
  8
0
100
AcDbCircle
 62
7
  6
BYLAYER
 10
292.4311854522
 20
69.7974706467
 40
1.0
100
AcDbArc
 50
270.0
 51
360.0
  0
ARC
  5
2C9
100
AcDbEntity
  8
0
100
AcDbCircle
 62
7
  6
BYLAYER
 10
278.9311854522
 20
69.7974706467
 40
1.0
100
AcDbArc
 50
179.9999999984
 51
270.0
  0
ARC
  5
2CA
100
AcDbEntity
  8
0
100
AcDbCircle
 62
7
  6
BYLAYER
 10
268.9311854522
 20
69.7974706467
 40
1.0
100
AcDbArc
 50
270.0
 51
360.0
  0
ARC
  5
2CB
100
AcDbEntity
  8
0
100
AcDbCircle
 62
7
  6
BYLAYER
 10
252.4311854522
 20
69.7974706467
 40
1.0
100
AcDbArc
 50
270.0000000003
 51
360.0
  0
ARC
  5
2CC
100
AcDbEntity
  8
0
100
AcDbCircle
 62
7
  6
BYLAYER
 10
261.4311854522
 20
69.7974706467
 40
1.0
100
AcDbArc
 50
180.0
 51
270.0
  0
ARC
  5
2CD
100
AcDbEntity
  8
0
100
AcDbCircle
 62
7
  6
BYLAYER
 10
247.4311854522
 20
69.7974706467
 40
1.0
100
AcDbArc
 50
180.0000000002
 51
270.0000000009
  0
ARC
  5
2CE
100
AcDbEntity
  8
0
100
AcDbCircle
 62
7
  6
BYLAYER
 10
253.9311854522
 20
70.7974706467
 40
0.5
100
AcDbArc
 50
90.0
 51
180.0
  0
ARC
  5
2CF
100
AcDbEntity
  8
0
100
AcDbCircle
 62
7
  6
BYLAYER
 10
293.9311854522
 20
70.7974706467
 40
0.5
100
AcDbArc
 50
90.0
 51
180.0
  0
ARC
  5
2D0
100
AcDbEntity
  8
0
100
AcDbCircle
 62
7
  6
BYLAYER
 10
259.9311854522
 20
70.7974706467
 40
0.5
100
AcDbArc
 50
0.0
 51
90.0
  0
ARC
  5
2D1
100
AcDbEntity
  8
0
100
AcDbCircle
 62
7
  6
BYLAYER
 10
259.230944715
 20
751.3975807851
 40
1.0
100
AcDbArc
 50
0.0
 51
90.0
  0
ARC
  5
2D2
100
AcDbEntity
  8
0
100
AcDbCircle
 62
7
  6
BYLAYER
 10
254.630944715
 20
751.3975807851
 40
1.0
100
AcDbArc
 50
90.0
 51
180.0
  0
ARC
  5
2D3
100
AcDbEntity
  8
0
100
AcDbCircle
 62
7
  6
BYLAYER
 10
261.430944715
 20
751.2975807851
 40
1.0
100
AcDbArc
 50
90.0
 51
180.0
  0
ARC
  5
2D4
100
AcDbEntity
  8
0
100
AcDbCircle
 62
7
  6
BYLAYER
 10
268.930944715
 20
751.2975807851
 40
1.0
100
AcDbArc
 50
0.0
 51
90.0
  0
ARC
  5
2D5
100
AcDbEntity
  8
0
100
AcDbCircle
 62
7
  6
BYLAYER
 10
247.4309447151
 20
751.2975807852
 40
1.0
100
AcDbArc
 50
90.0000000017
 51
180.0000000003
  0
ARC
  5
2D6
100
AcDbEntity
  8
0
100
AcDbCircle
 62
7
  6
BYLAYER
 10
252.430944715
 20
751.2975807851
 40
1.0
100
AcDbArc
 50
0.0
 51
90.0
  0
ARC
  5
2D7
100
AcDbEntity
  8
0
100
AcDbCircle
 62
7
  6
BYLAYER
 10
253.930944715
 20
750.2975807851
 40
0.5
100
AcDbArc
 50
180.0
 51
270.0
  0
ARC
  5
2D8
100
AcDbEntity
  8
0
100
AcDbCircle
 62
7
  6
BYLAYER
 10
259.930944715
 20
750.2975807851
 40
0.5
100
AcDbArc
 50
270.0
 51
360.0
  0
ARC
  5
2D9
100
AcDbEntity
  8
0
100
AcDbCircle
 62
7
  6
BYLAYER
 10
294.630944715
 20
751.3975807851
 40
1.0
100
AcDbArc
 50
90.0
 51
180.0
  0
ARC
  5
2DA
100
AcDbEntity
  8
0
100
AcDbCircle
 62
7
  6
BYLAYER
 10
292.430944715
 20
751.2975807851
 40
1.0
100
AcDbArc
 50
0.0
 51
90.0
  0
ARC
  5
2DB
100
AcDbEntity
  8
0
100
AcDbCircle
 62
7
  6
BYLAYER
 10
278.930944715
 20
751.2975807851
 40
1.0
100
AcDbArc
 50
90.0
 51
180.0000000008
  0
ARC
  5
2DC
100
AcDbEntity
  8
0
100
AcDbCircle
 62
7
  6
BYLAYER
 10
293.930944715
 20
750.2975807851
 40
0.5
100
AcDbArc
 50
180.0
 51
270.0
  0
ARC
  5
2DD
100
AcDbEntity
  8
0
100
AcDbCircle
 62
7
  6
BYLAYER
 10
271.430944715
 20
748.7975807851
 40
0.5
100
AcDbArc
 50
257.8531473856
 51
77.8531473856
  0
ARC
  5
2DE
100
AcDbEntity
  8
0
100
AcDbCircle
 62
7
  6
BYLAYER
 10
277.930944715
 20
748.7975807851
 40
0.5
100
AcDbArc
 50
102.1803352402
 51
282.1803352402
  0
ARC
  5
2DF
100
AcDbEntity
  8
0
100
AcDbCircle
 62
7
  6
BYLAYER
 10
273.7041421053
 20
763.8721094567
 40
25.9492033285
100
AcDbArc
 50
213.0803197523
 51
213.623639097
  0
ARC
  5
2E0
100
AcDbEntity
  8
0
100
AcDbCircle
 62
7
  6
BYLAYER
 10
282.104684715
 20
759.9975807851
 40
0.3
100
AcDbArc
 50
90.0
 51
180.0
  0
ARC
  5
2E1
100
AcDbEntity
  8
0
100
AcDbCircle
 62
7
  6
BYLAYER
 10
289.754684715
 20
759.9975807851
 40
0.3
100
AcDbArc
 50
0.0
 51
90.0
  0
ARC
  5
2E2
100
AcDbEntity
  8
4
100
AcDbCircle
 62
7
  6
BYLAYER
 10
346.67260553
 20
158.6457559084
 40
5.0
100
AcDbArc
 50
0.0
 51
90.0
  0
ARC
  5
2E3
100
AcDbEntity
  8
4
100
AcDbCircle
 62
7
  6
BYLAYER
 10
346.67260553
 20
118.6457559084
 40
5.0
100
AcDbArc
 50
270.0
 51
360.0
  0
ARC
  5
2E4
100
AcDbEntity
  8
4
100
AcDbCircle
 62
7
  6
BYLAYER
 10
343.47260553
 20
153.6457559084
 40
3.25
100
AcDbArc
 50
270.0
 51
90.0
  0
ARC
  5
2E5
100
AcDbEntity
  8
4
100
AcDbCircle
 62
7
  6
BYLAYER
 10
329.97260553
 20
153.6457559084
 40
3.25
100
AcDbArc
 50
90.0
 51
270.0
  0
ARC
  5
2E6
100
AcDbEntity
  8
4
100
AcDbCircle
 62
7
  6
BYLAYER
 10
329.97260553
 20
123.6457559084
 40
3.25
100
AcDbArc
 50
90.0
 51
270.0
  0
ARC
  5
2E7
100
AcDbEntity
  8
4
100
AcDbCircle
 62
7
  6
BYLAYER
 10
343.47260553
 20
123.6457559084
 40
3.25
100
AcDbArc
 50
270.0
 51
90.0
  0
ARC
  5
2E8
100
AcDbEntity
  8
0
100
AcDbCircle
 62
7
  6
BYLAYER
 10
299.2311854522
 20
69.6975807851
 40
1.0
100
AcDbArc
 50
270.0
 51
360.0
  0
ARC
  5
2E9
100
AcDbEntity
  8
0
100
AcDbCircle
 62
7
  6
BYLAYER
 10
300.4311854522
 20
69.7974706467
 40
1.0
100
AcDbArc
 50
270.0
 51
360.0
  0
ARC
  5
2EA
100
AcDbEntity
  8
0
100
AcDbCircle
 62
7
  6
BYLAYER
 10
300.9311854522
 20
71.7974706467
 40
0.5
100
AcDbArc
 50
270.0
 51
360.0
  0
ARC
  5
2EB
100
AcDbEntity
  8
4
100
AcDbCircle
 62
7
  6
BYLAYER
 10
346.67260553
 20
704.9806583692
 40
5.0
100
AcDbArc
 50
0.0
 51
90.0
  0
ARC
  5
2EC
100
AcDbEntity
  8
4
100
AcDbCircle
 62
7
  6
BYLAYER
 10
346.67260553
 20
664.9806583692
 40
5.0
100
AcDbArc
 50
270.0
 51
360.0
  0
ARC
  5
2ED
100
AcDbEntity
  8
4
100
AcDbCircle
 62
7
  6
BYLAYER
 10
343.47260553
 20
699.9806583692
 40
3.25
100
AcDbArc
 50
270.0
 51
90.0
  0
ARC
  5
2EE
100
AcDbEntity
  8
4
100
AcDbCircle
 62
7
  6
BYLAYER
 10
329.97260553
 20
699.9806583692
 40
3.25
100
AcDbArc
 50
90.0
 51
270.0
  0
ARC
  5
2EF
100
AcDbEntity
  8
4
100
AcDbCircle
 62
7
  6
BYLAYER
 10
329.97260553
 20
669.9806583692
 40
3.25
100
AcDbArc
 50
90.0
 51
270.0
  0
ARC
  5
2F0
100
AcDbEntity
  8
4
100
AcDbCircle
 62
7
  6
BYLAYER
 10
343.47260553
 20
669.9806583692
 40
3.25
100
AcDbArc
 50
270.0
 51
90.0
  0
ARC
  5
2F1
100
AcDbEntity
  8
0
100
AcDbCircle
 62
7
  6
BYLAYER
 10
299.230944715
 20
751.3975807851
 40
1.0
100
AcDbArc
 50
0.0
 51
90.0
  0
ARC
  5
2F2
100
AcDbEntity
  8
0
100
AcDbCircle
 62
7
  6
BYLAYER
 10
300.430944715
 20
751.2975807851
 40
1.0
100
AcDbArc
 50
0.0
 51
90.0
  0
ARC
  5
2F3
100
AcDbEntity
  8
0
100
AcDbCircle
 62
7
  6
BYLAYER
 10
300.930944715
 20
749.2975807851
 40
0.5
100
AcDbArc
 50
0.0
 51
90.0
  0
SPLINE
  5
2F4
100
AcDbEntity
  8
0
100
AcDbSpline
 62
7
  6
BYLAYER
 70
0
 71
3
 72
14
 73
10
 74
0
 42
0.0000001
 43
0.0000001
 44
0.0000000001
 40
0.0
 40
0.0
 40
0.0
 40
0.0
 40
0.1247548922
 40
0.2497370872
 40
0.3748455166
 40
0.5000186734
 40
0.7495155103
 40
0.8747430806
 40
1.0
 40
1.0
 40
1.0
 40
1.0
 10
261.4311854522
 20
70.7974706467
 30
0.0
 10
261.4311853165
 20
70.880478729
 30
0.0
 10
261.3990531211
 20
71.0477035488
 30
0.0
 10
261.2765492056
 20
71.2682907893
 30
0.0
 10
261.105435503
 20
71.4529114691
 30
0.0
 10
260.833365101
 20
71.6472299907
 30
0.0
 10
260.5126282415
 20
71.7611185412
 30
0.0
 10
260.1813740889
 20
71.7974879867
 30
0.0
 10
260.014527568
 20
71.7974706505
 30
0.0
 10
259.9311854522
 20
71.7974706467
 30
0.0
  0
SPLINE
  5
2F5
100
AcDbEntity
  8
0
100
AcDbSpline
 62
7
  6
BYLAYER
 70
0
 71
3
 72
13
 73
9
 74
0
 42
0.0000001
 43
0.0000001
 44
0.0000000001
 40
0.0
 40
0.0
 40
0.0
 40
0.0
 40
0.3392858515
 40
0.6244968224
 40
0.7400572085
 40
0.8384380587
 40
0.9230857457
 40
1.0
 40
1.0
 40
1.0
 40
1.0
 10
278.4311868754
 20
69.7974706467
 30
0.0
 10
278.4311868758
 20
69.6608696285
 30
0.0
 10
278.4563085601
 20
69.4088559267
 30
0.0
 10
278.5507184075
 20
69.1220025928
 30
0.0
 10
278.6589646724
 20
68.9514470609
 30
0.0
 10
278.7433882087
 20
68.8643553672
 30
0.0
 10
278.8347020371
 20
68.8101335194
 30
0.0
 10
278.9002216871
 20
68.7974776433
 30
0.0
 10
278.931188393
 20
68.7974706462
 30
0.0
  0
SPLINE
  5
2F6
100
AcDbEntity
  8
0
100
AcDbSpline
 62
7
  6
BYLAYER
 70
0
 71
3
 72
13
 73
9
 74
0
 42
0.0000001
 43
0.0000001
 44
0.0000000001
 40
0.0
 40
0.0
 40
0.0
 40
0.0
 40
0.0769117592
 40
0.1615599831
 40
0.2599401278
 40
0.3754978975
 40
0.6607031278
 40
1.0
 40
1.0
 40
1.0
 40
1.0
 10
268.931183418
 20
68.7974706463
 30
0.0
 10
268.9621491198
 20
68.7974769855
 30
0.0
 10
269.0276679722
 20
68.8101331714
 30
0.0
 10
269.118981346
 20
68.8643533939
 30
0.0
 10
269.2034045261
 20
68.9514439856
 30
0.0
 10
269.3116499823
 20
69.121995585
 30
0.0
 10
269.4060626608
 20
69.4088492262
 30
0.0
 10
269.4311842664
 20
69.6608651896
 30
0.0
 10
269.4311849114
 20
69.7974706466
 30
0.0
  0
SPLINE
  5
2F7
100
AcDbEntity
  8
0
100
AcDbSpline
 62
7
  6
BYLAYER
 70
0
 71
3
 72
14
 73
10
 74
0
 42
0.0000001
 43
0.0000001
 44
0.0000000001
 40
0.0
 40
0.0
 40
0.0
 40
0.0
 40
0.1247554493
 40
0.2497373879
 40
0.3748457258
 40
0.5000187559
 40
0.7495153736
 40
0.8747430248
 40
1.0
 40
1.0
 40
1.0
 40
1.0
 10
292.4311854522
 20
70.7974706467
 30
0.0
 10
292.4311856725
 20
70.8804791004
 30
0.0
 10
292.463317924
 20
71.0477041321
 30
0.0
 10
292.585822156
 20
71.2682913605
 30
0.0
 10
292.7569357235
 20
71.4529117164
 30
0.0
 10
293.0290059277
 20
71.6472300266
 30
0.0
 10
293.3497426024
 20
71.7611184377
 30
0.0
 10
293.6809966782
 20
71.7974881828
 30
0.0
 10
293.8478432985
 20
71.7974706674
 30
0.0
 10
293.9311854522
 20
71.7974706467
 30
0.0
  0
SPLINE
  5
2F8
100
AcDbEntity
  8
0
100
AcDbSpline
 62
7
  6
BYLAYER
 70
0
 71
3
 72
17
 73
13
 74
0
 42
0.0000001
 43
0.0000001
 44
0.0000000001
 40
0.0
 40
0.0
 40
0.0
 40
0.0
 40
0.1238091836
 40
0.2666977847
 40
0.4203036585
 40
0.5759631864
 40
0.7251560335
 40
0.8569227994
 40
0.9124057945
 40
0.9574409018
 40
0.98839902
 40
1.0
 40
1.0
 40
1.0
 40
1.0
 10
300.4311854405
 20
70.7974706467
 30
0.0
 10
300.4311855136
 20
70.8273203253
 30
0.0
 10
300.4548680289
 20
70.8907813264
 30
0.0
 10
300.5195462335
 20
70.9688729648
 30
0.0
 10
300.5974778937
 20
71.0453760375
 30
0.0
 10
300.681786463
 20
71.1168974989
 30
0.0
 10
300.7638373894
 20
71.182851992
 30
0.0
 10
300.8289422199
 20
71.2313093696
 30
0.0
 10
300.8746758931
 20
71.2635658092
 30
0.0
 10
300.901975913
 20
71.2799758692
 30
0.0
 10
300.918728113
 20
71.2924476487
 30
0.0
 10
300.9294495279
 20
71.2952776074
 30
0.0
 10
300.9311854439
 20
71.2974706438
 30
0.0
  0
SPLINE
  5
2F9
100
AcDbEntity
  8
0
100
AcDbSpline
 62
7
  6
BYLAYER
 70
0
 71
3
 72
12
 73
8
 74
0
 42
0.0000001
 43
0.0000001
 44
0.0000000001
 40
0.0
 40
0.0
 40
0.0
 40
0.0
 40
0.3555601317
 40
0.6614267398
 40
0.7831217149
 40
0.8795320322
 40
1.0
 40
1.0
 40
1.0
 40
1.0
 10
251.5191037604
 20
69.7974706467
 30
0.0
 10
251.5191037604
 20
69.6697133653
 30
0.0
 10
251.5316902901
 20
69.4316888668
 30
0.0
 10
251.5768232061
 20
69.1538192435
 30
0.0
 10
251.636032324
 20
68.9727240686
 30
0.0
 10
251.6856288027
 20
68.8661487648
 30
0.0
 10
251.7505392139
 20
68.7974706467
 30
0.0
 10
251.7938248883
 20
68.7974706467
 30
0.0
  0
SPLINE
  5
2FA
100
AcDbEntity
  8
0
100
AcDbSpline
 62
7
  6
BYLAYER
 70
0
 71
3
 72
10
 73
6
 74
0
 42
0.0000001
 43
0.0000001
 44
0.0000000001
 40
0.0
 40
0.0
 40
0.0
 40
0.0
 40
0.5192781373
 40
0.7706703291
 40
1.0
 40
1.0
 40
1.0
 40
1.0
 10
252.096666669
 20
71.591927737
 30
0.0
 10
252.3123809488
 20
71.5154245487
 30
0.0
 10
252.6381845842
 20
71.416381561
 30
0.0
 10
253.0687764646
 20
71.3224856554
 30
0.0
 10
253.2803518554
 20
71.2974708842
 30
0.0
 10
253.3814318694
 20
71.2974706467
 30
0.0
  0
SPLINE
  5
2FB
100
AcDbEntity
  8
0
100
AcDbSpline
 62
7
  6
BYLAYER
 70
0
 71
3
 72
9
 73
5
 74
0
 42
0.0000001
 43
0.0000001
 44
0.0000000001
 40
0.0
 40
0.0
 40
0.0
 40
0.0
 40
0.2566268573
 40
1.0
 40
1.0
 40
1.0
 40
1.0
 10
252.0845236196
 20
71.7974706467
 30
0.0
 10
252.0845236196
 20
71.779851391
 30
0.0
 10
252.08552838
 20
71.7112018405
 30
0.0
 10
252.0903918366
 20
71.6425785818
 30
0.0
 10
252.0966667284
 20
71.5919279427
 30
0.0
  0
SPLINE
  5
2FC
100
AcDbEntity
  8
0
100
AcDbSpline
 62
7
  6
BYLAYER
 70
0
 71
3
 72
11
 73
7
 74
0
 42
0.0000001
 43
0.0000001
 44
0.0000000001
 40
0.0
 40
0.0
 40
0.0
 40
0.0
 40
0.2113294637
 40
0.4594517307
 40
0.7260918999
 40
1.0
 40
1.0
 40
1.0
 40
1.0
 10
253.0188702227
 20
70.7974706467
 30
0.0
 10
252.9324692196
 20
70.7974712332
 30
0.0
 10
252.7472239653
 20
70.8532976437
 30
0.0
 10
252.4862229806
 20
70.993393414
 30
0.0
 10
252.218994713
 20
71.1752504091
 30
0.0
 10
252.0458977875
 20
71.3129130567
 30
0.0
 10
251.961383318
 20
71.3863852386
 30
0.0
  0
SPLINE
  5
2FD
100
AcDbEntity
  8
0
100
AcDbSpline
 62
7
  6
BYLAYER
 70
0
 71
3
 72
9
 73
5
 74
0
 42
0.0000001
 43
0.0000001
 44
0.0000000001
 40
0.0
 40
0.0
 40
0.0
 40
0.0
 40
0.7518345395
 40
1.0
 40
1.0
 40
1.0
 40
1.0
 10
251.9613832241
 20
71.3863851307
 30
0.0
 10
251.8471815576
 20
71.4856859672
 30
0.0
 10
251.6992121723
 20
71.6223110476
 30
0.0
 10
251.5547711422
 20
71.762497119
 30
0.0
 10
251.519103666
 20
71.7974705426
 30
0.0
  0
SPLINE
  5
2FE
100
AcDbEntity
  8
0
100
AcDbSpline
 62
7
  6
BYLAYER
 70
0
 71
3
 72
9
 73
5
 74
0
 42
0.0000001
 43
0.0000001
 44
0.0000000001
 40
0.0
 40
0.0
 40
0.0
 40
0.0
 40
0.2472785885
 40
1.0
 40
1.0
 40
1.0
 40
1.0
 10
251.5191037604
 20
71.7974706467
 30
0.0
 10
251.5665326873
 20
71.7800363609
 30
0.0
 10
251.7584469931
 20
71.7098381099
 30
0.0
 10
251.9510232758
 20
71.6414102285
 30
0.0
 10
252.0966667284
 20
71.5919279427
 30
0.0
  0
SPLINE
  5
2FF
100
AcDbEntity
  8
0
100
AcDbSpline
 62
7
  6
BYLAYER
 70
0
 71
3
 72
11
 73
7
 74
0
 42
0.0000001
 43
0.0000001
 44
0.0000000001
 40
0.0
 40
0.0
 40
0.0
 40
0.0
 40
0.2742864213
 40
0.5514542927
 40
0.7962818329
 40
1.0
 40
1.0
 40
1.0
 40
1.0
 10
253.0188702218
 20
70.7974706467
 30
0.0
 10
253.0188702284
 20
70.8594038
 30
0.0
 10
253.0355639076
 20
70.9846055634
 30
0.0
 10
253.1113216799
 20
71.1511899579
 30
0.0
 10
253.232949036
 20
71.2688306117
 30
0.0
 10
253.3354328384
 20
71.297470647
 30
0.0
 10
253.3814318654
 20
71.2974706467
 30
0.0
  0
SPLINE
  5
300
100
AcDbEntity
  8
0
100
AcDbSpline
 62
7
  6
BYLAYER
 70
0
 71
3
 72
12
 73
8
 74
0
 42
0.0000001
 43
0.0000001
 44
0.0000000001
 40
0.0
 40
0.0
 40
0.0
 40
0.0
 40
0.1204115357
 40
0.2167519688
 40
0.3384069038
 40
0.6443218671
 40
1.0
 40
1.0
 40
1.0
 40
1.0
 10
248.1564643243
 20
68.7974706467
 30
0.0
 10
248.1131987709
 20
68.7974706467
 30
0.0
 10
248.048312336
 20
68.8660865593
 30
0.0
 10
247.9987198526
 20
68.9726051348
 30
0.0
 10
247.9394923556
 20
69.1536702978
 30
0.0
 10
247.8943378761
 20
69.4315857332
 30
0.0
 10
247.8817431964
 20
69.6696705057
 30
0.0
 10
247.8817431964
 20
69.7974706467
 30
0.0
  0
SPLINE
  5
301
100
AcDbEntity
  8
0
100
AcDbSpline
 62
7
  6
BYLAYER
 70
0
 71
3
 72
9
 73
5
 74
0
 42
0.0000001
 43
0.0000001
 44
0.0000000001
 40
0.0
 40
0.0
 40
0.0
 40
0.0
 40
0.2481650378
 40
1.0
 40
1.0
 40
1.0
 40
1.0
 10
251.518862891
 20
749.2975809309
 30
0.0
 10
251.5545303159
 20
749.3325542854
 30
0.0
 10
251.6989713698
 20
749.472740332
 30
0.0
 10
251.8469407194
 20
749.609365451
 30
0.0
 10
251.9611424493
 20
749.7086663444
 30
0.0
  0
SPLINE
  5
302
100
AcDbEntity
  8
0
100
AcDbSpline
 62
7
  6
BYLAYER
 70
0
 71
3
 72
9
 73
5
 74
0
 42
0.0000001
 43
0.0000001
 44
0.0000000001
 40
0.0
 40
0.0
 40
0.0
 40
0.0
 40
0.2472783312
 40
1.0
 40
1.0
 40
1.0
 40
1.0
 10
251.5188630232
 20
749.2975807851
 30
0.0
 10
251.5662919026
 20
749.3150150404
 30
0.0
 10
251.7582087864
 20
749.3852061915
 30
0.0
 10
251.9507824938
 20
749.4536411969
 30
0.0
 10
252.0964259912
 20
749.5031234892
 30
0.0
  0
SPLINE
  5
303
100
AcDbEntity
  8
0
100
AcDbSpline
 62
7
  6
BYLAYER
 70
0
 71
3
 72
11
 73
7
 74
0
 42
0.0000001
 43
0.0000001
 44
0.0000000001
 40
0.0
 40
0.0
 40
0.0
 40
0.0
 40
0.2113298764
 40
0.4594518575
 40
0.7260919632
 40
1.0
 40
1.0
 40
1.0
 40
1.0
 10
253.0186295062
 20
750.2975807851
 30
0.0
 10
252.9322283335
 20
750.2975802028
 30
0.0
 10
252.7469830368
 20
750.2417536764
 30
0.0
 10
252.4859820569
 20
750.1016578682
 30
0.0
 10
252.2187538978
 20
749.9198010014
 30
0.0
 10
252.0456570249
 20
749.7821383666
 30
0.0
 10
251.9611425808
 20
749.7086661932
 30
0.0
  0
SPLINE
  5
304
100
AcDbEntity
  8
0
100
AcDbSpline
 62
7
  6
BYLAYER
 70
0
 71
3
 72
11
 73
7
 74
0
 42
0.0000001
 43
0.0000001
 44
0.0000000001
 40
0.0
 40
0.0
 40
0.0
 40
0.0
 40
0.2037181708
 40
0.4485457117
 40
0.7257135813
 40
1.0
 40
1.0
 40
1.0
 40
1.0
 10
253.3811911462
 20
749.7975807851
 30
0.0
 10
253.3351921184
 20
749.7975807848
 30
0.0
 10
253.2327083147
 20
749.8262208199
 30
0.0
 10
253.1110809579
 20
749.9438614746
 30
0.0
 10
253.0353231875
 20
750.1104458694
 30
0.0
 10
253.0186295106
 20
750.2356476323
 30
0.0
 10
253.018629505
 20
750.2975807851
 30
0.0
  0
SPLINE
  5
305
100
AcDbEntity
  8
0
100
AcDbSpline
 62
7
  6
BYLAYER
 70
0
 71
3
 72
10
 73
6
 74
0
 42
0.0000001
 43
0.0000001
 44
0.0000000001
 40
0.0
 40
0.0
 40
0.0
 40
0.0
 40
0.2293296864
 40
0.4807218845
 40
1.0
 40
1.0
 40
1.0
 40
1.0
 10
253.3811911256
 20
749.7975807851
 30
0.0
 10
253.2801111053
 20
749.7975805487
 30
0.0
 10
253.0685357055
 20
749.7725657776
 30
0.0
 10
252.6379438271
 20
749.6786698723
 30
0.0
 10
252.3121401975
 20
749.5796268931
 30
0.0
 10
252.0964259287
 20
749.5031237056
 30
0.0
  0
SPLINE
  5
306
100
AcDbEntity
  8
0
100
AcDbSpline
 62
7
  6
BYLAYER
 70
0
 71
3
 72
9
 73
5
 74
0
 42
0.0000001
 43
0.0000001
 44
0.0000000001
 40
0.0
 40
0.0
 40
0.0
 40
0.0
 40
0.2408658181
 40
1.0
 40
1.0
 40
1.0
 40
1.0
 10
252.0964259912
 20
749.5031234892
 30
0.0
 10
252.0943927872
 20
749.4867115592
 30
0.0
 10
252.087153805
 20
749.4184284826
 30
0.0
 10
252.0842828825
 20
749.3497015066
 30
0.0
 10
252.0842828825
 20
749.2975807851
 30
0.0
  0
SPLINE
  5
307
100
AcDbEntity
  8
0
100
AcDbSpline
 62
7
  6
BYLAYER
 70
0
 71
3
 72
13
 73
9
 74
0
 42
0.0000001
 43
0.0000001
 44
0.0000000001
 40
0.0
 40
0.0
 40
0.0
 40
0.0
 40
0.3392858711
 40
0.6244968413
 40
0.7400572659
 40
0.8384380723
 40
0.9230857481
 40
1.0
 40
1.0
 40
1.0
 40
1.0
 10
269.4309434073
 20
751.2975807851
 30
0.0
 10
269.4309434069
 20
751.4341818139
 30
0.0
 10
269.4058217381
 20
751.686195542
 30
0.0
 10
269.3114118166
 20
751.9730488601
 30
0.0
 10
269.2031656337
 20
752.1436044541
 30
0.0
 10
269.1187420356
 20
752.2306960878
 30
0.0
 10
269.0274282221
 20
752.2849179036
 30
0.0
 10
268.9619085777
 20
752.2975737913
 30
0.0
 10
268.9309418721
 20
752.2975807856
 30
0.0
  0
SPLINE
  5
308
100
AcDbEntity
  8
0
100
AcDbSpline
 62
7
  6
BYLAYER
 70
0
 71
3
 72
13
 73
9
 74
0
 42
0.0000001
 43
0.0000001
 44
0.0000000001
 40
0.0
 40
0.0
 40
0.0
 40
0.0
 40
0.0769117555
 40
0.161559974
 40
0.2599401127
 40
0.3754978776
 40
0.6607031082
 40
1.0
 40
1.0
 40
1.0
 40
1.0
 10
278.9309466569
 20
752.2975807855
 30
0.0
 10
278.899980956
 20
752.2975744493
 30
0.0
 10
278.834462105
 20
752.2849182704
 30
0.0
 10
278.7431487307
 20
752.2306980569
 30
0.0
 10
278.658725549
 20
752.1436074729
 30
0.0
 10
278.5504800873
 20
751.9730558782
 30
0.0
 10
278.4560674007
 20
751.6862022277
 30
0.0
 10
278.430945792
 20
751.4341862523
 30
0.0
 10
278.430945147
 20
751.2975807852
 30
0.0
  0
SPLINE
  5
309
100
AcDbEntity
  8
0
100
AcDbSpline
 62
7
  6
BYLAYER
 70
0
 71
3
 72
17
 73
13
 74
0
 42
0.0000001
 43
0.0000001
 44
0.0000000001
 40
0.0
 40
0.0
 40
0.0
 40
0.0
 40
0.01160098
 40
0.0425590982
 40
0.0875942055
 40
0.1430772007
 40
0.2748439667
 40
0.4240368139
 40
0.5796963419
 40
0.7333022157
 40
0.8761908166
 40
1.0
 40
1.0
 40
1.0
 40
1.0
 10
300.9309447076
 20
749.797580788
 30
0.0
 10
300.9292086673
 20
749.799773726
 30
0.0
 10
300.9184875351
 20
749.8026039085
 30
0.0
 10
300.901735091
 20
749.8150754948
 30
0.0
 10
300.8744351893
 20
749.8314856484
 30
0.0
 10
300.8287014594
 20
749.8637420431
 30
0.0
 10
300.7635966631
 20
749.9121994478
 30
0.0
 10
300.681545724
 20
749.9781539309
 30
0.0
 10
300.5972371586
 20
750.0496753954
 30
0.0
 10
300.5193054976
 20
750.1261784672
 30
0.0
 10
300.4546272934
 20
750.2042701057
 30
0.0
 10
300.4309447781
 20
750.2677311066
 30
0.0
 10
300.4309447051
 20
750.2975807851
 30
0.0
  0
SPLINE
  5
30A
100
AcDbEntity
  8
0
100
AcDbSpline
 62
7
  6
BYLAYER
 70
0
 71
3
 72
14
 73
10
 74
0
 42
0.0000001
 43
0.0000001
 44
0.0000000001
 40
0.0
 40
0.0
 40
0.0
 40
0.0
 40
0.124755068
 40
0.2497371838
 40
0.3748455004
 40
0.5000186091
 40
0.7495154875
 40
0.8747430736
 40
1.0
 40
1.0
 40
1.0
 40
1.0
 10
292.430944715
 20
750.2975807851
 30
0.0
 10
292.4309449354
 20
750.2145725859
 30
0.0
 10
292.4630770618
 20
750.0473476991
 30
0.0
 10
292.5855810787
 20
749.826760507
 30
0.0
 10
292.7566946823
 20
749.6421399719
 30
0.0
 10
293.0287650032
 20
749.4478214744
 30
0.0
 10
293.3495018633
 20
749.3339328915
 30
0.0
 10
293.6807560584
 20
749.2975634501
 30
0.0
 10
293.8476025945
 20
749.2975807644
 30
0.0
 10
293.930944715
 20
749.2975807851
 30
0.0
  0
SPLINE
  5
30B
100
AcDbEntity
  8
0
100
AcDbSpline
 62
7
  6
BYLAYER
 70
0
 71
3
 72
14
 73
10
 74
0
 42
0.0000001
 43
0.0000001
 44
0.0000000001
 40
0.0
 40
0.0
 40
0.0
 40
0.0
 40
0.1247554493
 40
0.2497373879
 40
0.3748457258
 40
0.5000187559
 40
0.7495153736
 40
0.8747430248
 40
1.0
 40
1.0
 40
1.0
 40
1.0
 10
261.430944715
 20
750.2975807851
 30
0.0
 10
261.4309444947
 20
750.2145723314
 30
0.0
 10
261.3988122433
 20
750.0473472997
 30
0.0
 10
261.2763080112
 20
749.8267600713
 30
0.0
 10
261.1051944437
 20
749.6421397154
 30
0.0
 10
260.8331242396
 20
749.4478214052
 30
0.0
 10
260.5123875648
 20
749.3339329941
 30
0.0
 10
260.1811334891
 20
749.297563249
 30
0.0
 10
260.0142868687
 20
749.2975807644
 30
0.0
 10
259.930944715
 20
749.2975807851
 30
0.0
  0
SPLINE
  5
30C
100
AcDbEntity
  8
0
100
AcDbSpline
 62
7
  6
BYLAYER
 70
0
 71
3
 72
12
 73
8
 74
0
 42
0.0000001
 43
0.0000001
 44
0.0000000001
 40
0.0
 40
0.0
 40
0.0
 40
0.0
 40
0.3555601317
 40
0.6614267398
 40
0.7831217149
 40
0.8795320322
 40
1.0
 40
1.0
 40
1.0
 40
1.0
 10
247.8815024592
 20
751.2975807851
 30
0.0
 10
247.8815024592
 20
751.4253380665
 30
0.0
 10
247.8940889889
 20
751.663362565
 30
0.0
 10
247.939221905
 20
751.9412321883
 30
0.0
 10
247.9984310229
 20
752.1223273632
 30
0.0
 10
248.0480275016
 20
752.228902667
 30
0.0
 10
248.1129379128
 20
752.2975807851
 30
0.0
 10
248.1562235871
 20
752.2975807851
 30
0.0
  0
SPLINE
  5
30D
100
AcDbEntity
  8
0
100
AcDbSpline
 62
7
  6
BYLAYER
 70
0
 71
3
 72
12
 73
8
 74
0
 42
0.0000001
 43
0.0000001
 44
0.0000000001
 40
0.0
 40
0.0
 40
0.0
 40
0.0
 40
0.1204115357
 40
0.2167519688
 40
0.3384069038
 40
0.6443218671
 40
1.0
 40
1.0
 40
1.0
 40
1.0
 10
251.7935841511
 20
752.2975807851
 30
0.0
 10
251.7503185977
 20
752.2975807851
 30
0.0
 10
251.6854321628
 20
752.2289648725
 30
0.0
 10
251.6358396793
 20
752.122446297
 30
0.0
 10
251.5766121824
 20
751.941381134
 30
0.0
 10
251.5314577028
 20
751.6634656986
 30
0.0
 10
251.5188630232
 20
751.4253809261
 30
0.0
 10
251.5188630232
 20
751.2975807851
 30
0.0
  0
SPLINE
  5
30E
100
AcDbEntity
  8
0
100
AcDbSpline
 62
7
  6
BYLAYER
 70
0
 71
3
 72
14
 73
10
 74
0
 42
0.0000001
 43
0.0000001
 44
0.0000000001
 40
0.0
 40
0.0
 40
0.0
 40
0.0
 40
0.0669619088
 40
0.1861538853
 40
0.3431999851
 40
0.5191582703
 40
0.6928056708
 40
0.8431978474
 40
1.0
 40
1.0
 40
1.0
 40
1.0
 10
263.4475623271
 20
749.2863865341
 30
0.0
 10
263.4477701737
 20
749.2645665136
 30
0.0
 10
263.4479452697
 20
749.2038786249
 30
0.0
 10
263.4482102095
 20
749.0922519047
 30
0.0
 10
263.4483399708
 20
748.9437370441
 30
0.0
 10
263.4484021393
 20
748.7836418056
 30
0.0
 10
263.448286215
 20
748.6027200156
 30
0.0
 10
263.448253724
 20
748.5051265664
 30
0.0
 10
263.4476176263
 20
748.2576799247
 30
0.0
 10
263.4471309199
 20
748.3087750362
 30
0.0
  0
SPLINE
  5
30F
100
AcDbEntity
  8
0
100
AcDbSpline
 62
7
  6
BYLAYER
 70
0
 71
3
 72
14
 73
10
 74
0
 42
0.0000001
 43
0.0000001
 44
0.0000000001
 40
0.0
 40
0.0
 40
0.0
 40
0.0
 40
0.0669619088
 40
0.1861538853
 40
0.3431999851
 40
0.5191582703
 40
0.6928056708
 40
0.8431978474
 40
1.0
 40
1.0
 40
1.0
 40
1.0
 10
263.4143271029
 20
749.2863865341
 30
0.0
 10
263.4141192563
 20
749.2645665136
 30
0.0
 10
263.4139441604
 20
749.2038786249
 30
0.0
 10
263.4136792205
 20
749.0922519047
 30
0.0
 10
263.4135494592
 20
748.9437370441
 30
0.0
 10
263.4134872908
 20
748.7836418056
 30
0.0
 10
263.413603215
 20
748.6027200156
 30
0.0
 10
263.413635706
 20
748.5051265664
 30
0.0
 10
263.4142718037
 20
748.2576799247
 30
0.0
 10
263.4147585101
 20
748.3087750362
 30
0.0
  0
SPLINE
  5
310
100
AcDbEntity
  8
0
100
AcDbSpline
 62
7
  6
BYLAYER
 70
0
 71
3
 72
14
 73
10
 74
0
 42
0.0000001
 43
0.0000001
 44
0.0000000001
 40
0.0
 40
0.0
 40
0.0
 40
0.0
 40
0.0669619088
 40
0.1861538853
 40
0.3431999851
 40
0.5191582703
 40
0.6928056708
 40
0.8431978474
 40
1.0
 40
1.0
 40
1.0
 40
1.0
 10
263.4475623271
 20
749.2863865341
 30
0.0
 10
263.4477701737
 20
749.2645665136
 30
0.0
 10
263.4479452697
 20
749.2038786249
 30
0.0
 10
263.4482102095
 20
749.0922519047
 30
0.0
 10
263.4483399708
 20
748.9437370441
 30
0.0
 10
263.4484021393
 20
748.7836418056
 30
0.0
 10
263.448286215
 20
748.6027200156
 30
0.0
 10
263.448253724
 20
748.5051265664
 30
0.0
 10
263.4476176263
 20
748.2576799247
 30
0.0
 10
263.4471309199
 20
748.3087750362
 30
0.0
  0
SPLINE
  5
311
100
AcDbEntity
  8
0
100
AcDbSpline
 62
7
  6
BYLAYER
 70
0
 71
3
 72
14
 73
10
 74
0
 42
0.0000001
 43
0.0000001
 44
0.0000000001
 40
0.0
 40
0.0
 40
0.0
 40
0.0
 40
0.0669619088
 40
0.1861538853
 40
0.3431999851
 40
0.5191582703
 40
0.6928056708
 40
0.8431978474
 40
1.0
 40
1.0
 40
1.0
 40
1.0
 10
263.4143271029
 20
749.2863865341
 30
0.0
 10
263.4141192563
 20
749.2645665136
 30
0.0
 10
263.4139441604
 20
749.2038786249
 30
0.0
 10
263.4136792205
 20
749.0922519047
 30
0.0
 10
263.4135494592
 20
748.9437370441
 30
0.0
 10
263.4134872908
 20
748.7836418056
 30
0.0
 10
263.413603215
 20
748.6027200156
 30
0.0
 10
263.413635706
 20
748.5051265664
 30
0.0
 10
263.4142718037
 20
748.2576799247
 30
0.0
 10
263.4147585101
 20
748.3087750362
 30
0.0
  0
SPLINE
  5
312
100
AcDbEntity
  8
0
100
AcDbSpline
 62
7
  6
BYLAYER
 70
0
 71
3
 72
14
 73
10
 74
0
 42
0.0000001
 43
0.0000001
 44
0.0000000001
 40
0.0
 40
0.0
 40
0.0
 40
0.0
 40
0.066993924
 40
0.1862140544
 40
0.3432810507
 40
0.5192504546
 40
0.6928978548
 40
0.8432789122
 40
1.0
 40
1.0
 40
1.0
 40
1.0
 10
285.9143269236
 20
749.2863677022
 30
0.0
 10
285.9141191664
 20
749.2645380886
 30
0.0
 10
285.9139439811
 20
749.2038329111
 30
0.0
 10
285.9136791443
 20
749.0921841976
 30
0.0
 10
285.9135494096
 20
748.9436549544
 30
0.0
 10
285.9134872589
 20
748.7835570919
 30
0.0
 10
285.9136034139
 20
748.6026380648
 30
0.0
 10
285.9136353842
 20
748.5050788005
 30
0.0
 10
285.9142726761
 20
748.2577271356
 30
0.0
 10
285.9147586894
 20
748.3087938681
 30
0.0
  0
SPLINE
  5
313
100
AcDbEntity
  8
0
100
AcDbSpline
 62
7
  6
BYLAYER
 70
0
 71
3
 72
14
 73
10
 74
0
 42
0.0000001
 43
0.0000001
 44
0.0000000001
 40
0.0
 40
0.0
 40
0.0
 40
0.0
 40
0.066993924
 40
0.1862140544
 40
0.3432810507
 40
0.5192504546
 40
0.6928978548
 40
0.8432789122
 40
1.0
 40
1.0
 40
1.0
 40
1.0
 10
285.9475625064
 20
749.2863677022
 30
0.0
 10
285.9477702637
 20
749.2645380886
 30
0.0
 10
285.9479454489
 20
749.2038329111
 30
0.0
 10
285.9482102857
 20
749.0921841976
 30
0.0
 10
285.9483400204
 20
748.9436549544
 30
0.0
 10
285.9484021712
 20
748.7835570919
 30
0.0
 10
285.9482860161
 20
748.6026380648
 30
0.0
 10
285.9482540458
 20
748.5050788005
 30
0.0
 10
285.9476167539
 20
748.2577271356
 30
0.0
 10
285.9471307406
 20
748.3087938681
 30
0.0
  0
SPLINE
  5
314
100
AcDbEntity
  8
0
100
AcDbSpline
 62
7
  6
BYLAYER
 70
0
 71
3
 72
14
 73
10
 74
0
 42
0.0000001
 43
0.0000001
 44
0.0000000001
 40
0.0
 40
0.0
 40
0.0
 40
0.0
 40
0.0670664845
 40
0.1863504239
 40
0.3434647807
 40
0.5194593844
 40
0.693106784
 40
0.8434626406
 40
1.0
 40
1.0
 40
1.0
 40
1.0
 10
285.9143265173
 20
749.2863249684
 30
0.0
 10
285.914118962
 20
749.2644736179
 30
0.0
 10
285.9139435754
 20
749.2037292684
 30
0.0
 10
285.9136789715
 20
749.0920307283
 30
0.0
 10
285.9135492974
 20
748.9434689085
 30
0.0
 10
285.9134871865
 20
748.7833651218
 30
0.0
 10
285.913603865
 20
748.6024523688
 30
0.0
 10
285.9136346554
 20
748.5049705921
 30
0.0
 10
285.9142746487
 20
748.2578341865
 30
0.0
 10
285.9147590957
 20
748.3088366019
 30
0.0
  0
SPLINE
  5
315
100
AcDbEntity
  8
0
100
AcDbSpline
 62
7
  6
BYLAYER
 70
0
 71
3
 72
14
 73
10
 74
0
 42
0.0000001
 43
0.0000001
 44
0.0000000001
 40
0.0
 40
0.0
 40
0.0
 40
0.0
 40
0.0670664845
 40
0.1863504239
 40
0.3434647807
 40
0.5194593844
 40
0.693106784
 40
0.8434626406
 40
1.0
 40
1.0
 40
1.0
 40
1.0
 10
285.9475629128
 20
749.2863249684
 30
0.0
 10
285.947770468
 20
749.2644736179
 30
0.0
 10
285.9479458546
 20
749.2037292684
 30
0.0
 10
285.9482104586
 20
749.0920307283
 30
0.0
 10
285.9483401327
 20
748.9434689085
 30
0.0
 10
285.9484022435
 20
748.7833651218
 30
0.0
 10
285.9482855651
 20
748.6024523688
 30
0.0
 10
285.9482547747
 20
748.5049705921
 30
0.0
 10
285.9476147813
 20
748.2578341865
 30
0.0
 10
285.9471303343
 20
748.3088366019
 30
0.0
  0
SPLINE
  5
316
100
AcDbEntity
  8
0
100
AcDbSpline
 62
7
  6
BYLAYER
 70
0
 71
3
 72
14
 73
10
 74
0
 42
0.0000001
 43
0.0000001
 44
0.0000000001
 40
0.0
 40
0.0
 40
0.0
 40
0.0
 40
0.0669619088
 40
0.1861538853
 40
0.3431999851
 40
0.5191582703
 40
0.6928056708
 40
0.8431978474
 40
1.0
 40
1.0
 40
1.0
 40
1.0
 10
263.4475623271
 20
749.2863865341
 30
0.0
 10
263.4477701737
 20
749.2645665136
 30
0.0
 10
263.4479452697
 20
749.2038786249
 30
0.0
 10
263.4482102095
 20
749.0922519047
 30
0.0
 10
263.4483399708
 20
748.9437370441
 30
0.0
 10
263.4484021393
 20
748.7836418056
 30
0.0
 10
263.448286215
 20
748.6027200156
 30
0.0
 10
263.448253724
 20
748.5051265664
 30
0.0
 10
263.4476176263
 20
748.2576799247
 30
0.0
 10
263.4471309199
 20
748.3087750362
 30
0.0
  0
SPLINE
  5
317
100
AcDbEntity
  8
0
100
AcDbSpline
 62
7
  6
BYLAYER
 70
0
 71
3
 72
14
 73
10
 74
0
 42
0.0000001
 43
0.0000001
 44
0.0000000001
 40
0.0
 40
0.0
 40
0.0
 40
0.0
 40
0.0669619088
 40
0.1861538853
 40
0.3431999851
 40
0.5191582703
 40
0.6928056708
 40
0.8431978474
 40
1.0
 40
1.0
 40
1.0
 40
1.0
 10
263.4143271029
 20
749.2863865341
 30
0.0
 10
263.4141192563
 20
749.2645665136
 30
0.0
 10
263.4139441604
 20
749.2038786249
 30
0.0
 10
263.4136792205
 20
749.0922519047
 30
0.0
 10
263.4135494592
 20
748.9437370441
 30
0.0
 10
263.4134872908
 20
748.7836418056
 30
0.0
 10
263.413603215
 20
748.6027200156
 30
0.0
 10
263.413635706
 20
748.5051265664
 30
0.0
 10
263.4142718037
 20
748.2576799247
 30
0.0
 10
263.4147585101
 20
748.3087750362
 30
0.0
  0
SPLINE
  5
318
100
AcDbEntity
  8
0
100
AcDbSpline
 62
7
  6
BYLAYER
 70
0
 71
3
 72
14
 73
10
 74
0
 42
0.0000001
 43
0.0000001
 44
0.0000000001
 40
0.0
 40
0.0
 40
0.0
 40
0.0
 40
0.0669619088
 40
0.1861538853
 40
0.3431999851
 40
0.5191582703
 40
0.6928056708
 40
0.8431978474
 40
1.0
 40
1.0
 40
1.0
 40
1.0
 10
263.4475623271
 20
749.2863865341
 30
0.0
 10
263.4477701737
 20
749.2645665136
 30
0.0
 10
263.4479452697
 20
749.2038786249
 30
0.0
 10
263.4482102095
 20
749.0922519047
 30
0.0
 10
263.4483399708
 20
748.9437370441
 30
0.0
 10
263.4484021393
 20
748.7836418056
 30
0.0
 10
263.448286215
 20
748.6027200156
 30
0.0
 10
263.448253724
 20
748.5051265664
 30
0.0
 10
263.4476176263
 20
748.2576799247
 30
0.0
 10
263.4471309199
 20
748.3087750362
 30
0.0
  0
SPLINE
  5
319
100
AcDbEntity
  8
0
100
AcDbSpline
 62
7
  6
BYLAYER
 70
0
 71
3
 72
14
 73
10
 74
0
 42
0.0000001
 43
0.0000001
 44
0.0000000001
 40
0.0
 40
0.0
 40
0.0
 40
0.0
 40
0.0669619088
 40
0.1861538853
 40
0.3431999851
 40
0.5191582703
 40
0.6928056708
 40
0.8431978474
 40
1.0
 40
1.0
 40
1.0
 40
1.0
 10
263.4143271029
 20
749.2863865341
 30
0.0
 10
263.4141192563
 20
749.2645665136
 30
0.0
 10
263.4139441604
 20
749.2038786249
 30
0.0
 10
263.4136792205
 20
749.0922519047
 30
0.0
 10
263.4135494592
 20
748.9437370441
 30
0.0
 10
263.4134872908
 20
748.7836418056
 30
0.0
 10
263.413603215
 20
748.6027200156
 30
0.0
 10
263.413635706
 20
748.5051265664
 30
0.0
 10
263.4142718037
 20
748.2576799247
 30
0.0
 10
263.4147585101
 20
748.3087750362
 30
0.0
  0
SPLINE
  5
31A
100
AcDbEntity
  8
0
100
AcDbSpline
 62
7
  6
BYLAYER
 70
0
 71
3
 72
14
 73
10
 74
0
 42
0.0000001
 43
0.0000001
 44
0.0000000001
 40
0.0
 40
0.0
 40
0.0
 40
0.0
 40
0.066993924
 40
0.1862140544
 40
0.3432810507
 40
0.5192504546
 40
0.6928978548
 40
0.8432789122
 40
1.0
 40
1.0
 40
1.0
 40
1.0
 10
285.9143269236
 20
749.2863677022
 30
0.0
 10
285.9141191664
 20
749.2645380886
 30
0.0
 10
285.9139439811
 20
749.2038329111
 30
0.0
 10
285.9136791443
 20
749.0921841976
 30
0.0
 10
285.9135494096
 20
748.9436549544
 30
0.0
 10
285.9134872589
 20
748.7835570919
 30
0.0
 10
285.9136034139
 20
748.6026380648
 30
0.0
 10
285.9136353842
 20
748.5050788005
 30
0.0
 10
285.9142726761
 20
748.2577271356
 30
0.0
 10
285.9147586894
 20
748.3087938681
 30
0.0
  0
SPLINE
  5
31B
100
AcDbEntity
  8
0
100
AcDbSpline
 62
7
  6
BYLAYER
 70
0
 71
3
 72
14
 73
10
 74
0
 42
0.0000001
 43
0.0000001
 44
0.0000000001
 40
0.0
 40
0.0
 40
0.0
 40
0.0
 40
0.066993924
 40
0.1862140544
 40
0.3432810507
 40
0.5192504546
 40
0.6928978548
 40
0.8432789122
 40
1.0
 40
1.0
 40
1.0
 40
1.0
 10
285.9475625064
 20
749.2863677022
 30
0.0
 10
285.9477702637
 20
749.2645380886
 30
0.0
 10
285.9479454489
 20
749.2038329111
 30
0.0
 10
285.9482102857
 20
749.0921841976
 30
0.0
 10
285.9483400204
 20
748.9436549544
 30
0.0
 10
285.9484021712
 20
748.7835570919
 30
0.0
 10
285.9482860161
 20
748.6026380648
 30
0.0
 10
285.9482540458
 20
748.5050788005
 30
0.0
 10
285.9476167539
 20
748.2577271356
 30
0.0
 10
285.9471307406
 20
748.3087938681
 30
0.0
  0
SPLINE
  5
31C
100
AcDbEntity
  8
0
100
AcDbSpline
 62
7
  6
BYLAYER
 70
0
 71
3
 72
14
 73
10
 74
0
 42
0.0000001
 43
0.0000001
 44
0.0000000001
 40
0.0
 40
0.0
 40
0.0
 40
0.0
 40
0.0670664845
 40
0.1863504239
 40
0.3434647807
 40
0.5194593844
 40
0.693106784
 40
0.8434626406
 40
1.0
 40
1.0
 40
1.0
 40
1.0
 10
285.9143265173
 20
749.2863249684
 30
0.0
 10
285.914118962
 20
749.2644736179
 30
0.0
 10
285.9139435754
 20
749.2037292684
 30
0.0
 10
285.9136789715
 20
749.0920307283
 30
0.0
 10
285.9135492974
 20
748.9434689085
 30
0.0
 10
285.9134871865
 20
748.7833651218
 30
0.0
 10
285.913603865
 20
748.6024523688
 30
0.0
 10
285.9136346554
 20
748.5049705921
 30
0.0
 10
285.9142746487
 20
748.2578341865
 30
0.0
 10
285.9147590957
 20
748.3088366019
 30
0.0
  0
SPLINE
  5
31D
100
AcDbEntity
  8
0
100
AcDbSpline
 62
7
  6
BYLAYER
 70
0
 71
3
 72
14
 73
10
 74
0
 42
0.0000001
 43
0.0000001
 44
0.0000000001
 40
0.0
 40
0.0
 40
0.0
 40
0.0
 40
0.0670664845
 40
0.1863504239
 40
0.3434647807
 40
0.5194593844
 40
0.693106784
 40
0.8434626406
 40
1.0
 40
1.0
 40
1.0
 40
1.0
 10
285.9475629128
 20
749.2863249684
 30
0.0
 10
285.947770468
 20
749.2644736179
 30
0.0
 10
285.9479458546
 20
749.2037292684
 30
0.0
 10
285.9482104586
 20
749.0920307283
 30
0.0
 10
285.9483401327
 20
748.9434689085
 30
0.0
 10
285.9484022435
 20
748.7833651218
 30
0.0
 10
285.9482855651
 20
748.6024523688
 30
0.0
 10
285.9482547747
 20
748.5049705921
 30
0.0
 10
285.9476147813
 20
748.2578341865
 30
0.0
 10
285.9471303343
 20
748.3088366019
 30
0.0
  0
ENDSEC
  0
SECTION
  2
OBJECTS
  0
DICTIONARY
  5
C
100
AcDbDictionary
280
0
281
1
  3
ACAD_GROUP
350
D
  3
ACAD_MLINESTYLE
350
17
  3
ACAD_LAYOUT
350
1A
  3
ACAD_PLOTSETTINGS
350
19
  3
ACAD_PLOTSTYLENAME
350
E
  0
DICTIONARY
  5
D
102
{ACAD_REACTORS
330
C
102
}
100
AcDbDictionary
280
0
281
1
  0
ACDBDICTIONARYWDFLT
  5
E
102
{ACAD_REACTORS
330
C
102
}
100
AcDbDictionary
281
1
  3
Normal
350
F
100
AcDbDictionaryWithDefault
340
F
  0
DICTIONARY
  5
17
102
{ACAD_REACTORS
330
C
102
}
100
AcDbDictionary
280
0
281
1
  3
Standard
350
18
  0
DICTIONARY
  5
19
102
{ACAD_REACTORS
330
C
102
}
100
AcDbDictionary
281
1
  0
DICTIONARY
  5
1A
102
{ACAD_REACTORS
330
C
102
}
100
AcDbDictionary
281
1
  3
Model
350
31E
  3
Layout1
350
31F
  0
ACDBPLACEHOLDER
  5
F
102
{ACAD_REACTORS
330
E
102
}
  0
MLINESTYLE
  5
18
102
{ACAD_REACTORS
330
17
102
}
100
AcDbMlineStyle
  2
STANDARD
 70
0
  3

 62
256
 51
90.0
 52
90.0
 71
2
 49
0.5
 62
256
  6
BYLAYER
 49
-0.5
 62
256
  6
BYLAYER
  0
LAYOUT
  5
31E
102
{ACAD_REACTORS
330
1A
102
}
100
AcDbPlotSettings
  1

  2
none_device
  4

  6

 40
0.0
 41
0.0
 42
0.0
 43
0.0
 44
210.0
 45
297.0
 46
0.0
 47
0.0
 48
0.0
 49
0.0
140
0.0
141
0.0
142
1.0
143
1.0
 70
1024
 72
1
 73
0
 74
0
  7

 75
0
147
1.0
148
0.0
149
0.0
100
AcDbLayout
  1
Model
 70
0
 71
0
 10
0.0
 20
0.0
 11
210.0
 21
297.0
 12
0.0
 22
0.0
 32
0.0
 14
0.0
 24
0.0
 34
0.0
 15
0.0
 25
0.0
 35
0.0
146
0.0
 13
0.0
 23
0.0
 33
0.0
 16
1.0
 26
0.0
 36
0.0
 17
0.0
 27
1.0
 37
0.0
 76
0
330
212
345
0
346
0
  0
LAYOUT
  5
31F
102
{ACAD_REACTORS
330
1A
102
}
100
AcDbPlotSettings
  1

  2
none_device
  4

  6

 40
0.0
 41
0.0
 42
0.0
 43
0.0
 44
210.0
 45
297.0
 46
0.0
 47
0.0
 48
0.0
 49
0.0
140
0.0
141
0.0
142
1.0
143
1.0
 70
0
 72
1
 73
0
 74
0
  7

 75
0
147
1.0
148
0.0
149
0.0
100
AcDbLayout
  1
Layout1
 70
0
 71
1
 10
0.0
 20
0.0
 11
210.0
 21
297.0
 12
0.0
 22
0.0
 32
0.0
 14
0.0
 24
0.0
 34
0.0
 15
0.0
 25
0.0
 35
0.0
146
0.0
 13
0.0
 23
0.0
 33
0.0
 16
1.0
 26
0.0
 36
0.0
 17
0.0
 27
1.0
 37
0.0
 76
0
330
213
345
0
346
0
  0
ENDSEC
  0
EOF
