999
DXF file: C:\Users\sesa63760\Dev\_Creo\CAD\MCADID0005085_3D-CAD\drw0001_6.dxf
999
Pro/ENGINEER 2019471 by Parametric Technology Corporation
  0
SECTION
  2
HEADER
  9
$ACADVER
  1
AC1024
  9
$DWGCODEPAGE
  3
ANSI_1252
  9
$EXTMAX
 10
133.9906725941
 20
189.5010940973
 30
0.0
  9
$EXTMIN
 10
0.0
 20
0.0
 30
0.0
  9
$LIMMIN
 10
0.0
 20
0.0
  9
$LIMMAX
 10
133.9906725941
 20
189.5010940973
  9
$VIEWCTR
 10
66.995336297
 20
94.7505470487
  9
$VIEWSIZE
 40
189.5010940973
  9
$CLAYER
  8
0
  9
$LTSCALE
 40
12.3526639115
  9
$CELTYPE
  6
BYLAYER
  9
$DIMSCALE
 40
1.0
  9
$DIMASZ
 40
1.5951270547
  9
$DIMEXO
 40
1.0
  9
$DIMDLI
 40
8.5345677934
  9
$DIMEXE
 40
1.0
  9
$DIMCEN
 40
2.0213450037
  9
$DIMLFAC
 40
1.0
  9
$DIMBLK
  1
_FILLED
  9
$DIMALT
 70
0
  9
$DIMALTF
 40
0.0393700787
  9
$DIMTXT
 40
2.2331778766
  9
$DIMTOL
 70
1
  9
$DIMLIM
 70
0
  9
$DIMTFAC
 40
1.0
  9
$DIMTP
 40
0.01
  9
$DIMTM
 40
0.01
  9
$DIMGAP
 40
0.625
  9
$DIMDSEP
 70
46
  9
$AUNITS
 70
0
  9
$PDMODE
 70
3
  9
$PDSIZE
 40
0.3125
  9
$HANDSEED
  5
249
  9
$TILEMODE
 70
1
  9
$MEASUREMENT
 70
1
  9
$INSUNITS
 70
4
  0
ENDSEC
  0
SECTION
  2
CLASSES
  0
CLASS
  1
ACDBDICTIONARYWDFLT
  2
AcDbDictionaryWithDefault
  3
AutoCAD 2000
 90
0
 91
1
280
0
281
0
  0
CLASS
  1
ACDBPLACEHOLDER
  2
AcDbPlaceHolder
  3
AutoCAD 2000
 90
0
 91
1
280
0
281
0
  0
CLASS
  1
LAYOUT
  2
AcDbLayout
  3
AutoCAD 2000
 90
0
 91
0
280
0
281
0
  0
ENDSEC
  0
SECTION
  2
TABLES
  0
TABLE
  2
VPORT
  5
8
100
AcDbSymbolTable
 70
2
  0
VPORT
  5
1F4
100
AcDbSymbolTableRecord
100
AcDbViewportTableRecord
  2
*ACTIVE
 70
0
 10
0.0
 20
0.0
 11
1.0
 21
1.0
 12
66.995336297
 22
94.7505470487
 13
0.0
 23
0.0
 14
1.0
 24
1.0
 15
0.0
 25
0.0
 16
0.0
 26
0.0
 36
1.0
 17
0.0
 27
0.0
 37
0.0
 40
189.5010940973
 41
0.7070707071
 42
50.0
 43
0.0
 44
0.0
 50
0.0
 51
0.0
 71
0
 72
100
 73
1
 74
1
 75
0
 76
0
 77
0
 78
0
  0
ENDTAB
  0
TABLE
  2
LTYPE
  5
5
100
AcDbSymbolTable
 70
6
  0
LTYPE
  5
14
100
AcDbSymbolTableRecord
100
AcDbLinetypeTableRecord
  2
BYBLOCK
 70
0
  3

 72
65
 73
0
 40
0.0
  0
LTYPE
  5
15
100
AcDbSymbolTableRecord
100
AcDbLinetypeTableRecord
  2
BYLAYER
 70
0
  3

 72
65
 73
0
 40
0.0
  0
LTYPE
  5
16
100
AcDbSymbolTableRecord
100
AcDbLinetypeTableRecord
  2
CONTINUOUS
 70
64
  3
Solid line
 72
65
 73
0
 40
0.0
  0
LTYPE
  5
1F5
100
AcDbSymbolTableRecord
100
AcDbLinetypeTableRecord
  2
CENTER
 70
64
  3
____ _ ____ _ ____ _ ____ _ ____ _ ____ _ ____
 72
65
 73
4
 40
0.6
 49
0.375
 74
0
 49
-0.075
 74
0
 49
0.075
 74
0
 49
-0.075
 74
0
  0
LTYPE
  5
1F6
100
AcDbSymbolTableRecord
100
AcDbLinetypeTableRecord
  2
HIDDEN
 70
64
  3
- - - - - - - - - - - - - - - - - - - -
 72
65
 73
2
 40
0.2
 49
0.1
 74
0
 49
-0.1
 74
0
  0
LTYPE
  5
1F7
100
AcDbSymbolTableRecord
100
AcDbLinetypeTableRecord
  2
PHANTOM
 70
64
  3
_____ _ _ _____ _ _ _____ _ _ _____
 72
65
 73
6
 40
0.8
 49
0.45
 74
0
 49
-0.05
 74
0
 49
0.1
 74
0
 49
-0.05
 74
0
 49
0.1
 74
0
 49
-0.05
 74
0
  0
LTYPE
  5
1F8
100
AcDbSymbolTableRecord
100
AcDbLinetypeTableRecord
  2
DOT
 70
64
  3
. . . . . . . . . . . . . . . . . . . .
 72
65
 73
2
 40
0.2
 49
0.1
 74
0
 49
-0.1
 74
0
  0
LTYPE
  5
1F9
100
AcDbSymbolTableRecord
100
AcDbLinetypeTableRecord
  2
DASHED
 70
64
  3
- - - - - - - - - - - - - - - - - - - -
 72
65
 73
2
 40
0.2
 49
0.1
 74
0
 49
-0.1
 74
0
  0
ENDTAB
  0
TABLE
  2
LAYER
  5
2
100
AcDbSymbolTable
 70
36
  0
LAYER
  5
10
100
AcDbSymbolTableRecord
100
AcDbLayerTableRecord
  2
0
 70
0
 62
7
  6
CONTINUOUS
370
-3
390
F
  0
LAYER
  5
1FA
100
AcDbSymbolTableRecord
100
AcDbLayerTableRecord
  2
DEFAULT_1
 70
0
 62
7
  6
CENTER
370
-3
390
F
  0
LAYER
  5
1FB
100
AcDbSymbolTableRecord
100
AcDbLayerTableRecord
  2
DEFAULT_2
 70
0
 62
7
  6
HIDDEN
370
-3
390
F
  0
LAYER
  5
1FC
100
AcDbSymbolTableRecord
100
AcDbLayerTableRecord
  2
DEFAULT_3
 70
0
 62
7
  6
PHANTOM
370
-3
390
F
  0
LAYER
  5
1FD
100
AcDbSymbolTableRecord
100
AcDbLayerTableRecord
  2
00_COMPONENTS
 70
0
 62
7
  6
CONTINUOUS
370
-3
390
F
  0
LAYER
  5
1FE
100
AcDbSymbolTableRecord
100
AcDbLayerTableRecord
  2
01_1_DEFAULT_DATUMS
 70
0
 62
7
  6
CONTINUOUS
370
-3
390
F
  0
LAYER
  5
1FF
100
AcDbSymbolTableRecord
100
AcDbLayerTableRecord
  2
01_PLANES
 70
0
 62
7
  6
CONTINUOUS
370
-3
390
F
  0
LAYER
  5
200
100
AcDbSymbolTableRecord
100
AcDbLayerTableRecord
  2
02_COORD_SYS
 70
0
 62
7
  6
CONTINUOUS
370
-3
390
F
  0
LAYER
  5
201
100
AcDbSymbolTableRecord
100
AcDbLayerTableRecord
  2
03_AXES
 70
0
 62
7
  6
CONTINUOUS
370
-3
390
F
  0
LAYER
  5
202
100
AcDbSymbolTableRecord
100
AcDbLayerTableRecord
  2
04_POINTS
 70
0
 62
7
  6
CONTINUOUS
370
-3
390
F
  0
LAYER
  5
203
100
AcDbSymbolTableRecord
100
AcDbLayerTableRecord
  2
05_CURVES
 70
0
 62
7
  6
CONTINUOUS
370
-3
390
F
  0
LAYER
  5
204
100
AcDbSymbolTableRecord
100
AcDbLayerTableRecord
  2
06_SURFS
 70
0
 62
7
  6
CONTINUOUS
370
-3
390
F
  0
LAYER
  5
205
100
AcDbSymbolTableRecord
100
AcDbLayerTableRecord
  2
07_COSMETICS
 70
0
 62
7
  6
CONTINUOUS
370
-3
390
F
  0
LAYER
  5
206
100
AcDbSymbolTableRecord
100
AcDbLayerTableRecord
  2
10_NOTES
 70
0
 62
7
  6
CONTINUOUS
370
-3
390
F
  0
LAYER
  5
207
100
AcDbSymbolTableRecord
100
AcDbLayerTableRecord
  2
11_NOTES_PUB
 70
0
 62
7
  6
CONTINUOUS
370
-3
390
F
  0
LAYER
  5
208
100
AcDbSymbolTableRecord
100
AcDbLayerTableRecord
  2
13_REF_GTOL
 70
0
 62
7
  6
CONTINUOUS
370
-3
390
F
  0
LAYER
  5
209
100
AcDbSymbolTableRecord
100
AcDbLayerTableRecord
  2
16_MISC
 70
0
 62
7
  6
CONTINUOUS
370
-3
390
F
  0
LAYER
  5
20A
100
AcDbSymbolTableRecord
100
AcDbLayerTableRecord
  2
17_NO_PRINT
 70
0
 62
7
  6
CONTINUOUS
370
-3
390
F
  0
LAYER
  5
20B
100
AcDbSymbolTableRecord
100
AcDbLayerTableRecord
  2
18_DATUM_CAMS_JOINTS
 70
0
 62
7
  6
CONTINUOUS
370
-3
390
F
  0
LAYER
  5
20C
100
AcDbSymbolTableRecord
100
AcDbLayerTableRecord
  2
19_DATUM_FUNCTIONAL
 70
0
 62
7
  6
CONTINUOUS
370
-3
390
F
  0
LAYER
  5
20D
100
AcDbSymbolTableRecord
100
AcDbLayerTableRecord
  2
20_DATUM_KINEMATIC_SCHEME
 70
0
 62
7
  6
CONTINUOUS
370
-3
390
F
  0
ENDTAB
  0
TABLE
  2
STYLE
  5
3
100
AcDbSymbolTable
 70
1
  0
STYLE
  5
11
100
AcDbSymbolTableRecord
100
AcDbTextStyleTableRecord
  2
STANDARD
 70
0
 40
0.0
 41
1.0
 50
0.0
 71
0
 42
0.2
  3
ARIAL.TTF
  4

  0
STYLE
  5
20E
100
AcDbSymbolTableRecord
100
AcDbTextStyleTableRecord
  2
TEXTSTYLE_1
 70
0
 40
0.0
 41
0.8
 50
0.0
 71
0
 42
0.2
  3
gdt
  4

  0
ENDTAB
  0
TABLE
  2
VIEW
  5
6
100
AcDbSymbolTable
 70
0
  0
ENDTAB
  0
TABLE
  2
UCS
  5
7
100
AcDbSymbolTable
 70
0
  0
ENDTAB
  0
TABLE
  2
APPID
  5
9
100
AcDbSymbolTable
 70
1
  0
APPID
  5
20F
100
AcDbSymbolTableRecord
100
AcDbRegAppTableRecord
  2
ACAD
 70
0
  0
ENDTAB
  0
TABLE
  2
BLOCK_RECORD
  5
1
100
AcDbSymbolTable
 70
0
  0
BLOCK_RECORD
  5
210
100
AcDbSymbolTableRecord
100
AcDbBlockTableRecord
  2
*Model_Space
  0
BLOCK_RECORD
  5
211
100
AcDbSymbolTableRecord
100
AcDbBlockTableRecord
  2
*Paper_Space
  0
BLOCK_RECORD
  5
212
100
AcDbSymbolTableRecord
100
AcDbBlockTableRecord
  2
_FILLED
  0
ENDTAB
  0
TABLE
  2
DIMSTYLE
  5
A
100
AcDbSymbolTable
 70
1
100
AcDbDimStyleTable
 71
0
  0
DIMSTYLE
105
213
100
AcDbSymbolTableRecord
100
AcDbDimStyleTableRecord
  2
STANDARD
 70
0
  3

  4

 40
1.0
 41
1.5951270547
 42
1.0
 43
0.38
 44
1.0
 45
0.0
 46
0.0
 47
0.01
 48
0.01
140
2.2331778766
141
0.09
142
0.0
143
25.4
144
1.0
145
0.0
146
1.0
147
0.625
 71
1
 72
0
 73
0
 74
0
 75
0
 76
0
 77
1
 78
8
 79
2
170
0
171
1
172
0
173
0
174
0
175
0
176
0
177
0
178
0
270
2
179
2
271
2
272
2
273
2
274
2
275
0
280
0
281
0
282
0
283
1
284
8
285
0
286
0
287
3
288
0
340
11
278
46
341
212
342
212
343
212
344
212
  0
ENDTAB
  0
ENDSEC
  0
SECTION
  2
BLOCKS
  0
BLOCK
  5
20
100
AcDbEntity
  8
0
100
AcDbBlockBegin
  2
*Model_Space
 70
0
 10
0.0
 20
0.0
 30
0.0
  3
*Model_Space
  1

  0
ENDBLK
  5
21
100
AcDbEntity
  8
0
100
AcDbBlockEnd
  0
BLOCK
  5
1C
100
AcDbEntity
  8
0
100
AcDbBlockBegin
  2
*Paper_Space
 70
0
 10
0.0
 20
0.0
 30
0.0
  3
*Paper_Space
  1

  0
ENDBLK
  5
1D
100
AcDbEntity
  8
0
100
AcDbBlockEnd
  0
BLOCK
  5
214
100
AcDbEntity
  8
0
100
AcDbBlockBegin
  2
_FILLED
 70
64
 10
0.0
 20
0.0
  3
_FILLED
  1

  0
SOLID
  5
215
100
AcDbEntity
  8
0
  6
BYBLOCK
 62
0
100
AcDbTrace
 10
0.0
 20
0.0
 11
-1.0
 21
0.25
 12
-1.0
 22
-0.25
 13
-1.0
 23
-0.25
  0
ENDBLK
  5
216
100
AcDbEntity
  8
0
  6
BYBLOCK
 62
0
100
AcDbBlockEnd
  0
ENDSEC
  0
SECTION
  2
ENTITIES
  0
LINE
  5
217
100
AcDbEntity
  8
0
100
AcDbLine
 62
7
  6
BYLAYER
 10
15.8804994352
 20
69.2732026683
 11
15.155073715
 21
96.917155038
  0
LINE
  5
218
100
AcDbEntity
  8
0
100
AcDbLine
 62
7
  6
BYLAYER
 10
15.2752176054
 20
92.3388062275
 11
15.2752176054
 21
103.1034747638
  0
LINE
  5
219
100
AcDbEntity
  8
0
100
AcDbLine
 62
7
  6
BYLAYER
 10
15.5260470179
 20
116.0189125569
 11
15.5260470179
 21
82.7803964013
  0
LINE
  5
21A
100
AcDbEntity
  8
0
100
AcDbLine
 62
7
  6
BYLAYER
 10
16.1432252653
 20
68.3334063355
 11
16.1432252653
 21
118.1876176843
  0
LINE
  5
21B
100
AcDbEntity
  8
0
100
AcDbLine
 62
7
  6
BYLAYER
 10
15.155073715
 20
96.917155038
 11
15.5616441496
 21
117.8518416987
  0
LINE
  5
21C
100
AcDbEntity
  8
0
100
AcDbLine
 62
7
  6
BYLAYER
 10
17.8139131664
 20
67.326071146
 11
17.8139131664
 21
119.1521897129
  0
LINE
  5
21D
100
AcDbEntity
  8
0
100
AcDbLine
 62
7
  6
BYLAYER
 10
15.5616441496
 20
117.8518416987
 11
21.405073715
 21
121.2255470486
  0
LINE
  5
21E
100
AcDbEntity
  8
0
100
AcDbLine
 62
7
  6
BYLAYER
 10
38.1550743855
 20
121.2255470486
 11
38.1550743855
 21
122.1755470487
  0
LINE
  5
21F
100
AcDbEntity
  8
0
100
AcDbLine
 62
7
  6
BYLAYER
 10
40.4550733544
 20
67.8255470487
 11
40.4550733544
 21
67.3405922803
  0
LINE
  5
220
100
AcDbEntity
  8
0
100
AcDbLine
 62
7
  6
BYLAYER
 10
86.4550550902
 20
67.3255470487
 11
79.9550923397
 21
67.3255470487
  0
LINE
  5
221
100
AcDbEntity
  8
0
100
AcDbLine
 62
7
  6
BYLAYER
 10
56.4550550902
 20
67.3255470487
 11
49.9550923397
 21
67.3255470487
  0
LINE
  5
222
100
AcDbEntity
  8
0
100
AcDbLine
 62
7
  6
BYLAYER
 10
92.0137286669
 20
67.3255517588
 11
118.4410423332
 21
67.3255684469
  0
LINE
  5
223
100
AcDbEntity
  8
0
100
AcDbLine
 62
7
  6
BYLAYER
 10
90.6550737201
 20
67.3255947059
 11
90.855073715
 21
67.3255947059
  0
LINE
  5
224
100
AcDbEntity
  8
0
100
AcDbLine
 62
7
  6
BYLAYER
 10
49.855073715
 20
67.327455634
 11
17.8314024277
 21
67.3255723141
  0
LINE
  5
225
100
AcDbEntity
  8
0
100
AcDbLine
 62
7
  6
BYLAYER
 10
40.4550733544
 20
67.8255470487
 11
90.6550737431
 21
67.8255470487
  0
LINE
  5
226
100
AcDbEntity
  8
0
100
AcDbLine
 62
7
  6
BYLAYER
 10
116.4245672465
 20
69.2731931546
 11
19.8673380968
 21
69.2731931546
  0
LINE
  5
227
100
AcDbEntity
  8
0
100
AcDbLine
 62
7
  6
BYLAYER
 10
48.7944135432
 20
67.8255470487
 11
48.7944135432
 21
67.3274418701
  0
LINE
  5
228
100
AcDbEntity
  8
0
100
AcDbLine
 62
7
  6
BYLAYER
 10
49.855073715
 20
67.327455634
 11
49.855073715
 21
67.8255470487
  0
LINE
  5
229
100
AcDbEntity
  8
0
100
AcDbLine
 62
7
  6
BYLAYER
 10
49.955073715
 20
67.8255470487
 11
49.955073715
 21
67.3255470487
  0
LINE
  5
22A
100
AcDbEntity
  8
0
100
AcDbLine
 62
7
  6
BYLAYER
 10
53.1550740503
 20
121.2255470486
 11
53.1550740503
 21
122.1755470487
  0
LINE
  5
22B
100
AcDbEntity
  8
0
100
AcDbLine
 62
7
  6
BYLAYER
 10
56.455073715
 20
67.8255470487
 11
56.455073715
 21
67.3255470487
  0
LINE
  5
22C
100
AcDbEntity
  8
0
100
AcDbLine
 62
7
  6
BYLAYER
 10
22.162851324
 20
93.3255470487
 11
114.1469872481
 21
93.3255470487
  0
LINE
  5
22D
100
AcDbEntity
  8
0
100
AcDbLine
 62
7
  6
BYLAYER
 10
79.955073715
 20
67.8255470487
 11
79.955073715
 21
67.3255470487
  0
LINE
  5
22E
100
AcDbEntity
  8
0
100
AcDbLine
 62
7
  6
BYLAYER
 10
83.1550733797
 20
121.2255470486
 11
83.1550733797
 21
122.1755470487
  0
LINE
  5
22F
100
AcDbEntity
  8
0
100
AcDbLine
 62
7
  6
BYLAYER
 10
86.455073715
 20
67.8255470487
 11
86.455073715
 21
67.3255470487
  0
LINE
  5
230
100
AcDbEntity
  8
0
100
AcDbLine
 62
7
  6
BYLAYER
 10
90.6550737339
 20
67.3406426666
 11
90.6550737431
 21
67.8255470487
  0
LINE
  5
231
100
AcDbEntity
  8
0
100
AcDbLine
 62
7
  6
BYLAYER
 10
19.7878898101
 20
119.2210433589
 11
116.50442212
 21
119.2210433589
  0
LINE
  5
232
100
AcDbEntity
  8
0
100
AcDbLine
 62
7
  6
BYLAYER
 10
21.405073715
 20
121.2255470486
 11
114.905073715
 21
121.2255470486
  0
LINE
  5
233
100
AcDbEntity
  8
0
100
AcDbLine
 62
7
  6
BYLAYER
 10
98.1550730444
 20
122.1755470487
 11
38.1550743855
 21
122.1755470487
  0
LINE
  5
234
100
AcDbEntity
  8
0
100
AcDbLine
 62
7
  6
BYLAYER
 10
98.1550730444
 20
121.2255470486
 11
98.1550730444
 21
122.1755470487
  0
LINE
  5
235
100
AcDbEntity
  8
0
100
AcDbLine
 62
7
  6
BYLAYER
 10
114.905073715
 20
121.2255470486
 11
120.7485032804
 21
117.8518416987
  0
LINE
  5
236
100
AcDbEntity
  8
0
100
AcDbLine
 62
7
  6
BYLAYER
 10
118.4962342636
 20
67.3266095299
 11
118.4962342636
 21
119.1521897129
  0
LINE
  5
237
100
AcDbEntity
  8
0
100
AcDbLine
 62
7
  6
BYLAYER
 10
120.7485032804
 20
117.8518416987
 11
121.155073715
 21
97.0439612971
  0
LINE
  5
238
100
AcDbEntity
  8
0
100
AcDbLine
 62
7
  6
BYLAYER
 10
120.7841004121
 20
82.8423555848
 11
120.7841004121
 21
116.0300150339
  0
LINE
  5
239
100
AcDbEntity
  8
0
100
AcDbLine
 62
7
  6
BYLAYER
 10
121.0349305079
 20
92.4446371861
 11
121.0349305079
 21
103.1927740789
  0
LINE
  5
23A
100
AcDbEntity
  8
0
100
AcDbLine
 62
7
  6
BYLAYER
 10
120.4296479948
 20
69.2732026683
 11
121.155073715
 21
97.0439612971
  0
ARC
  5
23B
100
AcDbEntity
  8
0
100
AcDbCircle
 62
7
  6
BYLAYER
 10
17.8805674906
 20
69.3257183968
 40
2.0007573886
100
AcDbArc
 50
181.5040680247
 51
268.5919124611
  0
ARC
  5
23C
100
AcDbEntity
  8
0
100
AcDbCircle
 62
7
  6
BYLAYER
 10
118.4303210105
 20
69.3255519186
 40
2.0000122084
100
AcDbArc
 50
270.307144551
 51
358.5001423088
  0
SPLINE
  5
23D
100
AcDbEntity
  8
0
100
AcDbSpline
 62
7
  6
BYLAYER
 70
0
 71
3
 72
9
 73
5
 74
0
 42
0.0000001
 43
0.0000001
 44
0.0000000001
 40
0.0
 40
0.0
 40
0.0
 40
0.0
 40
0.50624929
 40
1.0
 40
1.0
 40
1.0
 40
1.0
 10
40.4550733544
 20
67.3405570185
 30
0.0
 10
40.2274685987
 20
67.3393774498
 30
0.0
 10
39.7779163288
 20
67.333017925
 30
0.0
 10
39.3283564752
 20
67.3255600287
 30
0.0
 10
39.1063679784
 20
67.3255569276
 30
0.0
  0
SPLINE
  5
23E
100
AcDbEntity
  8
0
100
AcDbSpline
 62
7
  6
BYLAYER
 70
0
 71
3
 72
9
 73
5
 74
0
 42
0.0000001
 43
0.0000001
 44
0.0000000001
 40
0.0
 40
0.0
 40
0.0
 40
0.0
 40
0.4937409794
 40
1.0
 40
1.0
 40
1.0
 40
1.0
 10
92.0137286647
 20
67.3255487955
 30
0.0
 10
91.7901070397
 20
67.3255519194
 30
0.0
 10
91.3372317568
 20
67.3331249215
 30
0.0
 10
90.8843621371
 20
67.3394755136
 30
0.0
 10
90.6550737339
 20
67.3406093273
 30
0.0
  0
SPLINE
  5
23F
100
AcDbEntity
  8
0
100
AcDbSpline
 62
7
  6
BYLAYER
 70
0
 71
3
 72
34
 73
30
 74
0
 42
0.0000001
 43
0.0000001
 44
0.0000000001
 40
0.0
 40
0.0
 40
0.0
 40
0.0
 40
0.1250063244
 40
0.2500126318
 40
0.31251583
 40
0.3750190307
 40
0.4375222328
 40
0.5000254349
 40
0.562528633
 40
0.6250318179
 40
0.687534968
 40
0.7187866074
 40
0.7500382474
 40
0.7812898849
 40
0.8125415101
 40
0.8437931025
 40
0.8750446064
 40
0.8906704672
 40
0.9062963192
 40
0.9219221392
 40
0.9375478724
 40
0.9531733358
 40
0.9609862866
 40
0.968799161
 40
0.9766117804
 40
0.9844233678
 40
0.9922282121
 40
0.9961300299
 40
1.0
 40
1.0
 40
1.0
 40
1.0
 10
116.50442212
 20
119.2210433589
 30
0.0
 10
116.4583971966
 20
118.1339072197
 30
0.0
 10
116.3626872964
 20
115.9597878742
 30
0.0
 10
116.2320535989
 20
113.2426410857
 30
0.0
 10
116.1193370868
 20
111.0693392881
 30
0.0
 10
116.0301361839
 20
109.439610111
 30
0.0
 10
115.9355982533
 20
107.8101809815
 30
0.0
 10
115.8348523694
 20
106.1811227261
 30
0.0
 10
115.7267533968
 20
104.5525337418
 30
0.0
 10
115.6097298296
 20
102.924559836
 30
0.0
 10
115.502927283
 20
101.5686055761
 30
0.0
 10
115.4101847219
 20
100.4844503172
 30
0.0
 10
115.3363383882
 20
99.6717097763
 30
0.0
 10
115.257394789
 20
98.859446905
 30
0.0
 10
115.1722402266
 20
98.0478080576
 30
0.0
 10
115.0792743702
 20
97.2370240171
 30
0.0
 10
114.9933060747
 20
96.5623814966
 30
0.0
 10
114.9173783329
 20
96.023641975
 30
0.0
 10
114.8560230305
 20
95.620228702
 30
0.0
 10
114.7891269732
 20
95.2176904199
 30
0.0
 10
114.7149338588
 20
94.816428283
 30
0.0
 10
114.644690956
 20
94.4836666769
 30
0.0
 10
114.5806545905
 20
94.2192569013
 30
0.0
 10
114.5274088409
 20
94.0222972867
 30
0.0
 10
114.4669052316
 20
93.8273214801
 30
0.0
 10
114.3955047503
 20
93.6364121016
 30
0.0
 10
114.3198403922
 20
93.4827816508
 30
0.0
 10
114.2381667762
 20
93.3747811369
 30
0.0
 10
114.1797581797
 20
93.3333449483
 30
0.0
 10
114.1469872481
 20
93.3255470487
 30
0.0
  0
SPLINE
  5
240
100
AcDbEntity
  8
0
100
AcDbSpline
 62
7
  6
BYLAYER
 70
0
 71
3
 72
35
 73
31
 74
0
 42
0.0000001
 43
0.0000001
 44
0.0000000001
 40
0.0
 40
0.0
 40
0.0
 40
0.0
 40
0.1250020289
 40
0.25000404
 40
0.3125050926
 40
0.3750061478
 40
0.4375072046
 40
0.5000082617
 40
0.5625093139
 40
0.6250103522
 40
0.6875113527
 40
0.718761922
 40
0.7500124926
 40
0.7812630591
 40
0.8125136132
 40
0.8437641309
 40
0.8750145496
 40
0.890639879
 40
0.9062651974
 40
0.9218904808
 40
0.937515664
 40
0.9531405309
 40
0.9687641208
 40
0.9765763908
 40
0.984387301
 40
0.9882934956
 40
0.9921985407
 40
0.9960971707
 40
0.9980502242
 40
1.0
 40
1.0
 40
1.0
 40
1.0
 10
19.8673380968
 20
69.2731931546
 30
0.0
 10
19.9119599235
 20
70.2844172954
 30
0.0
 10
20.0046999327
 20
72.306713279
 30
0.0
 10
20.1311420284
 20
74.8340829814
 30
0.0
 10
20.2401587145
 20
76.855564721
 30
0.0
 10
20.3263912815
 20
78.3714297226
 30
0.0
 10
20.4177434858
 20
79.8869956416
 30
0.0
 10
20.5150551424
 20
81.4021917542
 30
0.0
 10
20.6194332882
 20
82.9169196058
 30
0.0
 10
20.7323955718
 20
84.4310333457
 30
0.0
 10
20.8354708606
 20
85.6921045358
 30
0.0
 10
20.9249726677
 20
86.700352808
 30
0.0
 10
20.9962396422
 20
87.4561624594
 30
0.0
 10
21.0724340506
 20
88.2114928882
 30
0.0
 10
21.1546380277
 20
88.9661966046
 30
0.0
 10
21.244414241
 20
89.7200397862
 30
0.0
 10
21.3274814452
 20
90.3472226782
 30
0.0
 10
21.4009060211
 20
90.8479809289
 30
0.0
 10
21.4602800854
 20
91.2228990629
 30
0.0
 10
21.5250891701
 20
91.5969185247
 30
0.0
 10
21.5970425519
 20
91.9696507351
 30
0.0
 10
21.6790938741
 20
92.3402740344
 30
0.0
 10
21.7601378384
 20
92.646242941
 30
0.0
 10
21.8393836319
 20
92.8866110699
 30
0.0
 10
21.8982728407
 20
93.0336123887
 30
0.0
 10
21.9557585787
 20
93.1464822111
 30
0.0
 10
22.0067480564
 20
93.2265010941
 30
0.0
 10
22.0605317229
 20
93.2859329052
 30
0.0
 10
22.1152429586
 20
93.3188033255
 30
0.0
 10
22.1470630476
 20
93.3255477453
 30
0.0
 10
22.1628514231
 20
93.3255470487
 30
0.0
  0
SPLINE
  5
241
100
AcDbEntity
  8
0
100
AcDbSpline
 62
7
  6
BYLAYER
 70
0
 71
3
 72
33
 73
29
 74
0
 42
0.0000001
 43
0.0000001
 44
0.0000000001
 40
0.0
 40
0.0
 40
0.0
 40
0.0
 40
0.1250335038
 40
0.2500669906
 40
0.3125837783
 40
0.3751005685
 40
0.4376173601
 40
0.5001341517
 40
0.5626509393
 40
0.6251677135
 40
0.687684453
 40
0.718942887
 40
0.7502013216
 40
0.7814597537
 40
0.8127181731
 40
0.8439765593
 40
0.8752348551
 40
0.8908641133
 40
0.906493362
 40
0.9221225771
 40
0.9377517007
 40
0.9533805368
 40
0.9690082005
 40
0.9768224665
 40
0.9846354757
 40
0.9885426221
 40
0.9924487276
 40
1.0
 40
1.0
 40
1.0
 40
1.0
 10
19.7878898101
 20
119.2210433589
 30
0.0
 10
19.8337191742
 20
118.1329318177
 30
0.0
 10
19.9290338192
 20
115.9568607044
 30
0.0
 10
20.0591618388
 20
113.237271208
 30
0.0
 10
20.1714664214
 20
111.0620129518
 30
0.0
 10
20.2603547797
 20
109.4308151313
 30
0.0
 10
20.3545768627
 20
107.7999158749
 30
0.0
 10
20.4550044779
 20
106.1693858065
 30
0.0
 10
20.5627841431
 20
104.5393230782
 30
0.0
 10
20.6794908348
 20
102.9098732955
 30
0.0
 10
20.7860364754
 20
101.5526872344
 30
0.0
 10
20.8785849738
 20
100.4675455938
 30
0.0
 10
20.9522951076
 20
99.6540649915
 30
0.0
 10
21.0311167178
 20
98.8410621393
 30
0.0
 10
21.1161723851
 20
98.0286841702
 30
0.0
 10
21.2090777124
 20
97.2171636879
 30
0.0
 10
21.2950502125
 20
96.5419124021
 30
0.0
 10
21.3710476499
 20
96.0026948157
 30
0.0
 10
21.4325017175
 20
95.5989293694
 30
0.0
 10
21.4995822013
 20
95.1960556578
 30
0.0
 10
21.5740443216
 20
94.79446854
 30
0.0
 10
21.6589735217
 20
94.3949472571
 30
0.0
 10
21.7427501612
 20
94.0649590756
 30
0.0
 10
21.8248568589
 20
93.8051402378
 30
0.0
 10
21.8854092646
 20
93.6463843121
 30
0.0
 10
21.9456196682
 20
93.5230625388
 30
0.0
 10
22.0120547783
 20
93.4113764163
 30
0.0
 10
22.0970776624
 20
93.3255441464
 30
0.0
 10
22.162851324
 20
93.3255470487
 30
0.0
  0
SPLINE
  5
242
100
AcDbEntity
  8
0
100
AcDbSpline
 62
7
  6
BYLAYER
 70
0
 71
3
 72
33
 73
29
 74
0
 42
0.0000001
 43
0.0000001
 44
0.0000000001
 40
0.0
 40
0.0
 40
0.0
 40
0.0
 40
0.1250060116
 40
0.2500120051
 40
0.3125150493
 40
0.3750180964
 40
0.437521145
 40
0.5000241937
 40
0.5625272384
 40
0.6250302689
 40
0.6875332624
 40
0.7187848284
 40
0.7500363949
 40
0.7812879591
 40
0.8125395099
 40
0.8437910258
 40
0.875042447
 40
0.8906682758
 40
0.9062940939
 40
0.9219198791
 40
0.9375455711
 40
0.9531709737
 40
0.9687952285
 40
0.9766078161
 40
0.984419333
 40
0.9922237932
 40
0.9961257108
 40
1.0
 40
1.0
 40
1.0
 40
1.0
 10
116.4245672465
 20
69.2731931546
 30
0.0
 10
116.3797626497
 20
70.2834403993
 30
0.0
 10
116.2866532844
 20
72.3037816456
 30
0.0
 10
116.1597394767
 20
74.8287050205
 30
0.0
 10
116.0503394848
 20
76.8482274991
 30
0.0
 10
115.9638167302
 20
78.3626218181
 30
0.0
 10
115.8721722863
 20
79.8767156585
 30
0.0
 10
115.7745665969
 20
81.3904380706
 30
0.0
 10
115.6698962409
 20
82.9036905164
 30
0.0
 10
115.5566456504
 20
84.4163268945
 30
0.0
 10
115.4533402183
 20
85.6761653561
 30
0.0
 10
115.3636684943
 20
86.6834268525
 30
0.0
 10
115.2922839789
 20
87.4384962808
 30
0.0
 10
115.2159897877
 20
88.1930870312
 30
0.0
 10
115.133710372
 20
88.9470522687
 30
0.0
 10
115.0439014012
 20
89.7001604741
 30
0.0
 10
114.9608671241
 20
90.3267370481
 30
0.0
 10
114.8875389131
 20
90.8270203586
 30
0.0
 10
114.8282890512
 20
91.2015900727
 30
0.0
 10
114.7636851871
 20
91.5752778316
 30
0.0
 10
114.6920653722
 20
91.9476982695
 30
0.0
 10
114.6105958039
 20
92.3180973398
 30
0.0
 10
114.5304151281
 20
92.623909935
 30
0.0
 10
114.4525935373
 20
92.8645933998
 30
0.0
 10
114.3836864756
 20
93.0410667525
 30
0.0
 10
114.3108266765
 20
93.1825527862
 30
0.0
 10
114.2324292346
 20
93.2812492324
 30
0.0
 10
114.1774771454
 20
93.3182919327
 30
0.0
 10
114.146987252
 20
93.3255470487
 30
0.0
  0
SPLINE
  5
243
100
AcDbEntity
  8
0
100
AcDbSpline
 62
7
  6
BYLAYER
 70
0
 71
3
 72
16
 73
12
 74
0
 42
0.0000001
 43
0.0000001
 44
0.0000000001
 40
0.0
 40
0.0
 40
0.0
 40
0.0
 40
0.080210835
 40
0.15936902
 40
0.312601884
 40
0.4582129007
 40
0.5946734273
 40
0.7198460635
 40
0.830922162
 40
0.9248466928
 40
1.0
 40
1.0
 40
1.0
 40
1.0
 10
19.8673306049
 20
69.2731931546
 30
0.0
 10
19.8640270452
 20
69.1984558797
 30
0.0
 10
19.8432315855
 20
69.0502682582
 30
0.0
 10
19.7538035762
 20
68.7716587493
 30
0.0
 10
19.5795924081
 20
68.4615624724
 30
0.0
 10
19.3255624106
 20
68.1437393855
 30
0.0
 10
19.0566840608
 20
67.8745134451
 30
0.0
 10
18.7889115043
 20
67.6521860108
 30
0.0
 10
18.5327912668
 20
67.4797022533
 30
0.0
 10
18.2982743843
 20
67.3634010207
 30
0.0
 10
18.1415271785
 20
67.3255582925
 30
0.0
 10
18.0714339323
 20
67.3255517588
 30
0.0
  0
SPLINE
  5
244
100
AcDbEntity
  8
0
100
AcDbSpline
 62
7
  6
BYLAYER
 70
0
 71
3
 72
16
 73
12
 74
0
 42
0.0000001
 43
0.0000001
 44
0.0000000001
 40
0.0
 40
0.0
 40
0.0
 40
0.0
 40
0.0757040097
 40
0.1699385767
 40
0.2811212891
 40
0.4062512599
 40
0.5425637214
 40
0.6879532049
 40
0.8409165487
 40
0.9199323068
 40
1.0
 40
1.0
 40
1.0
 40
1.0
 10
118.2340102232
 20
67.3255517588
 30
0.0
 10
118.1631380433
 20
67.3255582744
 30
0.0
 10
118.0049431135
 20
67.3631771824
 30
0.0
 10
117.768222067
 20
67.4793439638
 30
0.0
 10
117.5101699985
 20
67.6516508548
 30
0.0
 10
117.240632288
 20
67.8737815352
 30
0.0
 10
116.9701022928
 20
68.1428330286
 30
0.0
 10
116.7144856119
 20
68.4605770843
 30
0.0
 10
116.5390300016
 20
68.7708425055
 30
0.0
 10
116.448871071
 20
69.0498362284
 30
0.0
 10
116.4279055757
 20
69.1983096662
 30
0.0
 10
116.4245787815
 20
69.2731931546
 30
0.0
  0
ELLIPSE
  5
245
100
AcDbEntity
  8
0
100
AcDbEllipse
 62
7
  6
BYLAYER
 10
114.1187287867
 20
121.4479168893
 30
0.0
 11
4.5352439936
 21
0.0
 31
0.0
 40
0.5773501093
 41
-1.0168656567
 42
-0.722806516
  0
ELLIPSE
  5
246
100
AcDbEntity
  8
0
100
AcDbEllipse
 62
7
  6
BYLAYER
 10
22.1628461758
 20
121.4264965444
 30
0.0
 11
4.4980548109
 21
-0.0
 31
0.0
 40
0.5773501093
 41
-2.4206477826
 42
-2.1270357897
  0
ENDSEC
  0
SECTION
  2
OBJECTS
  0
DICTIONARY
  5
C
100
AcDbDictionary
280
0
281
1
  3
ACAD_GROUP
350
D
  3
ACAD_MLINESTYLE
350
17
  3
ACAD_LAYOUT
350
1A
  3
ACAD_PLOTSETTINGS
350
19
  3
ACAD_PLOTSTYLENAME
350
E
  0
DICTIONARY
  5
D
102
{ACAD_REACTORS
330
C
102
}
100
AcDbDictionary
280
0
281
1
  0
ACDBDICTIONARYWDFLT
  5
E
102
{ACAD_REACTORS
330
C
102
}
100
AcDbDictionary
281
1
  3
Normal
350
F
100
AcDbDictionaryWithDefault
340
F
  0
DICTIONARY
  5
17
102
{ACAD_REACTORS
330
C
102
}
100
AcDbDictionary
280
0
281
1
  3
Standard
350
18
  0
DICTIONARY
  5
19
102
{ACAD_REACTORS
330
C
102
}
100
AcDbDictionary
281
1
  0
DICTIONARY
  5
1A
102
{ACAD_REACTORS
330
C
102
}
100
AcDbDictionary
281
1
  3
Model
350
247
  3
Layout1
350
248
  0
ACDBPLACEHOLDER
  5
F
102
{ACAD_REACTORS
330
E
102
}
  0
MLINESTYLE
  5
18
102
{ACAD_REACTORS
330
17
102
}
100
AcDbMlineStyle
  2
STANDARD
 70
0
  3

 62
256
 51
90.0
 52
90.0
 71
2
 49
0.5
 62
256
  6
BYLAYER
 49
-0.5
 62
256
  6
BYLAYER
  0
LAYOUT
  5
247
102
{ACAD_REACTORS
330
1A
102
}
100
AcDbPlotSettings
  1

  2
none_device
  4

  6

 40
0.0
 41
0.0
 42
0.0
 43
0.0
 44
210.0
 45
297.0
 46
0.0
 47
0.0
 48
0.0
 49
0.0
140
0.0
141
0.0
142
1.0
143
1.0
 70
1024
 72
1
 73
0
 74
0
  7

 75
0
147
1.0
148
0.0
149
0.0
100
AcDbLayout
  1
Model
 70
0
 71
0
 10
0.0
 20
0.0
 11
210.0
 21
297.0
 12
0.0
 22
0.0
 32
0.0
 14
0.0
 24
0.0
 34
0.0
 15
0.0
 25
0.0
 35
0.0
146
0.0
 13
0.0
 23
0.0
 33
0.0
 16
1.0
 26
0.0
 36
0.0
 17
0.0
 27
1.0
 37
0.0
 76
0
330
210
345
0
346
0
  0
LAYOUT
  5
248
102
{ACAD_REACTORS
330
1A
102
}
100
AcDbPlotSettings
  1

  2
none_device
  4

  6

 40
0.0
 41
0.0
 42
0.0
 43
0.0
 44
210.0
 45
297.0
 46
0.0
 47
0.0
 48
0.0
 49
0.0
140
0.0
141
0.0
142
1.0
143
1.0
 70
0
 72
1
 73
0
 74
0
  7

 75
0
147
1.0
148
0.0
149
0.0
100
AcDbLayout
  1
Layout1
 70
0
 71
1
 10
0.0
 20
0.0
 11
210.0
 21
297.0
 12
0.0
 22
0.0
 32
0.0
 14
0.0
 24
0.0
 34
0.0
 15
0.0
 25
0.0
 35
0.0
146
0.0
 13
0.0
 23
0.0
 33
0.0
 16
1.0
 26
0.0
 36
0.0
 17
0.0
 27
1.0
 37
0.0
 76
0
330
211
345
0
346
0
  0
ENDSEC
  0
EOF
