999
DXF file: C:\Users\sesa63760\Dev\_Creo\CAD\MCADPD0005307_3D-CAD\drw0001_5.dxf
999
Pro/ENGINEER 2019471 by Parametric Technology Corporation
  0
SECTION
  2
HEADER
  9
$ACADVER
  1
AC1024
  9
$DWGCODEPAGE
  3
ANSI_1252
  9
$EXTMAX
 10
104.4600691006
 20
147.7363834423
 30
0.0
  9
$EXTMIN
 10
0.0
 20
0.0
 30
0.0
  9
$LIMMIN
 10
0.0
 20
0.0
  9
$LIMMAX
 10
104.4600691006
 20
147.7363834423
  9
$VIEWCTR
 10
52.2300345503
 20
73.8681917211
  9
$VIEWSIZE
 40
147.7363834423
  9
$CLAYER
  8
0
  9
$LTSCALE
 40
9.6302235133
  9
$CELTYPE
  6
BYLAYER
  9
$DIMSCALE
 40
1.0
  9
$DIMASZ
 40
1.2435722512
  9
$DIMEXO
 40
1.0
  9
$DIMDLI
 40
6.6536089728
  9
$DIMEXE
 40
1.0
  9
$DIMCEN
 40
1.5758547567
  9
$DIMLFAC
 40
1.0
  9
$DIMBLK
  1
_FILLED
  9
$DIMALT
 70
0
  9
$DIMALTF
 40
0.0393700787
  9
$DIMTXT
 40
1.7410011517
  9
$DIMTOL
 70
1
  9
$DIMLIM
 70
0
  9
$DIMTFAC
 40
1.0
  9
$DIMTP
 40
0.01
  9
$DIMTM
 40
0.01
  9
$DIMGAP
 40
0.625
  9
$DIMDSEP
 70
46
  9
$AUNITS
 70
0
  9
$PDMODE
 70
3
  9
$PDSIZE
 40
0.3125
  9
$HANDSEED
  5
270
  9
$TILEMODE
 70
1
  9
$MEASUREMENT
 70
1
  9
$INSUNITS
 70
4
  0
ENDSEC
  0
SECTION
  2
CLASSES
  0
CLASS
  1
ACDBDICTIONARYWDFLT
  2
AcDbDictionaryWithDefault
  3
AutoCAD 2000
 90
0
 91
1
280
0
281
0
  0
CLASS
  1
ACDBPLACEHOLDER
  2
AcDbPlaceHolder
  3
AutoCAD 2000
 90
0
 91
1
280
0
281
0
  0
CLASS
  1
LAYOUT
  2
AcDbLayout
  3
AutoCAD 2000
 90
0
 91
0
280
0
281
0
  0
ENDSEC
  0
SECTION
  2
TABLES
  0
TABLE
  2
VPORT
  5
8
100
AcDbSymbolTable
 70
2
  0
VPORT
  5
1F4
100
AcDbSymbolTableRecord
100
AcDbViewportTableRecord
  2
*ACTIVE
 70
0
 10
0.0
 20
0.0
 11
1.0
 21
1.0
 12
52.2300345503
 22
73.8681917211
 13
0.0
 23
0.0
 14
1.0
 24
1.0
 15
0.0
 25
0.0
 16
0.0
 26
0.0
 36
1.0
 17
0.0
 27
0.0
 37
0.0
 40
147.7363834423
 41
0.7070707071
 42
50.0
 43
0.0
 44
0.0
 50
0.0
 51
0.0
 71
0
 72
100
 73
1
 74
1
 75
0
 76
0
 77
0
 78
0
  0
ENDTAB
  0
TABLE
  2
LTYPE
  5
5
100
AcDbSymbolTable
 70
6
  0
LTYPE
  5
14
100
AcDbSymbolTableRecord
100
AcDbLinetypeTableRecord
  2
BYBLOCK
 70
0
  3

 72
65
 73
0
 40
0.0
  0
LTYPE
  5
15
100
AcDbSymbolTableRecord
100
AcDbLinetypeTableRecord
  2
BYLAYER
 70
0
  3

 72
65
 73
0
 40
0.0
  0
LTYPE
  5
16
100
AcDbSymbolTableRecord
100
AcDbLinetypeTableRecord
  2
CONTINUOUS
 70
64
  3
Solid line
 72
65
 73
0
 40
0.0
  0
LTYPE
  5
1F5
100
AcDbSymbolTableRecord
100
AcDbLinetypeTableRecord
  2
CENTER
 70
64
  3
____ _ ____ _ ____ _ ____ _ ____ _ ____ _ ____
 72
65
 73
4
 40
0.6
 49
0.375
 74
0
 49
-0.075
 74
0
 49
0.075
 74
0
 49
-0.075
 74
0
  0
LTYPE
  5
1F6
100
AcDbSymbolTableRecord
100
AcDbLinetypeTableRecord
  2
HIDDEN
 70
64
  3
- - - - - - - - - - - - - - - - - - - -
 72
65
 73
2
 40
0.2
 49
0.1
 74
0
 49
-0.1
 74
0
  0
LTYPE
  5
1F7
100
AcDbSymbolTableRecord
100
AcDbLinetypeTableRecord
  2
PHANTOM
 70
64
  3
_____ _ _ _____ _ _ _____ _ _ _____
 72
65
 73
6
 40
0.8
 49
0.45
 74
0
 49
-0.05
 74
0
 49
0.1
 74
0
 49
-0.05
 74
0
 49
0.1
 74
0
 49
-0.05
 74
0
  0
LTYPE
  5
1F8
100
AcDbSymbolTableRecord
100
AcDbLinetypeTableRecord
  2
DOT
 70
64
  3
. . . . . . . . . . . . . . . . . . . .
 72
65
 73
2
 40
0.2
 49
0.1
 74
0
 49
-0.1
 74
0
  0
LTYPE
  5
1F9
100
AcDbSymbolTableRecord
100
AcDbLinetypeTableRecord
  2
DASHED
 70
64
  3
- - - - - - - - - - - - - - - - - - - -
 72
65
 73
2
 40
0.2
 49
0.1
 74
0
 49
-0.1
 74
0
  0
ENDTAB
  0
TABLE
  2
LAYER
  5
2
100
AcDbSymbolTable
 70
36
  0
LAYER
  5
10
100
AcDbSymbolTableRecord
100
AcDbLayerTableRecord
  2
0
 70
0
 62
7
  6
CONTINUOUS
370
-3
390
F
  0
LAYER
  5
1FA
100
AcDbSymbolTableRecord
100
AcDbLayerTableRecord
  2
DEFAULT_1
 70
0
 62
7
  6
CENTER
370
-3
390
F
  0
LAYER
  5
1FB
100
AcDbSymbolTableRecord
100
AcDbLayerTableRecord
  2
DEFAULT_2
 70
0
 62
7
  6
HIDDEN
370
-3
390
F
  0
LAYER
  5
1FC
100
AcDbSymbolTableRecord
100
AcDbLayerTableRecord
  2
DEFAULT_3
 70
0
 62
7
  6
PHANTOM
370
-3
390
F
  0
LAYER
  5
1FD
100
AcDbSymbolTableRecord
100
AcDbLayerTableRecord
  2
00_COMPONENTS
 70
0
 62
7
  6
CONTINUOUS
370
-3
390
F
  0
LAYER
  5
1FE
100
AcDbSymbolTableRecord
100
AcDbLayerTableRecord
  2
01_1_DEFAULT_DATUMS
 70
0
 62
7
  6
CONTINUOUS
370
-3
390
F
  0
LAYER
  5
1FF
100
AcDbSymbolTableRecord
100
AcDbLayerTableRecord
  2
01_PLANES
 70
0
 62
7
  6
CONTINUOUS
370
-3
390
F
  0
LAYER
  5
200
100
AcDbSymbolTableRecord
100
AcDbLayerTableRecord
  2
02_COORD_SYS
 70
0
 62
7
  6
CONTINUOUS
370
-3
390
F
  0
LAYER
  5
201
100
AcDbSymbolTableRecord
100
AcDbLayerTableRecord
  2
03_AXES
 70
0
 62
7
  6
CONTINUOUS
370
-3
390
F
  0
LAYER
  5
202
100
AcDbSymbolTableRecord
100
AcDbLayerTableRecord
  2
04_POINTS
 70
0
 62
7
  6
CONTINUOUS
370
-3
390
F
  0
LAYER
  5
203
100
AcDbSymbolTableRecord
100
AcDbLayerTableRecord
  2
05_CURVES
 70
0
 62
7
  6
CONTINUOUS
370
-3
390
F
  0
LAYER
  5
204
100
AcDbSymbolTableRecord
100
AcDbLayerTableRecord
  2
06_SURFS
 70
0
 62
7
  6
CONTINUOUS
370
-3
390
F
  0
LAYER
  5
205
100
AcDbSymbolTableRecord
100
AcDbLayerTableRecord
  2
07_COSMETICS
 70
0
 62
7
  6
CONTINUOUS
370
-3
390
F
  0
LAYER
  5
206
100
AcDbSymbolTableRecord
100
AcDbLayerTableRecord
  2
10_NOTES
 70
0
 62
7
  6
CONTINUOUS
370
-3
390
F
  0
LAYER
  5
207
100
AcDbSymbolTableRecord
100
AcDbLayerTableRecord
  2
11_NOTES_PUB
 70
0
 62
7
  6
CONTINUOUS
370
-3
390
F
  0
LAYER
  5
208
100
AcDbSymbolTableRecord
100
AcDbLayerTableRecord
  2
13_REF_GTOL
 70
0
 62
7
  6
CONTINUOUS
370
-3
390
F
  0
LAYER
  5
209
100
AcDbSymbolTableRecord
100
AcDbLayerTableRecord
  2
16_MISC
 70
0
 62
7
  6
CONTINUOUS
370
-3
390
F
  0
LAYER
  5
20A
100
AcDbSymbolTableRecord
100
AcDbLayerTableRecord
  2
17_NO_PRINT
 70
0
 62
7
  6
CONTINUOUS
370
-3
390
F
  0
LAYER
  5
20B
100
AcDbSymbolTableRecord
100
AcDbLayerTableRecord
  2
18_DATUM_CAMS_JOINTS
 70
0
 62
7
  6
CONTINUOUS
370
-3
390
F
  0
LAYER
  5
20C
100
AcDbSymbolTableRecord
100
AcDbLayerTableRecord
  2
19_DATUM_FUNCTIONAL
 70
0
 62
7
  6
CONTINUOUS
370
-3
390
F
  0
LAYER
  5
20D
100
AcDbSymbolTableRecord
100
AcDbLayerTableRecord
  2
20_DATUM_KINEMATIC_SCHEME
 70
0
 62
7
  6
CONTINUOUS
370
-3
390
F
  0
ENDTAB
  0
TABLE
  2
STYLE
  5
3
100
AcDbSymbolTable
 70
1
  0
STYLE
  5
11
100
AcDbSymbolTableRecord
100
AcDbTextStyleTableRecord
  2
STANDARD
 70
0
 40
0.0
 41
1.0
 50
0.0
 71
0
 42
0.2
  3
ARIAL.TTF
  4

  0
STYLE
  5
20E
100
AcDbSymbolTableRecord
100
AcDbTextStyleTableRecord
  2
TEXTSTYLE_1
 70
0
 40
0.0
 41
0.8
 50
0.0
 71
0
 42
0.2
  3
gdt
  4

  0
ENDTAB
  0
TABLE
  2
VIEW
  5
6
100
AcDbSymbolTable
 70
0
  0
ENDTAB
  0
TABLE
  2
UCS
  5
7
100
AcDbSymbolTable
 70
0
  0
ENDTAB
  0
TABLE
  2
APPID
  5
9
100
AcDbSymbolTable
 70
1
  0
APPID
  5
20F
100
AcDbSymbolTableRecord
100
AcDbRegAppTableRecord
  2
ACAD
 70
0
  0
ENDTAB
  0
TABLE
  2
BLOCK_RECORD
  5
1
100
AcDbSymbolTable
 70
0
  0
BLOCK_RECORD
  5
210
100
AcDbSymbolTableRecord
100
AcDbBlockTableRecord
  2
*Model_Space
  0
BLOCK_RECORD
  5
211
100
AcDbSymbolTableRecord
100
AcDbBlockTableRecord
  2
*Paper_Space
  0
BLOCK_RECORD
  5
212
100
AcDbSymbolTableRecord
100
AcDbBlockTableRecord
  2
_FILLED
  0
ENDTAB
  0
TABLE
  2
DIMSTYLE
  5
A
100
AcDbSymbolTable
 70
1
100
AcDbDimStyleTable
 71
0
  0
DIMSTYLE
105
213
100
AcDbSymbolTableRecord
100
AcDbDimStyleTableRecord
  2
STANDARD
 70
0
  3

  4

 40
1.0
 41
1.2435722512
 42
1.0
 43
0.38
 44
1.0
 45
0.0
 46
0.0
 47
0.01
 48
0.01
140
1.7410011517
141
0.09
142
0.0
143
25.4
144
1.0
145
0.0
146
1.0
147
0.625
 71
1
 72
0
 73
0
 74
0
 75
0
 76
0
 77
1
 78
8
 79
2
170
0
171
1
172
0
173
0
174
0
175
0
176
0
177
0
178
0
270
2
179
2
271
2
272
2
273
2
274
2
275
0
280
0
281
0
282
0
283
1
284
8
285
0
286
0
287
3
288
0
340
11
278
46
341
212
342
212
343
212
344
212
  0
ENDTAB
  0
ENDSEC
  0
SECTION
  2
BLOCKS
  0
BLOCK
  5
20
100
AcDbEntity
  8
0
100
AcDbBlockBegin
  2
*Model_Space
 70
0
 10
0.0
 20
0.0
 30
0.0
  3
*Model_Space
  1

  0
ENDBLK
  5
21
100
AcDbEntity
  8
0
100
AcDbBlockEnd
  0
BLOCK
  5
1C
100
AcDbEntity
  8
0
100
AcDbBlockBegin
  2
*Paper_Space
 70
0
 10
0.0
 20
0.0
 30
0.0
  3
*Paper_Space
  1

  0
ENDBLK
  5
1D
100
AcDbEntity
  8
0
100
AcDbBlockEnd
  0
BLOCK
  5
214
100
AcDbEntity
  8
0
100
AcDbBlockBegin
  2
_FILLED
 70
64
 10
0.0
 20
0.0
  3
_FILLED
  1

  0
SOLID
  5
215
100
AcDbEntity
  8
0
  6
BYBLOCK
 62
0
100
AcDbTrace
 10
0.0
 20
0.0
 11
-1.0
 21
0.25
 12
-1.0
 22
-0.25
 13
-1.0
 23
-0.25
  0
ENDBLK
  5
216
100
AcDbEntity
  8
0
  6
BYBLOCK
 62
0
100
AcDbBlockEnd
  0
ENDSEC
  0
SECTION
  2
ENTITIES
  0
LINE
  5
217
100
AcDbEntity
  8
0
100
AcDbLine
 62
7
  6
BYLAYER
 10
17.676657644
 20
18.1990195958
 11
37.526657644
 21
18.1990195958
  0
LINE
  5
218
100
AcDbEntity
  8
0
100
AcDbLine
 62
7
  6
BYLAYER
 10
71.326657644
 20
18.1990195958
 11
91.126657644
 21
18.1990195958
  0
LINE
  5
219
100
AcDbEntity
  8
0
100
AcDbLine
 62
7
  6
BYLAYER
 10
47.676657644
 20
22.2990195958
 11
59.676657644
 21
22.2990195958
  0
LINE
  5
21A
100
AcDbEntity
  8
0
100
AcDbLine
 62
7
  6
BYLAYER
 10
91.126657644
 20
22.6990195958
 11
78.126657644
 21
22.6990195958
  0
LINE
  5
21B
100
AcDbEntity
  8
0
100
AcDbLine
 62
7
  6
BYLAYER
 10
29.226657644
 20
22.6990195958
 11
17.676657644
 21
22.6990195958
  0
LINE
  5
21C
100
AcDbEntity
  8
0
100
AcDbLine
 62
7
  6
BYLAYER
 10
59.676657644
 20
23.4490195958
 11
71.326657644
 21
23.4490195958
  0
LINE
  5
21D
100
AcDbEntity
  8
0
100
AcDbLine
 62
7
  6
BYLAYER
 10
36.026657644
 20
22.5990195958
 11
37.526657644
 21
21.732994192
  0
LINE
  5
21E
100
AcDbEntity
  8
0
100
AcDbLine
 62
7
  6
BYLAYER
 10
36.026657644
 20
23.6990195958
 11
47.676657644
 21
23.6990195958
  0
LINE
  5
21F
100
AcDbEntity
  8
0
100
AcDbLine
 62
7
  6
BYLAYER
 10
12.176657644
 20
67.3990195958
 11
12.176657644
 21
31.3990195958
  0
LINE
  5
220
100
AcDbEntity
  8
0
100
AcDbLine
 62
7
  6
BYLAYER
 10
93.676657644
 20
29.8990195958
 11
76.126657644
 21
29.8990195958
  0
LINE
  5
221
100
AcDbEntity
  8
0
100
AcDbLine
 62
7
  6
BYLAYER
 10
13.676657644
 20
29.8990195958
 11
31.226657644
 21
29.8990195958
  0
LINE
  5
222
100
AcDbEntity
  8
0
100
AcDbLine
 62
7
  6
BYLAYER
 10
17.676657644
 20
18.1990195958
 11
17.676657644
 21
22.6990195958
  0
LINE
  5
223
100
AcDbEntity
  8
0
100
AcDbLine
 62
7
  6
BYLAYER
 10
22.176657644
 20
83.2990195958
 11
22.176657644
 21
84.5990195958
  0
LINE
  5
224
100
AcDbEntity
  8
0
100
AcDbLine
 62
7
  6
BYLAYER
 10
23.676657644
 20
22.6990195958
 11
23.676657644
 21
18.1990195958
  0
LINE
  5
225
100
AcDbEntity
  8
0
100
AcDbLine
 62
7
  6
BYLAYER
 10
23.676657644
 20
84.5990195958
 11
23.676657644
 21
88.8990195958
  0
LINE
  5
226
100
AcDbEntity
  8
0
100
AcDbLine
 62
7
  6
BYLAYER
 10
23.776657644
 20
74.4990195958
 11
23.776657644
 21
83.2990195958
  0
LINE
  5
227
100
AcDbEntity
  8
0
100
AcDbLine
 62
7
  6
BYLAYER
 10
26.226657644
 20
18.1990195958
 11
26.226657644
 21
22.6990195958
  0
LINE
  5
228
100
AcDbEntity
  8
0
100
AcDbLine
 62
7
  6
BYLAYER
 10
26.676657644
 20
84.5990195958
 11
26.676657644
 21
89.8990195958
  0
LINE
  5
229
100
AcDbEntity
  8
0
100
AcDbLine
 62
7
  6
BYLAYER
 10
27.726657644
 20
74.4990195958
 11
27.726657644
 21
69.8990195958
  0
LINE
  5
22A
100
AcDbEntity
  8
0
100
AcDbLine
 62
7
  6
BYLAYER
 10
29.676657644
 20
83.2990195958
 11
29.676657644
 21
74.4990195958
  0
LINE
  5
22B
100
AcDbEntity
  8
0
100
AcDbLine
 62
7
  6
BYLAYER
 10
29.776657644
 20
84.5990195958
 11
29.776657644
 21
83.2990195958
  0
LINE
  5
22C
100
AcDbEntity
  8
0
100
AcDbLine
 62
7
  6
BYLAYER
 10
31.176657644
 20
89.8990195958
 11
31.176657644
 21
97.5990195958
  0
LINE
  5
22D
100
AcDbEntity
  8
0
100
AcDbLine
 62
7
  6
BYLAYER
 10
31.226657644
 20
74.4990195958
 11
31.226657644
 21
68.8990195958
  0
LINE
  5
22E
100
AcDbEntity
  8
0
100
AcDbLine
 62
7
  6
BYLAYER
 10
31.226657644
 20
29.8990195958
 11
31.226657644
 21
18.1990195958
  0
LINE
  5
22F
100
AcDbEntity
  8
0
100
AcDbLine
 62
7
  6
BYLAYER
 10
36.026657644
 20
22.5990195958
 11
36.026657644
 21
23.6990195958
  0
LINE
  5
230
100
AcDbEntity
  8
0
100
AcDbLine
 62
7
  6
BYLAYER
 10
37.526657644
 20
21.732994192
 11
37.526657644
 21
18.1990195958
  0
LINE
  5
231
100
AcDbEntity
  8
0
100
AcDbLine
 62
7
  6
BYLAYER
 10
47.676657644
 20
23.6990195958
 11
47.676657644
 21
22.2990195958
  0
LINE
  5
232
100
AcDbEntity
  8
0
100
AcDbLine
 62
7
  6
BYLAYER
 10
48.2454678453
 20
127.9688186293
 11
47.676657644
 21
111.6802256354
  0
LINE
  5
233
100
AcDbEntity
  8
0
100
AcDbLine
 62
7
  6
BYLAYER
 10
93.676657644
 20
68.8990195958
 11
76.126657644
 21
68.8990195958
  0
LINE
  5
234
100
AcDbEntity
  8
0
100
AcDbLine
 62
7
  6
BYLAYER
 10
13.676657644
 20
68.8990195958
 11
31.226657644
 21
68.8990195958
  0
LINE
  5
235
100
AcDbEntity
  8
0
100
AcDbLine
 62
7
  6
BYLAYER
 10
27.726695006
 20
69.8990195958
 11
31.226657644
 21
69.8990195958
  0
LINE
  5
236
100
AcDbEntity
  8
0
100
AcDbLine
 62
7
  6
BYLAYER
 10
76.126657644
 20
69.8990195958
 11
79.626620282
 21
69.8990195958
  0
LINE
  5
237
100
AcDbEntity
  8
0
100
AcDbLine
 62
7
  6
BYLAYER
 10
23.776657644
 20
74.4990195958
 11
83.576657644
 21
74.4990195958
  0
LINE
  5
238
100
AcDbEntity
  8
0
100
AcDbLine
 62
7
  6
BYLAYER
 10
59.676657644
 20
111.6802256354
 11
59.107847442
 21
127.9688186492
  0
LINE
  5
239
100
AcDbEntity
  8
0
100
AcDbLine
 62
7
  6
BYLAYER
 10
59.676657644
 20
22.2990195958
 11
59.676657644
 21
23.4490195958
  0
LINE
  5
23A
100
AcDbEntity
  8
0
100
AcDbLine
 62
7
  6
BYLAYER
 10
22.176657644
 20
83.2990195958
 11
85.176657644
 21
83.2990195958
  0
LINE
  5
23B
100
AcDbEntity
  8
0
100
AcDbLine
 62
7
  6
BYLAYER
 10
85.176657644
 20
84.5990195958
 11
22.176657644
 21
84.5990195958
  0
LINE
  5
23C
100
AcDbEntity
  8
0
100
AcDbLine
 62
7
  6
BYLAYER
 10
71.326657644
 20
23.4490195958
 11
71.326657644
 21
18.1990195958
  0
LINE
  5
23D
100
AcDbEntity
  8
0
100
AcDbLine
 62
7
  6
BYLAYER
 10
83.676657644
 20
88.8990195958
 11
23.676657644
 21
88.8990195958
  0
LINE
  5
23E
100
AcDbEntity
  8
0
100
AcDbLine
 62
7
  6
BYLAYER
 10
24.676657644
 20
89.8990195958
 11
82.676657644
 21
89.8990195958
  0
LINE
  5
23F
100
AcDbEntity
  8
0
100
AcDbLine
 62
7
  6
BYLAYER
 10
76.126657644
 20
74.4990195958
 11
76.126657644
 21
68.8990195958
  0
LINE
  5
240
100
AcDbEntity
  8
0
100
AcDbLine
 62
7
  6
BYLAYER
 10
76.126657644
 20
29.8990195958
 11
76.126657644
 21
18.1990195958
  0
LINE
  5
241
100
AcDbEntity
  8
0
100
AcDbLine
 62
7
  6
BYLAYER
 10
76.176657644
 20
89.8990195958
 11
76.176657644
 21
97.5990195958
  0
LINE
  5
242
100
AcDbEntity
  8
0
100
AcDbLine
 62
7
  6
BYLAYER
 10
76.176657644
 20
97.5990195958
 11
73.9184338087
 21
97.5990195958
  0
LINE
  5
243
100
AcDbEntity
  8
0
100
AcDbLine
 62
7
  6
BYLAYER
 10
33.4348814793
 20
97.5990195958
 11
31.176657644
 21
97.5990195958
  0
LINE
  5
244
100
AcDbEntity
  8
0
100
AcDbLine
 62
7
  6
BYLAYER
 10
77.576657644
 20
83.2990195958
 11
77.576657644
 21
84.5990195958
  0
LINE
  5
245
100
AcDbEntity
  8
0
100
AcDbLine
 62
7
  6
BYLAYER
 10
77.676657644
 20
74.4990195958
 11
77.676657644
 21
83.2990195958
  0
LINE
  5
246
100
AcDbEntity
  8
0
100
AcDbLine
 62
7
  6
BYLAYER
 10
79.626657644
 20
74.4990195958
 11
79.626657644
 21
69.8990195958
  0
LINE
  5
247
100
AcDbEntity
  8
0
100
AcDbLine
 62
7
  6
BYLAYER
 10
80.676657644
 20
84.5990195958
 11
80.676657644
 21
89.8990195958
  0
LINE
  5
248
100
AcDbEntity
  8
0
100
AcDbLine
 62
7
  6
BYLAYER
 10
81.126657644
 20
22.6990195958
 11
81.126657644
 21
18.1990195958
  0
LINE
  5
249
100
AcDbEntity
  8
0
100
AcDbLine
 62
7
  6
BYLAYER
 10
73.6766467007
 20
100.0990195958
 11
71.6693475682
 21
100.0990195958
  0
LINE
  5
24A
100
AcDbEntity
  8
0
100
AcDbLine
 62
7
  6
BYLAYER
 10
35.6839677197
 20
100.0990195958
 11
33.6766685872
 21
100.0990195958
  0
LINE
  5
24B
100
AcDbEntity
  8
0
100
AcDbLine
 62
7
  6
BYLAYER
 10
83.576657644
 20
83.2990195958
 11
83.576657644
 21
74.4990195958
  0
LINE
  5
24C
100
AcDbEntity
  8
0
100
AcDbLine
 62
7
  6
BYLAYER
 10
83.676657644
 20
18.1990195958
 11
83.676657644
 21
22.6990195958
  0
LINE
  5
24D
100
AcDbEntity
  8
0
100
AcDbLine
 62
7
  6
BYLAYER
 10
83.676657644
 20
84.5990195958
 11
83.676657644
 21
88.8990195958
  0
LINE
  5
24E
100
AcDbEntity
  8
0
100
AcDbLine
 62
7
  6
BYLAYER
 10
85.176657644
 20
84.5990195958
 11
85.176657644
 21
83.2990195958
  0
LINE
  5
24F
100
AcDbEntity
  8
0
100
AcDbLine
 62
7
  6
BYLAYER
 10
89.676657644
 20
18.1990195958
 11
89.676657644
 21
22.6990195958
  0
LINE
  5
250
100
AcDbEntity
  8
0
100
AcDbLine
 62
7
  6
BYLAYER
 10
91.126657644
 20
22.6990195958
 11
91.126657644
 21
18.1990195958
  0
LINE
  5
251
100
AcDbEntity
  8
0
100
AcDbLine
 62
7
  6
BYLAYER
 10
95.176657644
 20
31.3990195958
 11
95.176657644
 21
67.3990195958
  0
LINE
  5
252
100
AcDbEntity
  8
0
100
AcDbLine
 62
7
  6
BYLAYER
 10
56.9752739273
 20
127.8990195958
 11
50.3780413613
 21
127.8990195958
  0
LINE
  5
253
100
AcDbEntity
  8
0
100
AcDbLine
 62
7
  6
BYLAYER
 10
57.1090657901
 20
129.8990195958
 11
50.2442494979
 21
129.8990195958
  0
ARC
  5
254
100
AcDbEntity
  8
0
100
AcDbCircle
 62
7
  6
BYLAYER
 10
35.6839677197
 20
112.0990195958
 40
12.0
100
AcDbArc
 50
270.0
 51
358.0
  0
ARC
  5
255
100
AcDbEntity
  8
0
100
AcDbCircle
 62
7
  6
BYLAYER
 10
71.6693475682
 20
112.0990195958
 40
12.0
100
AcDbArc
 50
182.0
 51
270.0
  0
ARC
  5
256
100
AcDbEntity
  8
0
100
AcDbCircle
 62
7
  6
BYLAYER
 10
73.676657644
 20
97.5990195958
 40
2.5
100
AcDbArc
 50
0.0
 51
90.0
  0
ARC
  5
257
100
AcDbEntity
  8
0
100
AcDbCircle
 62
7
  6
BYLAYER
 10
33.676657644
 20
97.5990195958
 40
2.5
100
AcDbArc
 50
90.0
 51
180.0
  0
ARC
  5
258
100
AcDbEntity
  8
0
100
AcDbCircle
 62
7
  6
BYLAYER
 10
29.226657644
 20
24.6990195958
 40
2.0
100
AcDbArc
 50
270.0
 51
360.0
  0
ARC
  5
259
100
AcDbEntity
  8
0
100
AcDbCircle
 62
7
  6
BYLAYER
 10
78.126657644
 20
24.6990195958
 40
2.0
100
AcDbArc
 50
180.0
 51
270.0
  0
ARC
  5
25A
100
AcDbEntity
  8
0
100
AcDbCircle
 62
7
  6
BYLAYER
 10
50.2442494979
 20
127.8990195958
 40
2.0
100
AcDbArc
 50
90.0
 51
177.999999426
  0
ARC
  5
25B
100
AcDbEntity
  8
0
100
AcDbCircle
 62
7
  6
BYLAYER
 10
57.1090751737
 20
127.8990199257
 40
1.999999658
100
AcDbArc
 50
2.0000007968
 51
90.0002688204
  0
ARC
  5
25C
100
AcDbEntity
  8
0
100
AcDbCircle
 62
7
  6
BYLAYER
 10
13.676657644
 20
67.3990195958
 40
1.5
100
AcDbArc
 50
90.0
 51
180.0
  0
ARC
  5
25D
100
AcDbEntity
  8
0
100
AcDbCircle
 62
7
  6
BYLAYER
 10
93.676657644
 20
67.3990195958
 40
1.5
100
AcDbArc
 50
0.0
 51
90.0
  0
ARC
  5
25E
100
AcDbEntity
  8
0
100
AcDbCircle
 62
7
  6
BYLAYER
 10
93.676657644
 20
31.3990195958
 40
1.5
100
AcDbArc
 50
270.0
 51
360.0
  0
ARC
  5
25F
100
AcDbEntity
  8
0
100
AcDbCircle
 62
7
  6
BYLAYER
 10
13.676657644
 20
31.3990195958
 40
1.5
100
AcDbArc
 50
180.0
 51
270.0
  0
ARC
  5
260
100
AcDbEntity
  8
0
100
AcDbCircle
 62
7
  6
BYLAYER
 10
82.676657644
 20
88.8990195958
 40
1.0
100
AcDbArc
 50
0.0
 51
90.0
  0
ARC
  5
261
100
AcDbEntity
  8
0
100
AcDbCircle
 62
7
  6
BYLAYER
 10
24.676657644
 20
88.8990195958
 40
1.0
100
AcDbArc
 50
90.0
 51
180.0
  0
SPLINE
  5
262
100
AcDbEntity
  8
0
100
AcDbSpline
 62
7
  6
BYLAYER
 70
0
 71
3
 72
24
 73
20
 74
0
 42
0.0000001
 43
0.0000001
 44
0.0000000001
 40
0.0
 40
0.0
 40
0.0
 40
0.0
 40
0.0009883168
 40
0.0038766359
 40
0.0087525196
 40
0.0156836522
 40
0.0247354183
 40
0.035972572
 40
0.0494596243
 40
0.0652609731
 40
0.1039299627
 40
0.151824436
 40
0.2086550708
 40
0.2741324239
 40
0.3478238529
 40
0.4287241057
 40
0.607557328
 40
0.8012947604
 40
1.0
 40
1.0
 40
1.0
 40
1.0
 10
47.6766576435
 20
111.680225623
 30
0.0
 10
47.6766339294
 20
111.6795464678
 30
0.0
 10
47.6807149636
 20
111.679641073
 30
0.0
 10
47.6852865166
 20
111.6783009068
 30
0.0
 10
47.6961575172
 20
111.6777113979
 30
0.0
 10
47.7100925021
 20
111.6764481239
 30
0.0
 10
47.7289114762
 20
111.6752386275
 30
0.0
 10
47.752037822
 20
111.6737798711
 30
0.0
 10
47.7798761208
 20
111.6721868137
 30
0.0
 10
47.8265269922
 20
111.6696526514
 30
0.0
 10
47.8968299657
 20
111.6661213547
 30
0.0
 10
47.9953163984
 20
111.6614721452
 30
0.0
 10
48.1122309372
 20
111.656219514
 30
0.0
 10
48.2468749504
 20
111.650404803
 30
0.0
 10
48.3980633479
 20
111.6440914996
 30
0.0
 10
48.6271381283
 20
111.6347830174
 30
0.0
 10
48.938706743
 20
111.6225684781
 30
0.0
 10
49.3312382239
 20
111.6077558325
 30
0.0
 10
49.6009026824
 20
111.597895792
 30
0.0
 10
49.7374443439
 20
111.5929768791
 30
0.0
  0
SPLINE
  5
263
100
AcDbEntity
  8
0
100
AcDbSpline
 62
7
  6
BYLAYER
 70
0
 71
3
 72
14
 73
10
 74
0
 42
0.0000001
 43
0.0000001
 44
0.0000000001
 40
0.0
 40
0.0
 40
0.0
 40
0.0
 40
0.2508039073
 40
0.3835556783
 40
0.5164689068
 40
0.646505922
 40
0.7714528255
 40
0.8893876074
 40
1.0
 40
1.0
 40
1.0
 40
1.0
 10
33.434881479
 20
97.5990195958
 30
0.0
 10
33.434881479
 20
97.9102486857
 30
0.0
 10
33.5157680527
 20
98.3918863435
 30
0.0
 10
33.7888534746
 20
98.9747006192
 30
0.0
 10
34.0782276935
 20
99.3757997275
 30
0.0
 10
34.4386411582
 20
99.7001151356
 30
0.0
 10
34.8413878938
 20
99.9351328224
 30
0.0
 10
35.2623683609
 20
100.0695775377
 30
0.0
 10
35.5467059255
 20
100.0990195958
 30
0.0
 10
35.6839677195
 20
100.0990195958
 30
0.0
  0
SPLINE
  5
264
100
AcDbEntity
  8
0
100
AcDbSpline
 62
7
  6
BYLAYER
 70
0
 71
3
 72
17
 73
13
 74
0
 42
0.0000001
 43
0.0000001
 44
0.0000000001
 40
0.0
 40
0.0
 40
0.0
 40
0.0
 40
0.0749004472
 40
0.1497303291
 40
0.2243966158
 40
0.2987305358
 40
0.3724606051
 40
0.4451915021
 40
0.5853202084
 40
0.7145689134
 40
0.8285677608
 40
1.0
 40
1.0
 40
1.0
 40
1.0
 10
49.737444345
 20
111.5929768936
 30
0.0
 10
49.7142296418
 20
111.0020593642
 30
0.0
 10
49.5861575073
 20
109.8223961494
 30
0.0
 10
49.15570746
 20
108.0984675881
 30
0.0
 10
48.5012887306
 20
106.4512785493
 30
0.0
 10
47.6445357685
 20
104.9102018922
 30
0.0
 10
46.6130429099
 20
103.4993873246
 30
0.0
 10
45.0693311202
 20
101.83913436
 30
0.0
 10
42.9137860841
 20
100.1756173216
 30
0.0
 10
40.19133745
 20
98.8154509778
 30
0.0
 10
37.0519736712
 20
97.8500807787
 30
0.0
 10
34.7884175779
 20
97.5990198433
 30
0.0
 10
33.4348814793
 20
97.5990195958
 30
0.0
  0
SPLINE
  5
265
100
AcDbEntity
  8
0
100
AcDbSpline
 62
7
  6
BYLAYER
 70
0
 71
3
 72
18
 73
14
 74
0
 42
0.0000001
 43
0.0000001
 44
0.0000000001
 40
0.0
 40
0.0
 40
0.0
 40
0.0
 40
0.1894637767
 40
0.3721351345
 40
0.5405912492
 40
0.6888752697
 40
0.7537852163
 40
0.8117102153
 40
0.8621875508
 40
0.9049062363
 40
0.9396531309
 40
0.9665104579
 40
1.0
 40
1.0
 40
1.0
 40
1.0
 10
56.9752719032
 20
127.8990197449
 30
0.0
 10
56.9752720441
 20
128.0289848406
 30
0.0
 10
56.9716231437
 20
128.2842704199
 30
0.0
 10
56.9555272738
 20
128.6548044541
 30
0.0
 10
56.9293592889
 20
128.9964479854
 30
0.0
 10
56.8990093523
 20
129.2565871492
 30
0.0
 10
56.8696385966
 20
129.4402690483
 30
0.0
 10
56.8468984783
 20
129.5569620915
 30
0.0
 10
56.8225661364
 20
129.6578587811
 30
0.0
 10
56.7973379189
 20
129.7417233847
 30
0.0
 10
56.770336785
 20
129.8089120289
 30
0.0
 10
56.7403485808
 20
129.8645564459
 30
0.0
 10
56.7050343357
 20
129.8990194451
 30
0.0
 10
56.6820617569
 20
129.8990195196
 30
0.0
  0
SPLINE
  5
266
100
AcDbEntity
  8
0
100
AcDbSpline
 62
7
  6
BYLAYER
 70
0
 71
3
 72
26
 73
22
 74
0
 42
0.0000001
 43
0.0000001
 44
0.0000000001
 40
0.0
 40
0.0
 40
0.0
 40
0.0
 40
0.0003005834
 40
0.001170698
 40
0.00261863
 40
0.0046440118
 40
0.0104214204
 40
0.0184898643
 40
0.0288351219
 40
0.0414427061
 40
0.056296961
 40
0.0733670194
 40
0.1139855653
 40
0.162958932
 40
0.2199395792
 40
0.2844653464
 40
0.3559863787
 40
0.4339495044
 40
0.6067593442
 40
0.7976288831
 40
1.0
 40
1.0
 40
1.0
 40
1.0
 10
59.1074421711
 20
127.9688087783
 30
0.0
 10
59.1074690119
 20
127.968596723
 30
0.0
 10
59.1061741688
 20
127.9685542402
 30
0.0
 10
59.1047832663
 20
127.9681737504
 30
0.0
 10
59.1014521762
 20
127.9679511342
 30
0.0
 10
59.0950499308
 20
127.9673880541
 30
0.0
 10
59.0836692944
 20
127.9667215124
 30
0.0
 10
59.0665472382
 20
127.9657828402
 30
0.0
 10
59.0444913882
 20
127.9647310477
 30
0.0
 10
59.0176407216
 20
127.9635356524
 30
0.0
 10
58.9859986343
 20
127.9622149973
 30
0.0
 10
58.9344547301
 20
127.9601636425
 30
0.0
 10
58.8586589224
 20
127.957325207
 30
0.0
 10
58.7544961283
 20
127.9536202239
 30
0.0
 10
58.6333372872
 20
127.9494775246
 30
0.0
 10
58.4961492937
 20
127.9449303365
 30
0.0
 10
58.3440444195
 20
127.9400180546
 30
0.0
 10
58.1149727092
 20
127.9327866371
 30
0.0
 10
57.8010642973
 20
127.9231745137
 30
0.0
 10
57.3987199518
 20
127.9111826861
 30
0.0
 10
57.1192002857
 20
127.9030965678
 30
0.0
 10
56.9753503625
 20
127.899019045
 30
0.0
  0
SPLINE
  5
267
100
AcDbEntity
  8
0
100
AcDbSpline
 62
7
  6
BYLAYER
 70
0
 71
3
 72
24
 73
20
 74
0
 42
0.0000001
 43
0.0000001
 44
0.0000000001
 40
0.0
 40
0.0
 40
0.0
 40
0.0
 40
0.0009883172
 40
0.0038766366
 40
0.0087525208
 40
0.0156836537
 40
0.0247354201
 40
0.0359725741
 40
0.0494596268
 40
0.0652609758
 40
0.1039299659
 40
0.1518244395
 40
0.2086550745
 40
0.2741324277
 40
0.3478238565
 40
0.4287241091
 40
0.6075573305
 40
0.8012947617
 40
1.0
 40
1.0
 40
1.0
 40
1.0
 10
59.676657644
 20
111.6802256349
 30
0.0
 10
59.6766813572
 20
111.6795464793
 30
0.0
 10
59.6726003242
 20
111.6796410853
 30
0.0
 10
59.6680287686
 20
111.6783009185
 30
0.0
 10
59.6571577683
 20
111.6777114099
 30
0.0
 10
59.6432227822
 20
111.6764481358
 30
0.0
 10
59.6244038076
 20
111.6752386394
 30
0.0
 10
59.6012774611
 20
111.673779883
 30
0.0
 10
59.5734391617
 20
111.6721868257
 30
0.0
 10
59.5267882896
 20
111.6696526635
 30
0.0
 10
59.4564853155
 20
111.6661213668
 30
0.0
 10
59.3579988821
 20
111.6614721574
 30
0.0
 10
59.241084343
 20
111.6562195264
 30
0.0
 10
59.1064403298
 20
111.6504048156
 30
0.0
 10
58.9552519326
 20
111.6440915124
 30
0.0
 10
58.7261771532
 20
111.6347830305
 30
0.0
 10
58.4146085404
 20
111.6225684916
 30
0.0
 10
58.022077062
 20
111.6077558465
 30
0.0
 10
57.7524126055
 20
111.5978958064
 30
0.0
 10
57.615870945
 20
111.5929768937
 30
0.0
  0
SPLINE
  5
268
100
AcDbEntity
  8
0
100
AcDbSpline
 62
7
  6
BYLAYER
 70
0
 71
3
 72
14
 73
10
 74
0
 42
0.0000001
 43
0.0000001
 44
0.0000000001
 40
0.0
 40
0.0
 40
0.0
 40
0.0
 40
0.1106123923
 40
0.2285471739
 40
0.3534940772
 40
0.4835310923
 40
0.6164443209
 40
0.749196092
 40
1.0
 40
1.0
 40
1.0
 40
1.0
 10
71.6693475067
 20
100.0990195958
 30
0.0
 10
71.8066093001
 20
100.0990195958
 30
0.0
 10
72.0909468634
 20
100.0695775377
 30
0.0
 10
72.5119273286
 20
99.9351328227
 30
0.0
 10
72.9146740626
 20
99.7001151362
 30
0.0
 10
73.2750875258
 20
99.3757997282
 30
0.0
 10
73.5644617435
 20
98.9747006201
 30
0.0
 10
73.8375471643
 20
98.3918863439
 30
0.0
 10
73.9184337374
 20
97.9102486859
 30
0.0
 10
73.9184337372
 20
97.5990195958
 30
0.0
  0
SPLINE
  5
269
100
AcDbEntity
  8
0
100
AcDbSpline
 62
7
  6
BYLAYER
 70
0
 71
3
 72
26
 73
22
 74
0
 42
0.0000001
 43
0.0000001
 44
0.0000000001
 40
0.0
 40
0.0
 40
0.0
 40
0.0
 40
0.2023659787
 40
0.393232034
 40
0.5660382195
 40
0.6439999716
 40
0.7155200187
 40
0.7800453656
 40
0.8370263256
 40
0.8860005716
 40
0.9266205873
 40
0.9436916336
 40
0.95854706
 40
0.9711559871
 40
0.9815027481
 40
0.9895728483
 40
0.9953520582
 40
0.9973783921
 40
0.9988273085
 40
0.9996984346
 40
1.0
 40
1.0
 40
1.0
 40
1.0
 10
50.377973215
 20
127.8990125319
 30
0.0
 10
50.234123434
 20
127.9030902816
 30
0.0
 10
49.9546030724
 20
127.9111767404
 30
0.0
 10
49.5522576291
 20
127.9231690224
 30
0.0
 10
49.2383476001
 20
127.9327814284
 30
0.0
 10
49.0092745691
 20
127.9400130693
 30
0.0
 10
48.8571679567
 20
127.944925564
 30
0.0
 10
48.7199773904
 20
127.9494729812
 30
0.0
 10
48.598815043
 20
127.9536158961
 30
0.0
 10
48.4946478091
 20
127.9573210719
 30
0.0
 10
48.4188477841
 20
127.9601596695
 30
0.0
 10
48.3673000299
 20
127.9622111844
 30
0.0
 10
48.335654707
 20
127.9635319687
 30
0.0
 10
48.3088004529
 20
127.9647275567
 30
0.0
 10
48.2867410777
 20
127.9657794321
 30
0.0
 10
48.2696145361
 20
127.966718512
 30
0.0
 10
48.2582316005
 20
127.9673847095
 30
0.0
 10
48.2518250674
 20
127.9679485514
 30
0.0
 10
48.2484941269
 20
127.9681701227
 30
0.0
 10
48.2470972373
 20
127.9685528282
 30
0.0
 10
48.2458043753
 20
127.9685929984
 30
0.0
 10
48.2458291706
 20
127.9688060109
 30
0.0
  0
SPLINE
  5
26A
100
AcDbEntity
  8
0
100
AcDbSpline
 62
7
  6
BYLAYER
 70
0
 71
3
 72
18
 73
14
 74
0
 42
0.0000001
 43
0.0000001
 44
0.0000000001
 40
0.0
 40
0.0
 40
0.0
 40
0.0
 40
0.0334784629
 40
0.0603198145
 40
0.0950414227
 40
0.137720506
 40
0.1881642217
 40
0.2460722713
 40
0.3109544966
 40
0.4592219187
 40
0.6277416861
 40
0.8105076231
 40
1.0
 40
1.0
 40
1.0
 40
1.0
 10
50.6712532054
 20
129.8990195896
 30
0.0
 10
50.6482881323
 20
129.8990196065
 30
0.0
 10
50.6129739959
 20
129.8645953294
 30
0.0
 10
50.583001645
 20
129.8089761396
 30
0.0
 10
50.556020762
 20
129.741841643
 30
0.0
 10
50.5307961481
 20
129.6580455006
 30
0.0
 10
50.5064701959
 20
129.5572104308
 30
0.0
 10
50.4837388736
 20
129.4405699784
 30
0.0
 10
50.4543449497
 20
129.2569336672
 30
0.0
 10
50.4239886267
 20
128.9967802625
 30
0.0
 10
50.3977981352
 20
128.6550397575
 30
0.0
 10
50.3816982668
 20
128.284375916
 30
0.0
 10
50.3780426443
 20
128.0290049214
 30
0.0
 10
50.3780428461
 20
127.8990196742
 30
0.0
  0
SPLINE
  5
26B
100
AcDbEntity
  8
0
100
AcDbSpline
 62
7
  6
BYLAYER
 70
0
 71
3
 72
17
 73
13
 74
0
 42
0.0000001
 43
0.0000001
 44
0.0000000001
 40
0.0
 40
0.0
 40
0.0
 40
0.0
 40
0.0749002937
 40
0.1497301481
 40
0.2243965061
 40
0.2987305062
 40
0.3724606044
 40
0.4451915116
 40
0.5853202914
 40
0.7145689783
 40
0.8285678125
 40
1.0
 40
1.0
 40
1.0
 40
1.0
 10
57.615870943
 20
111.5929768936
 30
0.0
 10
57.6390855775
 20
111.0020606048
 30
0.0
 10
57.7671601246
 20
109.8223991168
 30
0.0
 10
58.1976091084
 20
108.0984715891
 30
0.0
 10
58.8520255753
 20
106.4512804548
 30
0.0
 10
59.7087837745
 20
104.9102049793
 30
0.0
 10
60.740277684
 20
103.4993906389
 30
0.0
 10
62.2839828562
 20
101.8391305214
 30
0.0
 10
64.4395293591
 20
100.1756130991
 30
0.0
 10
67.1619800388
 20
98.8154511182
 30
0.0
 10
70.3013425577
 20
97.8500802283
 30
0.0
 10
72.5648981892
 20
97.5990192495
 30
0.0
 10
73.9184338087
 20
97.5990195958
 30
0.0
  0
SPLINE
  5
26C
100
AcDbEntity
  8
0
100
AcDbSpline
 62
7
  6
BYLAYER
 70
0
 71
3
 72
8
 73
4
 74
0
 42
0.0000001
 43
0.0000001
 44
0.0000000001
 40
0.0
 40
0.0
 40
0.0
 40
0.0
 40
1.0
 40
1.0
 40
1.0
 40
1.0
 10
56.9752739273
 20
127.8990195958
 30
0.0
 10
57.1890653907
 20
122.4636822145
 30
0.0
 10
57.4026335981
 20
117.0283360421
 30
0.0
 10
57.615870943
 20
111.5929768936
 30
0.0
  0
SPLINE
  5
26D
100
AcDbEntity
  8
0
100
AcDbSpline
 62
7
  6
BYLAYER
 70
0
 71
3
 72
8
 73
4
 74
0
 42
0.0000001
 43
0.0000001
 44
0.0000000001
 40
0.0
 40
0.0
 40
0.0
 40
0.0
 40
1.0
 40
1.0
 40
1.0
 40
1.0
 10
49.737444345
 20
111.5929768936
 30
0.0
 10
49.9506816115
 20
117.0283360452
 30
0.0
 10
50.1642498977
 20
122.4636822145
 30
0.0
 10
50.3780413613
 20
127.8990195958
 30
0.0
  0
ENDSEC
  0
SECTION
  2
OBJECTS
  0
DICTIONARY
  5
C
100
AcDbDictionary
280
0
281
1
  3
ACAD_GROUP
350
D
  3
ACAD_MLINESTYLE
350
17
  3
ACAD_LAYOUT
350
1A
  3
ACAD_PLOTSETTINGS
350
19
  3
ACAD_PLOTSTYLENAME
350
E
  0
DICTIONARY
  5
D
102
{ACAD_REACTORS
330
C
102
}
100
AcDbDictionary
280
0
281
1
  0
ACDBDICTIONARYWDFLT
  5
E
102
{ACAD_REACTORS
330
C
102
}
100
AcDbDictionary
281
1
  3
Normal
350
F
100
AcDbDictionaryWithDefault
340
F
  0
DICTIONARY
  5
17
102
{ACAD_REACTORS
330
C
102
}
100
AcDbDictionary
280
0
281
1
  3
Standard
350
18
  0
DICTIONARY
  5
19
102
{ACAD_REACTORS
330
C
102
}
100
AcDbDictionary
281
1
  0
DICTIONARY
  5
1A
102
{ACAD_REACTORS
330
C
102
}
100
AcDbDictionary
281
1
  3
Model
350
26E
  3
Layout1
350
26F
  0
ACDBPLACEHOLDER
  5
F
102
{ACAD_REACTORS
330
E
102
}
  0
MLINESTYLE
  5
18
102
{ACAD_REACTORS
330
17
102
}
100
AcDbMlineStyle
  2
STANDARD
 70
0
  3

 62
256
 51
90.0
 52
90.0
 71
2
 49
0.5
 62
256
  6
BYLAYER
 49
-0.5
 62
256
  6
BYLAYER
  0
LAYOUT
  5
26E
102
{ACAD_REACTORS
330
1A
102
}
100
AcDbPlotSettings
  1

  2
none_device
  4

  6

 40
0.0
 41
0.0
 42
0.0
 43
0.0
 44
210.0
 45
297.0
 46
0.0
 47
0.0
 48
0.0
 49
0.0
140
0.0
141
0.0
142
1.0
143
1.0
 70
1024
 72
1
 73
0
 74
0
  7

 75
0
147
1.0
148
0.0
149
0.0
100
AcDbLayout
  1
Model
 70
0
 71
0
 10
0.0
 20
0.0
 11
210.0
 21
297.0
 12
0.0
 22
0.0
 32
0.0
 14
0.0
 24
0.0
 34
0.0
 15
0.0
 25
0.0
 35
0.0
146
0.0
 13
0.0
 23
0.0
 33
0.0
 16
1.0
 26
0.0
 36
0.0
 17
0.0
 27
1.0
 37
0.0
 76
0
330
210
345
0
346
0
  0
LAYOUT
  5
26F
102
{ACAD_REACTORS
330
1A
102
}
100
AcDbPlotSettings
  1

  2
none_device
  4

  6

 40
0.0
 41
0.0
 42
0.0
 43
0.0
 44
210.0
 45
297.0
 46
0.0
 47
0.0
 48
0.0
 49
0.0
140
0.0
141
0.0
142
1.0
143
1.0
 70
0
 72
1
 73
0
 74
0
  7

 75
0
147
1.0
148
0.0
149
0.0
100
AcDbLayout
  1
Layout1
 70
0
 71
1
 10
0.0
 20
0.0
 11
210.0
 21
297.0
 12
0.0
 22
0.0
 32
0.0
 14
0.0
 24
0.0
 34
0.0
 15
0.0
 25
0.0
 35
0.0
146
0.0
 13
0.0
 23
0.0
 33
0.0
 16
1.0
 26
0.0
 36
0.0
 17
0.0
 27
1.0
 37
0.0
 76
0
330
211
345
0
346
0
  0
ENDSEC
  0
EOF
