999
DXF file: C:\Users\sesa63760\Dev\_Creo\CAD\MCADPD0005305_3D-CAD\drw0001_1.dxf
999
Pro/ENGINEER 2019471 by Parametric Technology Corporation
  0
SECTION
  2
HEADER
  9
$ACADVER
  1
AC1024
  9
$DWGCODEPAGE
  3
ANSI_1252
  9
$EXTMAX
 10
109.8100891885
 20
155.3028404238
 30
0.0
  9
$EXTMIN
 10
0.0
 20
0.0
 30
0.0
  9
$LIMMIN
 10
0.0
 20
0.0
  9
$LIMMAX
 10
109.8100891885
 20
155.3028404238
  9
$VIEWCTR
 10
54.9050445943
 20
77.6514202119
  9
$VIEWSIZE
 40
155.3028404238
  9
$CLAYER
  8
0
  9
$LTSCALE
 40
10.1234444128
  9
$CELTYPE
  6
BYLAYER
  9
$DIMSCALE
 40
1.0
  9
$DIMASZ
 40
1.3072629665
  9
$DIMEXO
 40
1.0
  9
$DIMDLI
 40
6.9943797761
  9
$DIMEXE
 40
1.0
  9
$DIMCEN
 40
1.6565636312
  9
$DIMLFAC
 40
1.0
  9
$DIMBLK
  1
_FILLED
  9
$DIMALT
 70
0
  9
$DIMALTF
 40
0.0393700787
  9
$DIMTXT
 40
1.8301681531
  9
$DIMTOL
 70
1
  9
$DIMLIM
 70
0
  9
$DIMTFAC
 40
1.0
  9
$DIMTP
 40
0.01
  9
$DIMTM
 40
0.01
  9
$DIMGAP
 40
0.625
  9
$DIMDSEP
 70
46
  9
$AUNITS
 70
0
  9
$PDMODE
 70
3
  9
$PDSIZE
 40
0.3125
  9
$HANDSEED
  5
373
  9
$TILEMODE
 70
1
  9
$MEASUREMENT
 70
1
  9
$INSUNITS
 70
4
  0
ENDSEC
  0
SECTION
  2
CLASSES
  0
CLASS
  1
ACDBDICTIONARYWDFLT
  2
AcDbDictionaryWithDefault
  3
AutoCAD 2000
 90
0
 91
1
280
0
281
0
  0
CLASS
  1
ACDBPLACEHOLDER
  2
AcDbPlaceHolder
  3
AutoCAD 2000
 90
0
 91
1
280
0
281
0
  0
CLASS
  1
LAYOUT
  2
AcDbLayout
  3
AutoCAD 2000
 90
0
 91
0
280
0
281
0
  0
ENDSEC
  0
SECTION
  2
TABLES
  0
TABLE
  2
VPORT
  5
8
100
AcDbSymbolTable
 70
2
  0
VPORT
  5
1F4
100
AcDbSymbolTableRecord
100
AcDbViewportTableRecord
  2
*ACTIVE
 70
0
 10
0.0
 20
0.0
 11
1.0
 21
1.0
 12
54.9050445943
 22
77.6514202119
 13
0.0
 23
0.0
 14
1.0
 24
1.0
 15
0.0
 25
0.0
 16
0.0
 26
0.0
 36
1.0
 17
0.0
 27
0.0
 37
0.0
 40
155.3028404238
 41
0.7070707071
 42
50.0
 43
0.0
 44
0.0
 50
0.0
 51
0.0
 71
0
 72
100
 73
1
 74
1
 75
0
 76
0
 77
0
 78
0
  0
ENDTAB
  0
TABLE
  2
LTYPE
  5
5
100
AcDbSymbolTable
 70
6
  0
LTYPE
  5
14
100
AcDbSymbolTableRecord
100
AcDbLinetypeTableRecord
  2
BYBLOCK
 70
0
  3

 72
65
 73
0
 40
0.0
  0
LTYPE
  5
15
100
AcDbSymbolTableRecord
100
AcDbLinetypeTableRecord
  2
BYLAYER
 70
0
  3

 72
65
 73
0
 40
0.0
  0
LTYPE
  5
16
100
AcDbSymbolTableRecord
100
AcDbLinetypeTableRecord
  2
CONTINUOUS
 70
64
  3
Solid line
 72
65
 73
0
 40
0.0
  0
LTYPE
  5
1F5
100
AcDbSymbolTableRecord
100
AcDbLinetypeTableRecord
  2
CENTER
 70
64
  3
____ _ ____ _ ____ _ ____ _ ____ _ ____ _ ____
 72
65
 73
4
 40
0.6
 49
0.375
 74
0
 49
-0.075
 74
0
 49
0.075
 74
0
 49
-0.075
 74
0
  0
LTYPE
  5
1F6
100
AcDbSymbolTableRecord
100
AcDbLinetypeTableRecord
  2
HIDDEN
 70
64
  3
- - - - - - - - - - - - - - - - - - - -
 72
65
 73
2
 40
0.2
 49
0.1
 74
0
 49
-0.1
 74
0
  0
LTYPE
  5
1F7
100
AcDbSymbolTableRecord
100
AcDbLinetypeTableRecord
  2
PHANTOM
 70
64
  3
_____ _ _ _____ _ _ _____ _ _ _____
 72
65
 73
6
 40
0.8
 49
0.45
 74
0
 49
-0.05
 74
0
 49
0.1
 74
0
 49
-0.05
 74
0
 49
0.1
 74
0
 49
-0.05
 74
0
  0
LTYPE
  5
1F8
100
AcDbSymbolTableRecord
100
AcDbLinetypeTableRecord
  2
DOT
 70
64
  3
. . . . . . . . . . . . . . . . . . . .
 72
65
 73
2
 40
0.2
 49
0.1
 74
0
 49
-0.1
 74
0
  0
LTYPE
  5
1F9
100
AcDbSymbolTableRecord
100
AcDbLinetypeTableRecord
  2
DASHED
 70
64
  3
- - - - - - - - - - - - - - - - - - - -
 72
65
 73
2
 40
0.2
 49
0.1
 74
0
 49
-0.1
 74
0
  0
ENDTAB
  0
TABLE
  2
LAYER
  5
2
100
AcDbSymbolTable
 70
36
  0
LAYER
  5
10
100
AcDbSymbolTableRecord
100
AcDbLayerTableRecord
  2
0
 70
0
 62
7
  6
CONTINUOUS
370
-3
390
F
  0
LAYER
  5
1FA
100
AcDbSymbolTableRecord
100
AcDbLayerTableRecord
  2
DEFAULT_1
 70
0
 62
7
  6
CENTER
370
-3
390
F
  0
LAYER
  5
1FB
100
AcDbSymbolTableRecord
100
AcDbLayerTableRecord
  2
DEFAULT_2
 70
0
 62
7
  6
HIDDEN
370
-3
390
F
  0
LAYER
  5
1FC
100
AcDbSymbolTableRecord
100
AcDbLayerTableRecord
  2
DEFAULT_3
 70
0
 62
7
  6
PHANTOM
370
-3
390
F
  0
LAYER
  5
1FD
100
AcDbSymbolTableRecord
100
AcDbLayerTableRecord
  2
00_COMPONENTS
 70
0
 62
7
  6
CONTINUOUS
370
-3
390
F
  0
LAYER
  5
1FE
100
AcDbSymbolTableRecord
100
AcDbLayerTableRecord
  2
01_1_DEFAULT_DATUMS
 70
0
 62
7
  6
CONTINUOUS
370
-3
390
F
  0
LAYER
  5
1FF
100
AcDbSymbolTableRecord
100
AcDbLayerTableRecord
  2
01_PLANES
 70
0
 62
7
  6
CONTINUOUS
370
-3
390
F
  0
LAYER
  5
200
100
AcDbSymbolTableRecord
100
AcDbLayerTableRecord
  2
02_COORD_SYS
 70
0
 62
7
  6
CONTINUOUS
370
-3
390
F
  0
LAYER
  5
201
100
AcDbSymbolTableRecord
100
AcDbLayerTableRecord
  2
03_AXES
 70
0
 62
7
  6
CONTINUOUS
370
-3
390
F
  0
LAYER
  5
202
100
AcDbSymbolTableRecord
100
AcDbLayerTableRecord
  2
04_POINTS
 70
0
 62
7
  6
CONTINUOUS
370
-3
390
F
  0
LAYER
  5
203
100
AcDbSymbolTableRecord
100
AcDbLayerTableRecord
  2
05_CURVES
 70
0
 62
7
  6
CONTINUOUS
370
-3
390
F
  0
LAYER
  5
204
100
AcDbSymbolTableRecord
100
AcDbLayerTableRecord
  2
06_SURFS
 70
0
 62
7
  6
CONTINUOUS
370
-3
390
F
  0
LAYER
  5
205
100
AcDbSymbolTableRecord
100
AcDbLayerTableRecord
  2
07_COSMETICS
 70
0
 62
7
  6
CONTINUOUS
370
-3
390
F
  0
LAYER
  5
206
100
AcDbSymbolTableRecord
100
AcDbLayerTableRecord
  2
10_NOTES
 70
0
 62
7
  6
CONTINUOUS
370
-3
390
F
  0
LAYER
  5
207
100
AcDbSymbolTableRecord
100
AcDbLayerTableRecord
  2
11_NOTES_PUB
 70
0
 62
7
  6
CONTINUOUS
370
-3
390
F
  0
LAYER
  5
208
100
AcDbSymbolTableRecord
100
AcDbLayerTableRecord
  2
13_REF_GTOL
 70
0
 62
7
  6
CONTINUOUS
370
-3
390
F
  0
LAYER
  5
209
100
AcDbSymbolTableRecord
100
AcDbLayerTableRecord
  2
16_MISC
 70
0
 62
7
  6
CONTINUOUS
370
-3
390
F
  0
LAYER
  5
20A
100
AcDbSymbolTableRecord
100
AcDbLayerTableRecord
  2
17_NO_PRINT
 70
0
 62
7
  6
CONTINUOUS
370
-3
390
F
  0
LAYER
  5
20B
100
AcDbSymbolTableRecord
100
AcDbLayerTableRecord
  2
18_DATUM_CAMS_JOINTS
 70
0
 62
7
  6
CONTINUOUS
370
-3
390
F
  0
LAYER
  5
20C
100
AcDbSymbolTableRecord
100
AcDbLayerTableRecord
  2
19_DATUM_FUNCTIONAL
 70
0
 62
7
  6
CONTINUOUS
370
-3
390
F
  0
LAYER
  5
20D
100
AcDbSymbolTableRecord
100
AcDbLayerTableRecord
  2
20_DATUM_KINEMATIC_SCHEME
 70
0
 62
7
  6
CONTINUOUS
370
-3
390
F
  0
ENDTAB
  0
TABLE
  2
STYLE
  5
3
100
AcDbSymbolTable
 70
1
  0
STYLE
  5
11
100
AcDbSymbolTableRecord
100
AcDbTextStyleTableRecord
  2
STANDARD
 70
0
 40
0.0
 41
1.0
 50
0.0
 71
0
 42
0.2
  3
ARIAL.TTF
  4

  0
STYLE
  5
20E
100
AcDbSymbolTableRecord
100
AcDbTextStyleTableRecord
  2
TEXTSTYLE_1
 70
0
 40
0.0
 41
0.8
 50
0.0
 71
0
 42
0.2
  3
gdt
  4

  0
ENDTAB
  0
TABLE
  2
VIEW
  5
6
100
AcDbSymbolTable
 70
0
  0
ENDTAB
  0
TABLE
  2
UCS
  5
7
100
AcDbSymbolTable
 70
0
  0
ENDTAB
  0
TABLE
  2
APPID
  5
9
100
AcDbSymbolTable
 70
1
  0
APPID
  5
20F
100
AcDbSymbolTableRecord
100
AcDbRegAppTableRecord
  2
ACAD
 70
0
  0
ENDTAB
  0
TABLE
  2
BLOCK_RECORD
  5
1
100
AcDbSymbolTable
 70
0
  0
BLOCK_RECORD
  5
210
100
AcDbSymbolTableRecord
100
AcDbBlockTableRecord
  2
*Model_Space
  0
BLOCK_RECORD
  5
211
100
AcDbSymbolTableRecord
100
AcDbBlockTableRecord
  2
*Paper_Space
  0
BLOCK_RECORD
  5
212
100
AcDbSymbolTableRecord
100
AcDbBlockTableRecord
  2
_FILLED
  0
ENDTAB
  0
TABLE
  2
DIMSTYLE
  5
A
100
AcDbSymbolTable
 70
1
100
AcDbDimStyleTable
 71
0
  0
DIMSTYLE
105
213
100
AcDbSymbolTableRecord
100
AcDbDimStyleTableRecord
  2
STANDARD
 70
0
  3

  4

 40
1.0
 41
1.3072629665
 42
1.0
 43
0.38
 44
1.0
 45
0.0
 46
0.0
 47
0.01
 48
0.01
140
1.8301681531
141
0.09
142
0.0
143
25.4
144
1.0
145
0.0
146
1.0
147
0.625
 71
1
 72
0
 73
0
 74
0
 75
0
 76
0
 77
1
 78
8
 79
2
170
0
171
1
172
0
173
0
174
0
175
0
176
0
177
0
178
0
270
2
179
2
271
2
272
2
273
2
274
2
275
0
280
0
281
0
282
0
283
1
284
8
285
0
286
0
287
3
288
0
340
11
278
46
341
212
342
212
343
212
344
212
  0
ENDTAB
  0
ENDSEC
  0
SECTION
  2
BLOCKS
  0
BLOCK
  5
20
100
AcDbEntity
  8
0
100
AcDbBlockBegin
  2
*Model_Space
 70
0
 10
0.0
 20
0.0
 30
0.0
  3
*Model_Space
  1

  0
ENDBLK
  5
21
100
AcDbEntity
  8
0
100
AcDbBlockEnd
  0
BLOCK
  5
1C
100
AcDbEntity
  8
0
100
AcDbBlockBegin
  2
*Paper_Space
 70
0
 10
0.0
 20
0.0
 30
0.0
  3
*Paper_Space
  1

  0
ENDBLK
  5
1D
100
AcDbEntity
  8
0
100
AcDbBlockEnd
  0
BLOCK
  5
214
100
AcDbEntity
  8
0
100
AcDbBlockBegin
  2
_FILLED
 70
64
 10
0.0
 20
0.0
  3
_FILLED
  1

  0
SOLID
  5
215
100
AcDbEntity
  8
0
  6
BYBLOCK
 62
0
100
AcDbTrace
 10
0.0
 20
0.0
 11
-1.0
 21
0.25
 12
-1.0
 22
-0.25
 13
-1.0
 23
-0.25
  0
ENDBLK
  5
216
100
AcDbEntity
  8
0
  6
BYBLOCK
 62
0
100
AcDbBlockEnd
  0
ENDSEC
  0
SECTION
  2
ENTITIES
  0
LINE
  5
217
100
AcDbEntity
  8
0
100
AcDbLine
 62
7
  6
BYLAYER
 10
59.7792986886
 20
18.4474598907
 11
64.313939903
 21
19.5477929602
  0
LINE
  5
218
100
AcDbEntity
  8
0
100
AcDbLine
 62
7
  6
BYLAYER
 10
65.8532441955
 20
143.342900872
 11
61.758145188
 21
140.9786084706
  0
LINE
  5
219
100
AcDbEntity
  8
0
100
AcDbLine
 62
7
  6
BYLAYER
 10
61.4753036531
 20
140.815310809
 11
38.0055595059
 21
127.2651285915
  0
LINE
  5
21A
100
AcDbEntity
  8
0
100
AcDbLine
 62
7
  6
BYLAYER
 10
66.8532397186
 20
143.243852314
 11
62.7581407111
 21
140.8795599126
  0
LINE
  5
21B
100
AcDbEntity
  8
0
100
AcDbLine
 62
7
  6
BYLAYER
 10
62.4752991762
 20
140.716262251
 11
39.0055550291
 21
127.1660800335
  0
LINE
  5
21C
100
AcDbEntity
  8
0
100
AcDbLine
 62
7
  6
BYLAYER
 10
59.4331472071
 20
12.322845813
 11
53.283075883
 21
15.8735108208
  0
LINE
  5
21D
100
AcDbEntity
  8
0
100
AcDbLine
 62
7
  6
BYLAYER
 10
29.3827671731
 20
29.6720483236
 11
26.0593514649
 21
31.5907798698
  0
LINE
  5
21E
100
AcDbEntity
  8
0
100
AcDbLine
 62
7
  6
BYLAYER
 10
58.5863988216
 20
16.2410153138
 11
59.4331472071
 21
15.752155965
  0
LINE
  5
21F
100
AcDbEntity
  8
0
100
AcDbLine
 62
7
  6
BYLAYER
 10
28.3221025853
 20
34.5302220244
 11
37.7266619298
 21
29.1006199893
  0
LINE
  5
220
100
AcDbEntity
  8
0
100
AcDbLine
 62
7
  6
BYLAYER
 10
44.0906494561
 20
25.4264531986
 11
53.283075883
 21
20.1193233898
  0
LINE
  5
221
100
AcDbEntity
  8
0
100
AcDbLine
 62
7
  6
BYLAYER
 10
28.3221025853
 20
33.7137196073
 11
29.3827671731
 21
32.7747575086
  0
LINE
  5
222
100
AcDbEntity
  8
0
100
AcDbLine
 62
7
  6
BYLAYER
 10
42.6056937152
 20
127.5299832196
 11
63.960229599
 21
139.8589566665
  0
LINE
  5
223
100
AcDbEntity
  8
0
100
AcDbLine
 62
7
  6
BYLAYER
 10
64.384493079
 20
139.9406061772
 11
42.7471156602
 21
127.4483350687
  0
LINE
  5
224
100
AcDbEntity
  8
0
100
AcDbLine
 62
7
  6
BYLAYER
 10
45.1512887257
 20
126.0603165033
 11
66.7886661445
 21
138.5525876118
  0
LINE
  5
225
100
AcDbEntity
  8
0
100
AcDbLine
 62
7
  6
BYLAYER
 10
66.6472465546
 20
138.3076417993
 11
45.2927106707
 21
125.9786683524
  0
LINE
  5
226
100
AcDbEntity
  8
0
100
AcDbLine
 62
7
  6
BYLAYER
 10
37.7266619298
 20
29.3047455936
 11
44.0906494561
 21
25.6305788029
  0
LINE
  5
227
100
AcDbEntity
  8
0
100
AcDbLine
 62
7
  6
BYLAYER
 10
60.1352057057
 20
16.5715537351
 11
59.6470545774
 21
16.8533815446
  0
LINE
  5
228
100
AcDbEntity
  8
0
100
AcDbLine
 62
7
  6
BYLAYER
 10
14.5740700907
 20
100.0953122709
 11
14.5740700907
 21
96.5843518772
  0
LINE
  5
229
100
AcDbEntity
  8
0
100
AcDbLine
 62
7
  6
BYLAYER
 10
44.6624328302
 20
123.9001539973
 11
68.1321769774
 21
137.4503362148
  0
LINE
  5
22A
100
AcDbEntity
  8
0
100
AcDbLine
 62
7
  6
BYLAYER
 10
68.4150185123
 20
137.6136338764
 11
72.5101175198
 21
139.9779262778
  0
LINE
  5
22B
100
AcDbEntity
  8
0
100
AcDbLine
 62
7
  6
BYLAYER
 10
73.9243369688
 20
137.5284399338
 11
46.0766522812
 21
121.4506676544
  0
LINE
  5
22C
100
AcDbEntity
  8
0
100
AcDbLine
 62
7
  6
BYLAYER
 10
35.6647489577
 20
113.3275836695
 11
15.6598528788
 21
101.7778204761
  0
LINE
  5
22D
100
AcDbEntity
  8
0
100
AcDbLine
 62
7
  6
BYLAYER
 10
57.1721793713
 20
26.7738755867
 11
55.757959921
 21
27.5903570957
  0
LINE
  5
22E
100
AcDbEntity
  8
0
100
AcDbLine
 62
7
  6
BYLAYER
 10
26.0593514649
 20
44.7364687856
 11
24.6451320146
 21
45.5529502946
  0
LINE
  5
22F
100
AcDbEntity
  8
0
100
AcDbLine
 62
7
  6
BYLAYER
 10
15.4527585791
 20
95.3596194156
 11
15.4527585823
 21
98.8705798074
  0
LINE
  5
230
100
AcDbEntity
  8
0
100
AcDbLine
 62
7
  6
BYLAYER
 10
18.1267107778
 20
80.7442151829
 11
18.1267107778
 21
82.2139195338
  0
LINE
  5
231
100
AcDbEntity
  8
0
100
AcDbLine
 62
7
  6
BYLAYER
 10
18.8167107778
 20
79.628852146
 11
18.8167107778
 21
77.4782055144
  0
LINE
  5
232
100
AcDbEntity
  8
0
100
AcDbLine
 62
7
  6
BYLAYER
 10
34.7233899518
 20
112.2773030142
 11
34.7240212965
 21
112.2783512303
  0
LINE
  5
233
100
AcDbEntity
  8
0
100
AcDbLine
 62
7
  6
BYLAYER
 10
36.8591098916
 20
114.6601402994
 11
34.7233899518
 21
112.2773030142
  0
LINE
  5
234
100
AcDbEntity
  8
0
100
AcDbLine
 62
7
  6
BYLAYER
 10
35.0365514597
 20
112.6266994418
 11
16.1598506404
 21
101.728296197
  0
LINE
  5
235
100
AcDbEntity
  8
0
100
AcDbLine
 62
7
  6
BYLAYER
 10
21.3867826897
 20
80.0980369111
 11
21.3867826897
 21
78.6283325603
  0
LINE
  5
236
100
AcDbEntity
  8
0
100
AcDbLine
 62
7
  6
BYLAYER
 10
24.6451320146
 20
45.5529502946
 11
24.6451320146
 21
60.9848459784
  0
LINE
  5
237
100
AcDbEntity
  8
0
100
AcDbLine
 62
7
  6
BYLAYER
 10
24.8167107778
 20
78.3960291474
 11
24.8167107778
 21
77.4782055144
  0
LWPOLYLINE
  5
238
100
AcDbEntity
  8
0
100
AcDbPolyline
 62
7
  6
BYLAYER
 90
3
 70
0
 10
34.7239800487
 20
112.2782828064
 10
33.3242688932
 20
108.5468231021
 10
33.2578386639
 20
107.6261630233
  0
LINE
  5
239
100
AcDbEntity
  8
0
100
AcDbLine
 62
7
  6
BYLAYER
 10
46.0766522805
 20
108.5499294634
 11
73.9243369701
 21
124.627701744
  0
LINE
  5
23A
100
AcDbEntity
  8
0
100
AcDbLine
 62
7
  6
BYLAYER
 10
26.0593514649
 20
44.7364687856
 11
26.0593514649
 21
31.5907798698
  0
LINE
  5
23B
100
AcDbEntity
  8
0
100
AcDbLine
 62
7
  6
BYLAYER
 10
26.0593514649
 20
60.1683644693
 11
26.0593514649
 21
78.3118671285
  0
LINE
  5
23C
100
AcDbEntity
  8
0
100
AcDbLine
 62
7
  6
BYLAYER
 10
28.3221025853
 20
33.7137196073
 11
28.3221025853
 21
34.5302220244
  0
LINE
  5
23D
100
AcDbEntity
  8
0
100
AcDbLine
 62
7
  6
BYLAYER
 10
29.3827671731
 20
32.7747575086
 11
29.3827671731
 21
29.6720483236
  0
LINE
  5
23E
100
AcDbEntity
  8
0
100
AcDbLine
 62
7
  6
BYLAYER
 10
24.6451320146
 20
60.9848459784
 11
26.0593514649
 21
60.1683644693
  0
LINE
  5
23F
100
AcDbEntity
  8
0
100
AcDbLine
 62
7
  6
BYLAYER
 10
55.757959921
 20
43.0222527795
 11
57.1721793713
 21
42.2057712704
  0
LINE
  5
240
100
AcDbEntity
  8
0
100
AcDbLine
 62
7
  6
BYLAYER
 10
63.8189318894
 20
38.4497238026
 11
66.64737079
 21
36.8167607845
  0
LINE
  5
241
100
AcDbEntity
  8
0
100
AcDbLine
 62
7
  6
BYLAYER
 10
55.757959921
 20
21.1399880004
 11
58.5863988216
 21
16.2410153138
  0
LINE
  5
242
100
AcDbEntity
  8
0
100
AcDbLine
 62
7
  6
BYLAYER
 10
59.6470545774
 20
16.8533815446
 11
56.8186156769
 21
21.7523542312
  0
LINE
  5
243
100
AcDbEntity
  8
0
100
AcDbLine
 62
7
  6
BYLAYER
 10
57.3135883629
 20
22.0381251389
 11
59.1362448341
 21
18.8812090509
  0
LINE
  5
244
100
AcDbEntity
  8
0
100
AcDbLine
 62
7
  6
BYLAYER
 10
30.8323421096
 20
77.988600288
 11
30.8323421096
 21
79.4583046388
  0
LINE
  5
245
100
AcDbEntity
  8
0
100
AcDbLine
 62
7
  6
BYLAYER
 10
33.2578362744
 20
100.9119064705
 11
33.2578362744
 21
107.6256944146
  0
LWPOLYLINE
  5
246
100
AcDbEntity
  8
0
100
AcDbPolyline
 62
7
  6
BYLAYER
 90
4
 70
0
 10
36.8591099168
 20
112.4280119047
 10
36.5536273346
 20
109.8095381317
 10
35.9943740128
 20
108.512177899
 10
35.9492092156
 20
108.4546187005
  0
LINE
  5
247
100
AcDbEntity
  8
0
100
AcDbLine
 62
7
  6
BYLAYER
 10
87.7122553571
 20
32.4930757361
 11
87.2241042288
 21
32.7749035456
  0
LINE
  5
248
100
AcDbEntity
  8
0
100
AcDbLine
 62
7
  6
BYLAYER
 10
70.8192598778
 20
42.4913409259
 11
73.6476987784
 21
40.8583779078
  0
LINE
  5
249
100
AcDbEntity
  8
0
100
AcDbLine
 62
7
  6
BYLAYER
 10
88.2847599846
 20
33.3872697764
 11
89.1315083701
 21
32.8984104276
  0
LINE
  5
24A
100
AcDbEntity
  8
0
100
AcDbLine
 62
7
  6
BYLAYER
 10
36.8591098916
 20
125.328954822
 11
36.8591098916
 21
112.4282166202
  0
LINE
  5
24B
100
AcDbEntity
  8
0
100
AcDbLine
 62
7
  6
BYLAYER
 10
37.3092690946
 20
111.6019612057
 11
37.3092690946
 21
124.5026993839
  0
LINE
  5
24C
100
AcDbEntity
  8
0
100
AcDbLine
 62
7
  6
BYLAYER
 10
37.7266619298
 20
29.1006199893
 11
37.7266619298
 21
29.3047455936
  0
LINE
  5
24D
100
AcDbEntity
  8
0
100
AcDbLine
 62
7
  6
BYLAYER
 10
68.2311256614
 20
138.9722679669
 11
69.3400282776
 21
141.0535984038
  0
LINE
  5
24E
100
AcDbEntity
  8
0
100
AcDbLine
 62
7
  6
BYLAYER
 10
31.0090783254
 20
85.0716388089
 11
26.5472531125
 21
82.495618198
  0
LINE
  5
24F
100
AcDbEntity
  8
0
100
AcDbLine
 62
7
  6
BYLAYER
 10
77.8195878662
 20
46.5329580492
 11
80.6480267668
 21
44.8999950312
  0
LINE
  5
250
100
AcDbEntity
  8
0
100
AcDbLine
 62
7
  6
BYLAYER
 10
42.249202193
 20
126.2698223071
 11
42.249202193
 21
126.754325786
  0
LINE
  5
251
100
AcDbEntity
  8
0
100
AcDbLine
 62
7
  6
BYLAYER
 10
42.6056937152
 20
127.5299832196
 11
42.6056937152
 21
127.2865167726
  0
LINE
  5
252
100
AcDbEntity
  8
0
100
AcDbLine
 62
7
  6
BYLAYER
 10
42.8777581769
 20
121.2878034437
 11
42.8777581769
 21
108.3870653043
  0
LINE
  5
253
100
AcDbEntity
  8
0
100
AcDbLine
 62
7
  6
BYLAYER
 10
44.0906494561
 20
25.6305788029
 11
44.0906494561
 21
25.4264531986
  0
LINE
  5
254
100
AcDbEntity
  8
0
100
AcDbLine
 62
7
  6
BYLAYER
 10
45.1512887257
 20
126.0603165033
 11
45.1512887257
 21
125.9374698616
  0
LINE
  5
255
100
AcDbEntity
  8
0
100
AcDbLine
 62
7
  6
BYLAYER
 10
46.0766522812
 20
121.4506676544
 11
46.0766522805
 21
108.5499294634
  0
LINE
  5
256
100
AcDbEntity
  8
0
100
AcDbLine
 62
7
  6
BYLAYER
 10
74.6501996651
 20
105.4508875659
 11
62.3214229891
 21
98.3329075218
  0
LINE
  5
257
100
AcDbEntity
  8
0
100
AcDbLine
 62
7
  6
BYLAYER
 10
37.5501525485
 20
82.6019716755
 11
36.4184677227
 21
81.9485970369
  0
LINE
  5
258
100
AcDbEntity
  8
0
100
AcDbLine
 62
7
  6
BYLAYER
 10
30.8323421096
 20
79.4583046388
 11
50.9849692763
 21
67.823443135
  0
LINE
  5
259
100
AcDbEntity
  8
0
100
AcDbLine
 62
7
  6
BYLAYER
 10
58.3671907442
 20
64.1247842446
 11
56.2458615687
 21
65.3495065082
  0
LINE
  5
25A
100
AcDbEntity
  8
0
100
AcDbLine
 62
7
  6
BYLAYER
 10
26.5472531125
 20
82.495618198
 11
24.4259239371
 21
83.7203404616
  0
LWPOLYLINE
  5
25B
100
AcDbEntity
  8
0
100
AcDbPolyline
 62
7
  6
BYLAYER
 90
4
 70
0
 10
38.7695971951
 20
81.8979409078
 10
39.3956859789
 20
81.1260546353
 10
44.2986314312
 20
78.3026382414
 10
45.6069114423
 20
77.9505049896
  0
LINE
  5
25C
100
AcDbEntity
  8
0
100
AcDbLine
 62
7
  6
BYLAYER
 10
50.9849692763
 20
66.3537387842
 11
50.9849692763
 21
67.823443135
  0
LINE
  5
25D
100
AcDbEntity
  8
0
100
AcDbLine
 62
7
  6
BYLAYER
 10
60.7076867815
 20
67.9255271191
 11
55.2982973842
 21
71.0485688912
  0
LINE
  5
25E
100
AcDbEntity
  8
0
100
AcDbLine
 62
7
  6
BYLAYER
 10
36.4184677227
 20
81.9485970369
 11
31.0090783254
 21
85.0716388089
  0
LINE
  5
25F
100
AcDbEntity
  8
0
100
AcDbLine
 62
7
  6
BYLAYER
 10
53.636683737
 20
73.3146186715
 11
15.4527585791
 21
95.3596194156
  0
LINE
  5
260
100
AcDbEntity
  8
0
100
AcDbLine
 62
7
  6
BYLAYER
 10
50.9849692763
 20
66.3537387842
 11
52.0931125671
 21
60.9004257986
  0
LINE
  5
261
100
AcDbEntity
  8
0
100
AcDbLine
 62
7
  6
BYLAYER
 10
52.0931125671
 20
62.3701301495
 11
50.9849692763
 21
67.823443135
  0
LINE
  5
262
100
AcDbEntity
  8
0
100
AcDbLine
 62
7
  6
BYLAYER
 10
52.0931125671
 20
60.9004257986
 11
52.0931125671
 21
62.3701301494
  0
LINE
  5
263
100
AcDbEntity
  8
0
100
AcDbLine
 62
7
  6
BYLAYER
 10
52.7579775848
 20
59.9123551264
 11
52.7579775848
 21
57.8826492975
  0
LINE
  5
264
100
AcDbEntity
  8
0
100
AcDbLine
 62
7
  6
BYLAYER
 10
53.283075883
 20
20.1193233898
 11
53.283075883
 21
15.8735108208
  0
LINE
  5
265
100
AcDbEntity
  8
0
100
AcDbLine
 62
7
  6
BYLAYER
 10
53.636683737
 20
73.3146186715
 11
53.6366837337
 21
76.825579067
  0
LINE
  5
266
100
AcDbEntity
  8
0
100
AcDbLine
 62
7
  6
BYLAYER
 10
55.757959921
 20
56.2090607961
 11
55.757959921
 21
43.0222527795
  0
LINE
  5
267
100
AcDbEntity
  8
0
100
AcDbLine
 62
7
  6
BYLAYER
 10
55.757959921
 20
27.5903570957
 11
55.757959921
 21
21.1399880004
  0
LINE
  5
268
100
AcDbEntity
  8
0
100
AcDbLine
 62
7
  6
BYLAYER
 10
69.3400282776
 20
141.0535984038
 11
69.3620592388
 21
141.1384691632
  0
LINE
  5
269
100
AcDbEntity
  8
0
100
AcDbLine
 62
7
  6
BYLAYER
 10
24.6451320146
 20
60.9848459784
 11
26.0593514649
 21
61.8013410849
  0
LINE
  5
26A
100
AcDbEntity
  8
0
100
AcDbLine
 62
7
  6
BYLAYER
 10
57.1722146989
 20
78.0503324349
 11
95.3558219085
 21
100.0955167439
  0
LINE
  5
26B
100
AcDbEntity
  8
0
100
AcDbLine
 62
7
  6
BYLAYER
 10
21.3867826897
 20
78.6283325603
 11
30.8323421096
 21
77.988600288
  0
LINE
  5
26C
100
AcDbEntity
  8
0
100
AcDbLine
 62
7
  6
BYLAYER
 10
30.8323421096
 20
79.4583046388
 11
21.3867826897
 21
80.0980369111
  0
LINE
  5
26D
100
AcDbEntity
  8
0
100
AcDbLine
 62
7
  6
BYLAYER
 10
53.6366837337
 20
76.825579067
 11
15.4527585823
 21
98.8705798074
  0
LINE
  5
26E
100
AcDbEntity
  8
0
100
AcDbLine
 62
7
  6
BYLAYER
 10
16.1598624163
 20
100.0953263803
 11
54.3437875742
 21
78.0503256362
  0
LINE
  5
26F
100
AcDbEntity
  8
0
100
AcDbLine
 62
7
  6
BYLAYER
 10
85.456321084
 20
60.1685072421
 11
86.8705405343
 21
59.352025733
  0
LINE
  5
270
100
AcDbEntity
  8
0
100
AcDbLine
 62
7
  6
BYLAYER
 10
57.1721793713
 20
42.2057712704
 11
57.1721793713
 21
26.7738755867
  0
LINE
  5
271
100
AcDbEntity
  8
0
100
AcDbLine
 62
7
  6
BYLAYER
 10
57.3135883629
 20
22.0381251389
 11
57.3135883629
 21
20.8950411498
  0
LINE
  5
272
100
AcDbEntity
  8
0
100
AcDbLine
 62
7
  6
BYLAYER
 10
57.8793244241
 20
73.3146288696
 11
57.8793244273
 21
76.8255892651
  0
LINE
  5
273
100
AcDbEntity
  8
0
100
AcDbLine
 62
7
  6
BYLAYER
 10
58.7579775848
 20
60.0022210532
 11
58.7579775848
 21
57.8826492975
  0
LINE
  5
274
100
AcDbEntity
  8
0
100
AcDbLine
 62
7
  6
BYLAYER
 10
59.4331472071
 20
12.322845813
 11
59.4331472071
 21
15.752155965
  0
LINE
  5
275
100
AcDbEntity
  8
0
100
AcDbLine
 62
7
  6
BYLAYER
 10
59.4479775848
 20
61.148658966
 11
59.4479775848
 21
62.6183633168
  0
LINE
  5
276
100
AcDbEntity
  8
0
100
AcDbLine
 62
7
  6
BYLAYER
 10
59.7792986886
 20
18.4474598907
 11
59.7792986886
 21
16.7770320987
  0
LINE
  5
277
100
AcDbEntity
  8
0
100
AcDbLine
 62
7
  6
BYLAYER
 10
60.7076867815
 20
54.6165377199
 11
60.7076867815
 21
67.9255271191
  0
LINE
  5
278
100
AcDbEntity
  8
0
100
AcDbLine
 62
7
  6
BYLAYER
 10
59.1358791678
 20
17.7387584107
 11
59.1362448341
 21
18.8812090509
  0
LINE
  5
279
100
AcDbEntity
  8
0
100
AcDbLine
 62
7
  6
BYLAYER
 10
96.0629316304
 20
98.8707735704
 11
57.8793244273
 21
76.8255892651
  0
LINE
  5
27A
100
AcDbEntity
  8
0
100
AcDbLine
 62
7
  6
BYLAYER
 10
96.0629316336
 20
95.3598131786
 11
57.8793244241
 21
73.3146288696
  0
LINE
  5
27B
100
AcDbEntity
  8
0
100
AcDbLine
 62
7
  6
BYLAYER
 10
55.2982973842
 20
71.0485688912
 11
75.0972048261
 21
82.4794051996
  0
LINE
  5
27C
100
AcDbEntity
  8
0
100
AcDbLine
 62
7
  6
BYLAYER
 10
66.1417193004
 20
78.0848963009
 11
69.9000307774
 21
79.6014024643
  0
LINE
  5
27D
100
AcDbEntity
  8
0
100
AcDbLine
 62
7
  6
BYLAYER
 10
75.0972048261
 20
69.1704158004
 11
80.5065942235
 21
66.0473740283
  0
LINE
  5
27E
100
AcDbEntity
  8
0
100
AcDbLine
 62
7
  6
BYLAYER
 10
85.7218810721
 20
34.2337249349
 11
83.900793089
 21
37.3881633172
  0
LINE
  5
27F
100
AcDbEntity
  8
0
100
AcDbLine
 62
7
  6
BYLAYER
 10
84.3956653282
 20
37.6738762322
 11
87.2241042288
 21
32.7749035456
  0
LINE
  5
280
100
AcDbEntity
  8
0
100
AcDbLine
 62
7
  6
BYLAYER
 10
62.0053626251
 20
15.6272017554
 11
62.0053626251
 21
12.1978916034
  0
LINE
  5
281
100
AcDbEntity
  8
0
100
AcDbLine
 62
7
  6
BYLAYER
 10
63.3946931388
 20
40.0011526629
 11
63.3946931388
 21
34.9388376767
  0
LINE
  5
282
100
AcDbEntity
  8
0
100
AcDbLine
 62
7
  6
BYLAYER
 10
63.8189318894
 20
38.4497238026
 11
63.8189318894
 21
40.2460855577
  0
LINE
  5
283
100
AcDbEntity
  8
0
100
AcDbLine
 62
7
  6
BYLAYER
 10
63.960229599
 20
139.695659005
 11
63.960229599
 21
139.8589566665
  0
LINE
  5
284
100
AcDbEntity
  8
0
100
AcDbLine
 62
7
  6
BYLAYER
 10
65.1057540013
 20
140.7772787968
 11
65.1057540013
 21
140.3690275882
  0
LINE
  5
285
100
AcDbEntity
  8
0
100
AcDbLine
 62
7
  6
BYLAYER
 10
66.64737079
 20
36.8167607845
 11
66.64737079
 21
41.8790757707
  0
LINE
  5
286
100
AcDbEntity
  8
0
100
AcDbLine
 62
7
  6
BYLAYER
 10
66.7886661445
 20
138.2259950082
 11
66.7886661445
 21
138.5525876118
  0
LINE
  5
287
100
AcDbEntity
  8
0
100
AcDbLine
 62
7
  6
BYLAYER
 10
69.9000307774
 20
79.6014024643
 11
72.5413149543
 21
81.7796825195
  0
LINE
  5
288
100
AcDbEntity
  8
0
100
AcDbLine
 62
7
  6
BYLAYER
 10
80.6833304393
 20
84.9696975976
 11
90.1288898592
 21
84.3299653253
  0
LINE
  5
289
100
AcDbEntity
  8
0
100
AcDbLine
 62
7
  6
BYLAYER
 10
88.2847599846
 20
33.3872697764
 11
85.456321084
 21
38.286242463
  0
LINE
  5
28A
100
AcDbEntity
  8
0
100
AcDbLine
 62
7
  6
BYLAYER
 10
68.7159384567
 20
141.0062749515
 11
68.7159384567
 21
141.41452616
  0
LINE
  5
28B
100
AcDbEntity
  8
0
100
AcDbLine
 62
7
  6
BYLAYER
 10
69.1929622678
 20
21.5481927135
 11
69.1929622678
 21
19.9903442996
  0
LINE
  5
28C
100
AcDbEntity
  8
0
100
AcDbLine
 62
7
  6
BYLAYER
 10
70.3950211272
 20
44.0427697862
 11
70.3950211272
 21
38.9804548
  0
LINE
  5
28D
100
AcDbEntity
  8
0
100
AcDbLine
 62
7
  6
BYLAYER
 10
70.8192598778
 20
42.4913409259
 11
70.8192598778
 21
44.287702681
  0
LINE
  5
28E
100
AcDbEntity
  8
0
100
AcDbLine
 62
7
  6
BYLAYER
 10
71.9129241146
 20
19.6893031515
 11
71.9129241146
 21
16.2599929996
  0
LINE
  5
28F
100
AcDbEntity
  8
0
100
AcDbLine
 62
7
  6
BYLAYER
 10
56.2458615687
 20
65.3495065082
 11
60.7076867815
 21
67.9255271191
  0
LINE
  5
290
100
AcDbEntity
  8
0
100
AcDbLine
 62
7
  6
BYLAYER
 10
80.5065942235
 20
79.3563634275
 11
84.9684194363
 21
81.9323840384
  0
LINE
  5
291
100
AcDbEntity
  8
0
100
AcDbLine
 62
7
  6
BYLAYER
 10
75.0972048261
 20
82.4794051996
 11
80.5065942235
 21
79.3563634275
  0
LINE
  5
292
100
AcDbEntity
  8
0
100
AcDbLine
 62
7
  6
BYLAYER
 10
73.6476987784
 20
40.8583779078
 11
73.6476987784
 21
45.920692894
  0
LINE
  5
293
100
AcDbEntity
  8
0
100
AcDbLine
 62
7
  6
BYLAYER
 10
73.9243369701
 20
124.627701744
 11
73.9243369688
 21
137.5284399338
  0
LINE
  5
294
100
AcDbEntity
  8
0
100
AcDbLine
 62
7
  6
BYLAYER
 10
74.6565626572
 20
138.5490418208
 11
74.6565626572
 21
125.6483036176
  0
LINE
  5
295
100
AcDbEntity
  8
0
100
AcDbLine
 62
7
  6
BYLAYER
 10
75.0972048261
 20
69.1704158004
 11
75.0972048261
 21
82.4794051996
  0
LINE
  5
296
100
AcDbEntity
  8
0
100
AcDbLine
 62
7
  6
BYLAYER
 10
60.7076867815
 20
60.8626732743
 11
75.0972048261
 21
69.1704158004
  0
LINE
  5
297
100
AcDbEntity
  8
0
100
AcDbLine
 62
7
  6
BYLAYER
 10
84.9684194363
 20
80.4626796876
 11
87.0897486118
 21
79.237957424
  0
LINE
  5
298
100
AcDbEntity
  8
0
100
AcDbLine
 62
7
  6
BYLAYER
 10
84.9684194363
 20
81.9323840384
 11
87.0897486118
 21
80.7076617749
  0
LINE
  5
299
100
AcDbEntity
  8
0
100
AcDbLine
 62
7
  6
BYLAYER
 10
80.6833304393
 20
84.9696975976
 11
79.3749623892
 21
85.7250671548
  0
LWPOLYLINE
  5
29A
100
AcDbEntity
  8
0
100
AcDbPolyline
 62
7
  6
BYLAYER
 90
6
 70
0
 10
78.2578310684
 20
107.6266905698
 10
78.0608935912
 20
110.0622275067
 10
76.8537015885
 20
115.1160709339
 10
76.1559079292
 20
117.4998622403
 10
75.0389472902
 20
121.9860046891
 10
74.6565626179
 20
125.6480473797
  0
LINE
  5
29B
100
AcDbEntity
  8
0
100
AcDbLine
 62
7
  6
BYLAYER
 10
77.3953491156
 20
48.0843869095
 11
77.3953491156
 21
43.0220719233
  0
LINE
  5
29C
100
AcDbEntity
  8
0
100
AcDbLine
 62
7
  6
BYLAYER
 10
77.8195878662
 20
46.5329580492
 11
77.8195878662
 21
48.3293198044
  0
LINE
  5
29D
100
AcDbEntity
  8
0
100
AcDbLine
 62
7
  6
BYLAYER
 10
78.2578362744
 20
100.9119064705
 11
78.2578362744
 21
107.625689053
  0
LINE
  5
29E
100
AcDbEntity
  8
0
100
AcDbLine
 62
7
  6
BYLAYER
 10
79.0924159888
 20
27.2636108677
 11
79.0924159888
 21
25.4673365906
  0
LINE
  5
29F
100
AcDbEntity
  8
0
100
AcDbLine
 62
7
  6
BYLAYER
 10
80.5065942235
 20
66.0473740283
 11
80.5065942235
 21
79.3563634275
  0
LINE
  5
2A0
100
AcDbEntity
  8
0
100
AcDbLine
 62
7
  6
BYLAYER
 10
80.6480267668
 20
44.8999950312
 11
80.6480267668
 21
49.9623100174
  0
LINE
  5
2A1
100
AcDbEntity
  8
0
100
AcDbLine
 62
7
  6
BYLAYER
 10
82.3121758331
 20
25.6932780917
 11
82.3121758331
 21
22.2639679397
  0
LINE
  5
2A2
100
AcDbEntity
  8
0
100
AcDbLine
 62
7
  6
BYLAYER
 10
80.5065942235
 20
66.0473740283
 11
60.7076867815
 21
54.6165377199
  0
LINE
  5
2A3
100
AcDbEntity
  8
0
100
AcDbLine
 62
7
  6
BYLAYER
 10
29.0292245297
 20
34.1219742153
 11
28.3221025853
 21
33.7137196073
  0
LINE
  5
2A4
100
AcDbEntity
  8
0
100
AcDbLine
 62
7
  6
BYLAYER
 10
30.3727378952
 20
33.3463139598
 11
29.3827671731
 21
32.7747575086
  0
LINE
  5
2A5
100
AcDbEntity
  8
0
100
AcDbLine
 62
7
  6
BYLAYER
 10
84.3956653282
 20
37.6738762322
 11
84.3956653282
 21
36.530959272
  0
LINE
  5
2A6
100
AcDbEntity
  8
0
100
AcDbLine
 62
7
  6
BYLAYER
 10
84.9684194363
 20
80.4626796876
 11
84.9684194363
 21
81.9323840384
  0
LINE
  5
2A7
100
AcDbEntity
  8
0
100
AcDbLine
 62
7
  6
BYLAYER
 10
85.456321084
 20
80.1809959125
 11
85.456321084
 21
60.1685072421
  0
LINE
  5
2A8
100
AcDbEntity
  8
0
100
AcDbLine
 62
7
  6
BYLAYER
 10
85.456321084
 20
43.1036349428
 11
85.456321084
 21
38.286242463
  0
LINE
  5
2A9
100
AcDbEntity
  8
0
100
AcDbLine
 62
7
  6
BYLAYER
 10
85.7774620013
 20
30.5048352248
 11
85.7774620013
 21
33.4574168804
  0
LINE
  5
2AA
100
AcDbEntity
  8
0
100
AcDbLine
 62
7
  6
BYLAYER
 10
85.8697971947
 20
33.6245565518
 11
85.8697971947
 21
30.5799036436
  0
LINE
  5
2AB
100
AcDbEntity
  8
0
100
AcDbLine
 62
7
  6
BYLAYER
 10
86.6989617711
 20
79.4635732076
 11
86.6989617711
 21
77.4783686833
  0
LINE
  5
2AC
100
AcDbEntity
  8
0
100
AcDbLine
 62
7
  6
BYLAYER
 10
86.8705405343
 20
59.352025733
 11
86.8705405343
 21
43.9201300493
  0
LINE
  5
2AD
100
AcDbEntity
  8
0
100
AcDbLine
 62
7
  6
BYLAYER
 10
87.0897486118
 20
79.237957424
 11
87.0897486118
 21
80.7076617749
  0
LINE
  5
2AE
100
AcDbEntity
  8
0
100
AcDbLine
 62
7
  6
BYLAYER
 10
33.0598012838
 20
31.7949722851
 11
29.3827671731
 21
29.6720483236
  0
LINE
  5
2AF
100
AcDbEntity
  8
0
100
AcDbLine
 62
7
  6
BYLAYER
 10
85.456321084
 20
60.1685072421
 11
55.757959921
 21
43.0222527795
  0
LINE
  5
2B0
100
AcDbEntity
  8
0
100
AcDbLine
 62
7
  6
BYLAYER
 10
57.1721793713
 20
42.2057712704
 11
86.8705405343
 21
59.352025733
  0
LINE
  5
2B1
100
AcDbEntity
  8
0
100
AcDbLine
 62
7
  6
BYLAYER
 10
87.7122553571
 20
32.0778202646
 11
87.7122553571
 21
32.4930757361
  0
LINE
  5
2B2
100
AcDbEntity
  8
0
100
AcDbLine
 62
7
  6
BYLAYER
 10
89.3479599222
 20
27.9840532825
 11
89.3479599222
 21
31.4133634345
  0
LINE
  5
2B3
100
AcDbEntity
  8
0
100
AcDbLine
 62
7
  6
BYLAYER
 10
89.7173006957
 20
32.0819221198
 11
89.7173006957
 21
28.6526119679
  0
LINE
  5
2B4
100
AcDbEntity
  8
0
100
AcDbLine
 62
7
  6
BYLAYER
 10
92.6989617711
 20
79.6289994063
 11
92.6989617711
 21
77.4783686833
  0
LINE
  5
2B5
100
AcDbEntity
  8
0
100
AcDbLine
 62
7
  6
BYLAYER
 10
37.9034424159
 20
29.2026836413
 11
37.7266619298
 21
29.1006199893
  0
LINE
  5
2B6
100
AcDbEntity
  8
0
100
AcDbLine
 62
7
  6
BYLAYER
 10
80.6480267668
 20
49.9623100174
 11
77.3953491156
 21
48.0843869095
  0
LINE
  5
2B7
100
AcDbEntity
  8
0
100
AcDbLine
 62
7
  6
BYLAYER
 10
73.6476987784
 20
45.920692894
 11
70.3950211272
 21
44.0427697862
  0
LINE
  5
2B8
100
AcDbEntity
  8
0
100
AcDbLine
 62
7
  6
BYLAYER
 10
66.64737079
 20
41.8790757707
 11
63.3946931388
 21
40.0011526629
  0
LINE
  5
2B9
100
AcDbEntity
  8
0
100
AcDbLine
 62
7
  6
BYLAYER
 10
93.3889617711
 20
80.7443783518
 11
93.3889617711
 21
82.2140827026
  0
LINE
  5
2BA
100
AcDbEntity
  8
0
100
AcDbLine
 62
7
  6
BYLAYER
 10
96.0629316336
 20
95.3598131786
 11
96.0629316304
 21
98.8707735704
  0
LINE
  5
2BB
100
AcDbEntity
  8
0
100
AcDbLine
 62
7
  6
BYLAYER
 10
96.9416024582
 20
100.0954958358
 11
96.9416024582
 21
96.5845354422
  0
LINE
  5
2BC
100
AcDbEntity
  8
0
100
AcDbLine
 62
7
  6
BYLAYER
 10
63.3946931388
 20
38.2047909078
 11
63.8189318894
 21
38.4497238026
  0
LINE
  5
2BD
100
AcDbEntity
  8
0
100
AcDbLine
 62
7
  6
BYLAYER
 10
70.3950211272
 20
42.2464080311
 11
70.8192598778
 21
42.4913409259
  0
LINE
  5
2BE
100
AcDbEntity
  8
0
100
AcDbLine
 62
7
  6
BYLAYER
 10
77.3953491156
 20
46.2880251544
 11
77.8195878662
 21
46.5329580492
  0
LINE
  5
2BF
100
AcDbEntity
  8
0
100
AcDbLine
 62
7
  6
BYLAYER
 10
63.3946931388
 20
34.9388376767
 11
66.64737079
 21
36.8167607845
  0
LINE
  5
2C0
100
AcDbEntity
  8
0
100
AcDbLine
 62
7
  6
BYLAYER
 10
70.3950211272
 20
38.9804548
 11
73.6476987784
 21
40.8583779078
  0
LINE
  5
2C1
100
AcDbEntity
  8
0
100
AcDbLine
 62
7
  6
BYLAYER
 10
77.3953491156
 20
43.0220719233
 11
80.6480267668
 21
44.8999950312
  0
LINE
  5
2C2
100
AcDbEntity
  8
0
100
AcDbLine
 62
7
  6
BYLAYER
 10
95.3558101326
 20
101.7284865607
 11
77.6033684109
 21
111.9776317009
  0
LINE
  5
2C3
100
AcDbEntity
  8
0
100
AcDbLine
 62
7
  6
BYLAYER
 10
95.8558016491
 20
101.7780144453
 11
77.5096633815
 21
112.3699226916
  0
LINE
  5
2C4
100
AcDbEntity
  8
0
100
AcDbLine
 62
7
  6
BYLAYER
 10
57.1721793713
 20
26.7738755867
 11
86.8705405343
 21
43.9201300493
  0
LINE
  5
2C5
100
AcDbEntity
  8
0
100
AcDbLine
 62
7
  6
BYLAYER
 10
87.7663682451
 20
32.1218139878
 11
87.8586340682
 21
32.288953734
  0
LINE
  5
2C6
100
AcDbEntity
  8
0
100
AcDbLine
 62
7
  6
BYLAYER
 10
82.5572189032
 20
30.0804921301
 11
85.7774620013
 21
33.4574168804
  0
LINE
  5
2C7
100
AcDbEntity
  8
0
100
AcDbLine
 62
7
  6
BYLAYER
 10
55.757959921
 20
21.1399880004
 11
56.8186156769
 21
21.7523542312
  0
LINE
  5
2C8
100
AcDbEntity
  8
0
100
AcDbLine
 62
7
  6
BYLAYER
 10
57.3135883629
 20
22.0381251389
 11
83.900793089
 21
37.3881633172
  0
LINE
  5
2C9
100
AcDbEntity
  8
0
100
AcDbLine
 62
7
  6
BYLAYER
 10
84.3956653282
 20
37.6738762322
 11
85.456321084
 21
38.286242463
  0
LINE
  5
2CA
100
AcDbEntity
  8
0
100
AcDbLine
 62
7
  6
BYLAYER
 10
82.5572189032
 20
30.0804921301
 11
79.0924159888
 21
27.2636108677
  0
LINE
  5
2CB
100
AcDbEntity
  8
0
100
AcDbLine
 62
7
  6
BYLAYER
 10
80.7789568596
 20
26.4410556041
 11
87.7663682451
 21
32.1218139878
  0
LINE
  5
2CC
100
AcDbEntity
  8
0
100
AcDbLine
 62
7
  6
BYLAYER
 10
89.3479599222
 20
31.4133634345
 11
82.3121758331
 21
25.6932780917
  0
LINE
  5
2CD
100
AcDbEntity
  8
0
100
AcDbLine
 62
7
  6
BYLAYER
 10
58.5863988216
 20
16.2410153138
 11
59.6470545774
 21
16.8533815446
  0
LINE
  5
2CE
100
AcDbEntity
  8
0
100
AcDbLine
 62
7
  6
BYLAYER
 10
64.313939903
 20
19.5477929602
 11
82.5572189032
 21
30.0804921301
  0
LINE
  5
2CF
100
AcDbEntity
  8
0
100
AcDbLine
 62
7
  6
BYLAYER
 10
87.2241042288
 20
32.7749035456
 11
88.2847599846
 21
33.3872697764
  0
LINE
  5
2D0
100
AcDbEntity
  8
0
100
AcDbLine
 62
7
  6
BYLAYER
 10
79.0924159888
 20
27.2636108677
 11
69.1929622677
 21
21.5481927135
  0
LINE
  5
2D1
100
AcDbEntity
  8
0
100
AcDbLine
 62
7
  6
BYLAYER
 10
70.6177041876
 20
20.5744886572
 11
80.7789568596
 21
26.4410556041
  0
LINE
  5
2D2
100
AcDbEntity
  8
0
100
AcDbLine
 62
7
  6
BYLAYER
 10
69.1929622677
 20
21.5481927135
 11
64.313939903
 21
19.5477929602
  0
LINE
  5
2D3
100
AcDbEntity
  8
0
100
AcDbLine
 62
7
  6
BYLAYER
 10
69.4544414836
 20
135.3805314858
 11
69.8292379626
 21
135.1641475331
  0
LINE
  5
2D4
100
AcDbEntity
  8
0
100
AcDbLine
 62
7
  6
BYLAYER
 10
82.3121758331
 20
22.2639679397
 11
89.3479599222
 21
27.9840532825
  0
LINE
  5
2D5
100
AcDbEntity
  8
0
100
AcDbLine
 62
7
  6
BYLAYER
 10
71.9129241146
 20
19.6893031515
 11
82.3121758331
 21
25.6932780917
  0
LINE
  5
2D6
100
AcDbEntity
  8
0
100
AcDbLine
 62
7
  6
BYLAYER
 10
71.9129241147
 20
16.2599929996
 11
82.3121758331
 21
22.2639679397
  0
LINE
  5
2D7
100
AcDbEntity
  8
0
100
AcDbLine
 62
7
  6
BYLAYER
 10
60.7782595602
 20
16.5403151827
 11
70.6177041876
 21
20.5744886572
  0
LINE
  5
2D8
100
AcDbEntity
  8
0
100
AcDbLine
 62
7
  6
BYLAYER
 10
71.9129241146
 20
19.6893031515
 11
62.0053626251
 21
15.6272017554
  0
LINE
  5
2D9
100
AcDbEntity
  8
0
100
AcDbLine
 62
7
  6
BYLAYER
 10
65.1057540013
 20
140.3690275882
 11
68.7159384567
 21
141.0062749515
  0
LINE
  5
2DA
100
AcDbEntity
  8
0
100
AcDbLine
 62
7
  6
BYLAYER
 10
68.7159384567
 20
141.41452616
 11
65.1057540013
 21
140.7772787968
  0
LINE
  5
2DB
100
AcDbEntity
  8
0
100
AcDbLine
 62
7
  6
BYLAYER
 10
62.4752991762
 20
140.716262251
 11
63.960229599
 21
139.8589566665
  0
LINE
  5
2DC
100
AcDbEntity
  8
0
100
AcDbLine
 62
7
  6
BYLAYER
 10
66.6472465546
 20
138.3076417993
 11
68.1321769774
 21
137.4503362148
  0
LINE
  5
2DD
100
AcDbEntity
  8
0
100
AcDbLine
 62
7
  6
BYLAYER
 10
68.4150185123
 20
137.6136338764
 11
66.7886661445
 21
138.5525876118
  0
LINE
  5
2DE
100
AcDbEntity
  8
0
100
AcDbLine
 62
7
  6
BYLAYER
 10
64.384493079
 20
139.9406061772
 11
62.7581407111
 21
140.8795599126
  0
LINE
  5
2DF
100
AcDbEntity
  8
0
100
AcDbLine
 62
7
  6
BYLAYER
 10
67.3996717649
 20
138.85301654
 11
64.8983899258
 21
140.2970996136
  0
LINE
  5
2E0
100
AcDbEntity
  8
0
100
AcDbLine
 62
7
  6
BYLAYER
 10
62.0053626251
 20
12.1978916034
 11
71.9129241147
 21
16.2599929996
  0
ARC
  5
2E1
100
AcDbEntity
  8
0
100
AcDbCircle
 62
7
  6
BYLAYER
 10
61.1403950173
 20
116.2481289437
 40
21.0553066112
100
AcDbArc
 50
299.9992357233
 51
300.494273353
  0
ARC
  5
2E2
100
AcDbEntity
  8
0
100
AcDbCircle
 62
7
  6
BYLAYER
 10
46.7510919578
 20
105.7006839321
 40
12.3060230115
100
AcDbArc
 50
143.5046031895
 51
145.8844652666
  0
ARC
  5
2E3
100
AcDbEntity
  8
0
100
AcDbCircle
 62
7
  6
BYLAYER
 10
36.0192345197
 20
111.4918063752
 40
1.5150511627
100
AcDbArc
 50
139.8638204598
 51
148.7309033102
  0
ARC
  5
2E4
100
AcDbEntity
  8
0
100
AcDbCircle
 62
7
  6
BYLAYER
 10
62.1005358311
 20
140.3873055279
 40
0.6831838043
100
AcDbArc
 50
120.0727555868
 51
133.9181161832
  0
ARC
  5
2E5
100
AcDbEntity
  8
0
100
AcDbCircle
 62
7
  6
BYLAYER
 10
42.6883326453
 20
126.7544019427
 40
0.639052326
100
AcDbArc
 50
180.0068238283
 51
186.4273968231
  0
ARC
  5
2E6
100
AcDbEntity
  8
0
100
AcDbCircle
 62
7
  6
BYLAYER
 10
65.1249415234
 20
139.9045311849
 40
0.4532465814
100
AcDbArc
 50
119.9892588738
 51
122.3801302062
  0
ARC
  5
2E7
100
AcDbEntity
  8
0
100
AcDbCircle
 62
7
  6
BYLAYER
 10
68.9926818182
 20
140.547877394
 40
0.4461845808
100
AcDbArc
 50
57.3921054456
 51
60.0142174214
  0
ARC
  5
2E8
100
AcDbEntity
  8
0
100
AcDbCircle
 62
7
  6
BYLAYER
 10
68.0753768068
 20
143.0885274785
 40
0.4419129128
100
AcDbArc
 50
68.031310899
 51
78.3644742149
  0
ARC
  5
2E9
100
AcDbEntity
  8
0
100
AcDbCircle
 62
7
  6
BYLAYER
 10
69.0159647386
 20
140.5836461008
 40
0.4035070851
100
AcDbArc
 50
52.0577209556
 51
57.440062312
  0
SPLINE
  5
2EA
100
AcDbEntity
  8
0
100
AcDbSpline
 62
7
  6
BYLAYER
 70
0
 71
3
 72
11
 73
7
 74
0
 42
0.0000001
 43
0.0000001
 44
0.0000000001
 40
0.0
 40
0.0
 40
0.0
 40
0.0
 40
0.2328597095
 40
0.4904486299
 40
0.7531419178
 40
1.0
 40
1.0
 40
1.0
 40
1.0
 10
60.1352057057
 20
16.5715537351
 30
0.0
 10
60.1797228876
 20
16.5458523096
 30
0.0
 10
60.2821769241
 20
16.5065730063
 30
0.0
 10
60.4476977378
 20
16.4823250163
 30
0.0
 10
60.6178568932
 20
16.4909265578
 30
0.0
 10
60.7278390141
 20
16.5196427528
 30
0.0
 10
60.7782595602
 20
16.5403151827
 30
0.0
  0
SPLINE
  5
2EB
100
AcDbEntity
  8
0
100
AcDbSpline
 62
7
  6
BYLAYER
 70
0
 71
3
 72
11
 73
7
 74
0
 42
0.0000001
 43
0.0000001
 44
0.0000000001
 40
0.0
 40
0.0
 40
0.0
 40
0.0
 40
0.2896534625
 40
0.5491001025
 40
0.7822228329
 40
1.0
 40
1.0
 40
1.0
 40
1.0
 10
89.1315083701
 20
32.8984104276
 30
0.0
 10
89.2192509811
 20
32.8477533535
 30
0.0
 10
89.3784509071
 20
32.7380647305
 30
0.0
 10
89.5687630582
 20
32.5381231059
 30
0.0
 10
89.6891797006
 20
32.3168769508
 30
0.0
 10
89.7172191165
 20
32.1580967901
 30
0.0
 10
89.7172588095
 20
32.081922042
 30
0.0
  0
SPLINE
  5
2EC
100
AcDbEntity
  8
0
100
AcDbSpline
 62
7
  6
BYLAYER
 70
0
 71
3
 72
11
 73
7
 74
0
 42
0.0000001
 43
0.0000001
 44
0.0000000001
 40
0.0
 40
0.0
 40
0.0
 40
0.0
 40
0.2177822878
 40
0.4509146108
 40
0.7103059136
 40
1.0
 40
1.0
 40
1.0
 40
1.0
 10
86.6989755627
 20
77.4783687175
 30
0.0
 10
86.6989911667
 20
77.364103011
 30
0.0
 10
86.7411935916
 20
77.1259341981
 30
0.0
 10
86.9217605122
 20
76.7940875994
 30
0.0
 10
87.2071938024
 20
76.4941237479
 30
0.0
 10
87.4460168666
 20
76.3296330772
 30
0.0
 10
87.5776502595
 20
76.2536362217
 30
0.0
  0
SPLINE
  5
2ED
100
AcDbEntity
  8
0
100
AcDbSpline
 62
7
  6
BYLAYER
 70
0
 71
3
 72
11
 73
7
 74
0
 42
0.0000001
 43
0.0000001
 44
0.0000000001
 40
0.0
 40
0.0
 40
0.0
 40
0.0
 40
0.2790875257
 40
0.5353019942
 40
0.7728119873
 40
1.0
 40
1.0
 40
1.0
 40
1.0
 10
89.3479599222
 20
27.9840532825
 30
0.0
 10
89.4048614234
 20
28.0303141455
 30
0.0
 10
89.5074827929
 20
28.1276824367
 30
0.0
 10
89.6267973623
 20
28.2937773183
 30
0.0
 10
89.7004826831
 20
28.4702461648
 30
0.0
 10
89.7172899388
 20
28.5929153448
 30
0.0
 10
89.7172588303
 20
28.6526118904
 30
0.0
  0
SPLINE
  5
2EE
100
AcDbEntity
  8
0
100
AcDbSpline
 62
7
  6
BYLAYER
 70
0
 71
3
 72
11
 73
7
 74
0
 42
0.0000001
 43
0.0000001
 44
0.0000000001
 40
0.0
 40
0.0
 40
0.0
 40
0.0
 40
0.2328705356
 40
0.4904497142
 40
0.7531300265
 40
1.0
 40
1.0
 40
1.0
 40
1.0
 10
59.4331472071
 20
12.322845813
 30
0.0
 10
59.611224249
 20
12.2200353108
 30
0.0
 10
60.0210335756
 20
12.0628840577
 30
0.0
 10
60.6831183618
 20
11.9659907902
 30
0.0
 10
61.3637469077
 20
12.0002987841
 30
0.0
 10
61.8036706852
 20
12.1151978839
 30
0.0
 10
62.0053626251
 20
12.1978916034
 30
0.0
  0
SPLINE
  5
2EF
100
AcDbEntity
  8
0
100
AcDbSpline
 62
7
  6
BYLAYER
 70
0
 71
3
 72
11
 73
7
 74
0
 42
0.0000001
 43
0.0000001
 44
0.0000000001
 40
0.0
 40
0.0
 40
0.0
 40
0.0
 40
0.2177223257
 40
0.4508705615
 40
0.7104663776
 40
1.0
 40
1.0
 40
1.0
 40
1.0
 10
88.1990273114
 20
82.2140825942
 30
0.0
 10
88.1990251102
 20
82.1569664621
 30
0.0
 10
88.2200295144
 20
82.0378807257
 30
0.0
 10
88.3103547975
 20
81.8719121144
 30
0.0
 10
88.4531554476
 20
81.7220041739
 30
0.0
 10
88.5725269169
 20
81.6396931928
 30
0.0
 10
88.6383060153
 20
81.6017164718
 30
0.0
  0
SPLINE
  5
2F0
100
AcDbEntity
  8
0
100
AcDbSpline
 62
7
  6
BYLAYER
 70
0
 71
3
 72
11
 73
7
 74
0
 42
0.0000001
 43
0.0000001
 44
0.0000000001
 40
0.0
 40
0.0
 40
0.0
 40
0.0
 40
0.2176722026
 40
0.451022922
 40
0.7109790766
 40
1.0
 40
1.0
 40
1.0
 40
1.0
 10
64.7519492427
 20
140.5012218129
 30
0.0
 10
64.7519450467
 20
140.4821884115
 30
0.0
 10
64.7589773446
 20
140.4424872874
 30
0.0
 10
64.7891004335
 20
140.3871210445
 30
0.0
 10
64.8367717137
 20
140.3372200808
 30
0.0
 10
64.8765034509
 20
140.3097354899
 30
0.0
 10
64.8983899258
 20
140.2970996136
 30
0.0
  0
SPLINE
  5
2F1
100
AcDbEntity
  8
0
100
AcDbSpline
 62
7
  6
BYLAYER
 70
0
 71
3
 72
11
 73
7
 74
0
 42
0.0000001
 43
0.0000001
 44
0.0000000001
 40
0.0
 40
0.0
 40
0.0
 40
0.0
 40
0.2497698128
 40
0.5006614361
 40
0.7509933549
 40
1.0
 40
1.0
 40
1.0
 40
1.0
 10
68.2407155175
 20
143.4983998982
 30
0.0
 10
68.0501102232
 20
143.5752282388
 30
0.0
 10
67.6484440158
 20
143.6841047748
 30
0.0
 10
67.0265961982
 20
143.7120555792
 30
0.0
 10
66.4135219635
 20
143.6067943591
 30
0.0
 10
66.03067462
 20
143.4453397639
 30
0.0
 10
65.8532441955
 20
143.342900872
 30
0.0
  0
SPLINE
  5
2F2
100
AcDbEntity
  8
0
100
AcDbSpline
 62
7
  6
BYLAYER
 70
0
 71
3
 72
11
 73
7
 74
0
 42
0.0000001
 43
0.0000001
 44
0.0000000001
 40
0.0
 40
0.0
 40
0.0
 40
0.0
 40
0.249665491
 40
0.4995269466
 40
0.7497283679
 40
1.0
 40
1.0
 40
1.0
 40
1.0
 10
73.8410717683
 20
140.255573338
 30
0.0
 10
73.9661477683
 20
140.1521434358
 30
0.0
 10
74.1956491596
 20
139.9183813441
 30
0.0
 10
74.4564224938
 20
139.502124894
 30
0.0
 10
74.6195342553
 20
139.0382570613
 30
0.0
 10
74.6565626572
 20
138.7117372767
 30
0.0
 10
74.6565626572
 20
138.5490418208
 30
0.0
  0
SPLINE
  5
2F3
100
AcDbEntity
  8
0
100
AcDbSpline
 62
7
  6
BYLAYER
 70
0
 71
3
 72
11
 73
7
 74
0
 42
0.0000001
 43
0.0000001
 44
0.0000000001
 40
0.0
 40
0.0
 40
0.0
 40
0.0
 40
0.2177227832
 40
0.4508712161
 40
0.7104668615
 40
1.0
 40
1.0
 40
1.0
 40
1.0
 10
42.2492764716
 20
126.7543259089
 30
0.0
 10
42.2492739722
 20
126.8190568274
 30
0.0
 10
42.2730784222
 20
126.9540191053
 30
0.0
 10
42.3754448599
 20
127.1421150455
 30
0.0
 10
42.5372823162
 20
127.3120094511
 30
0.0
 10
42.6725674107
 20
127.4052948737
 30
0.0
 10
42.7471156602
 20
127.4483350687
 30
0.0
  0
SPLINE
  5
2F4
100
AcDbEntity
  8
0
100
AcDbSpline
 62
7
  6
BYLAYER
 70
0
 71
3
 72
9
 73
5
 74
0
 42
0.0000001
 43
0.0000001
 44
0.0000000001
 40
0.0
 40
0.0
 40
0.0
 40
0.0
 40
0.4826981965
 40
1.0
 40
1.0
 40
1.0
 40
1.0
 10
73.8410717683
 20
140.255573338
 30
0.0
 10
73.0362884041
 20
140.9210780282
 30
0.0
 10
71.2374889694
 20
142.1441032602
 30
0.0
 10
69.2787332558
 20
143.0800002907
 30
0.0
 10
68.2407155175
 20
143.4983998982
 30
0.0
  0
SPLINE
  5
2F5
100
AcDbEntity
  8
0
100
AcDbSpline
 62
7
  6
BYLAYER
 70
0
 71
3
 72
15
 73
11
 74
0
 42
0.0000001
 43
0.0000001
 44
0.0000000001
 40
0.0
 40
0.0
 40
0.0
 40
0.0
 40
0.1141236058
 40
0.2373475862
 40
0.3669728832
 40
0.5000004526
 40
0.6330279586
 40
0.7626530685
 40
0.8858767805
 40
1.0
 40
1.0
 40
1.0
 40
1.0
 10
87.0897486118
 20
79.237957424
 30
0.0
 10
87.2683219418
 20
79.1348603962
 30
0.0
 10
87.6589759182
 20
78.9530386269
 30
0.0
 10
88.2949858449
 20
78.7596086865
 30
0.0
 10
88.9836824739
 20
78.6406917587
 30
0.0
 10
89.6989766751
 20
78.6004758005
 30
0.0
 10
90.4142703524
 20
78.6406950719
 30
0.0
 10
91.1029654866
 20
78.7596152201
 30
0.0
 10
91.7389728926
 20
78.9530482601
 30
0.0
 10
92.1296246749
 20
79.1348720011
 30
0.0
 10
92.3081966569
 20
79.2379699676
 30
0.0
  0
SPLINE
  5
2F6
100
AcDbEntity
  8
0
100
AcDbSpline
 62
7
  6
BYLAYER
 70
0
 71
3
 72
11
 73
7
 74
0
 42
0.0000001
 43
0.0000001
 44
0.0000000001
 40
0.0
 40
0.0
 40
0.0
 40
0.0
 40
0.2897048043
 40
0.5490913404
 40
0.7822177947
 40
1.0
 40
1.0
 40
1.0
 40
1.0
 10
92.3081966569
 20
79.2379699676
 30
0.0
 10
92.4701087367
 20
79.3314493925
 30
0.0
 10
92.7638580644
 20
79.5337748662
 30
0.0
 10
93.1149294375
 20
79.9027348829
 30
0.0
 10
93.3370056784
 20
80.3108940535
 30
0.0
 10
93.3889433845
 20
80.6038335894
 30
0.0
 10
93.3889433585
 20
80.7443783518
 30
0.0
  0
SPLINE
  5
2F7
100
AcDbEntity
  8
0
100
AcDbSpline
 62
7
  6
BYLAYER
 70
0
 71
3
 72
14
 73
10
 74
0
 42
0.0000001
 43
0.0000001
 44
0.0000000001
 40
0.0
 40
0.0
 40
0.0
 40
0.0
 40
0.3072252905
 40
0.4497661238
 40
0.5815886869
 40
0.7013969738
 40
0.8093589884
 40
0.9075168557
 40
1.0
 40
1.0
 40
1.0
 40
1.0
 10
90.1288898592
 20
84.3299653253
 30
0.0
 10
90.5595797724
 20
84.3007954027
 30
0.0
 10
91.1897250482
 20
84.194269219
 30
0.0
 10
91.9588162854
 20
83.9128404641
 30
0.0
 10
92.4496020414
 20
83.6515533023
 30
0.0
 10
92.8527508833
 20
83.3424666821
 30
0.0
 10
93.1552308925
 20
82.9934163319
 30
0.0
 10
93.3450541644
 20
82.6135173391
 30
0.0
 10
93.38891912
 20
82.3440290186
 30
0.0
 10
93.3889416199
 20
82.2140826574
 30
0.0
  0
SPLINE
  5
2F8
100
AcDbEntity
  8
0
100
AcDbSpline
 62
7
  6
BYLAYER
 70
0
 71
3
 72
11
 73
7
 74
0
 42
0.0000001
 43
0.0000001
 44
0.0000000001
 40
0.0
 40
0.0
 40
0.0
 40
0.0
 40
0.2897052857
 40
0.5490919933
 40
0.7822182543
 40
1.0
 40
1.0
 40
1.0
 40
1.0
 10
58.3671907442
 20
64.1247842446
 30
0.0
 10
58.5291058527
 20
64.0313046279
 30
0.0
 10
58.8228607555
 20
63.8289783824
 30
0.0
 10
59.173939261
 20
63.4600156312
 30
0.0
 10
59.3960202853
 20
63.0518525064
 30
0.0
 10
59.4479592116
 20
62.758909593
 30
0.0
 10
59.4479591722
 20
62.6183633168
 30
0.0
  0
SPLINE
  5
2F9
100
AcDbEntity
  8
0
100
AcDbSpline
 62
7
  6
BYLAYER
 70
0
 71
3
 72
15
 73
11
 74
0
 42
0.0000001
 43
0.0000001
 44
0.0000000001
 40
0.0
 40
0.0
 40
0.0
 40
0.0
 40
0.1141231812
 40
0.2373468278
 40
0.366971913
 40
0.4999994099
 40
0.6330269884
 40
0.76265231
 40
0.885876356
 40
1.0
 40
1.0
 40
1.0
 40
1.0
 10
19.207475892
 20
83.720327918
 30
0.0
 10
19.3860478142
 20
83.8234258499
 30
0.0
 10
19.776699398
 20
84.0052495702
 30
0.0
 10
20.4127065858
 20
84.1986825343
 30
0.0
 10
21.1014015255
 20
84.3176027319
 30
0.0
 10
21.8166951547
 20
84.3578220851
 30
0.0
 10
22.531989404
 20
84.3176062086
 30
0.0
 10
23.2206862276
 20
84.1986893304
 30
0.0
 10
23.8566963724
 20
84.0052593139
 30
0.0
 10
24.2473505473
 20
83.8234375239
 30
0.0
 10
24.4259239371
 20
83.7203404616
 30
0.0
  0
SPLINE
  5
2FA
100
AcDbEntity
  8
0
100
AcDbSpline
 62
7
  6
BYLAYER
 70
0
 71
3
 72
16
 73
12
 74
0
 42
0.0000001
 43
0.0000001
 44
0.0000000001
 40
0.0
 40
0.0
 40
0.0
 40
0.0
 40
0.1287407842
 40
0.2704216738
 40
0.4176264892
 40
0.5620283504
 40
0.6957542622
 40
0.8130692111
 40
0.9124720203
 40
0.9571212591
 40
1.0
 40
1.0
 40
1.0
 40
1.0
 10
54.697321829
 20
62.005997086
 30
0.0
 10
54.808352763
 20
61.9418947966
 30
0.0
 10
55.0597847363
 20
61.8381830746
 30
0.0
 10
55.4695121775
 20
61.7561635385
 30
0.0
 10
55.9029140673
 20
61.7442446234
 30
0.0
 10
56.3244328385
 20
61.803363255
 30
0.0
 10
56.7004279865
 20
61.9292343105
 30
0.0
 10
57.0017117482
 20
62.1120686876
 30
0.0
 10
57.1771644437
 20
62.3136221256
 30
0.0
 10
57.2465725871
 20
62.4881143006
 30
0.0
 10
57.2579103989
 20
62.5756625498
 30
0.0
 10
57.2579120445
 20
62.6183634253
 30
0.0
  0
SPLINE
  5
2FB
100
AcDbEntity
  8
0
100
AcDbSpline
 62
7
  6
BYLAYER
 70
0
 71
3
 72
16
 73
12
 74
0
 42
0.0000001
 43
0.0000001
 44
0.0000000001
 40
0.0
 40
0.0
 40
0.0
 40
0.0
 40
0.1287407842
 40
0.2704216738
 40
0.4176264892
 40
0.5620283504
 40
0.6957542622
 40
0.8130692111
 40
0.9124720203
 40
0.9571212591
 40
1.0
 40
1.0
 40
1.0
 40
1.0
 10
88.6383060153
 20
81.6017164718
 30
0.0
 10
88.7493369493
 20
81.5376141824
 30
0.0
 10
89.0007689226
 20
81.4339024604
 30
0.0
 10
89.4104963638
 20
81.3518829243
 30
0.0
 10
89.8438982536
 20
81.3399640093
 30
0.0
 10
90.2654170247
 20
81.3990826409
 30
0.0
 10
90.6414121727
 20
81.5249536963
 30
0.0
 10
90.9426959345
 20
81.7077880734
 30
0.0
 10
91.11814863
 20
81.9093415115
 30
0.0
 10
91.1875567733
 20
82.0838336864
 30
0.0
 10
91.1988945852
 20
82.1713819357
 30
0.0
 10
91.1988962308
 20
82.2140828111
 30
0.0
  0
SPLINE
  5
2FC
100
AcDbEntity
  8
0
100
AcDbSpline
 62
7
  6
BYLAYER
 70
0
 71
3
 72
16
 73
12
 74
0
 42
0.0000001
 43
0.0000001
 44
0.0000000001
 40
0.0
 40
0.0
 40
0.0
 40
0.0
 40
0.1287407842
 40
0.2704216738
 40
0.4176264892
 40
0.5620283504
 40
0.6957542622
 40
0.8130692111
 40
0.9124720203
 40
0.9571212591
 40
1.0
 40
1.0
 40
1.0
 40
1.0
 10
20.756055022
 20
81.601553303
 30
0.0
 10
20.8670859559
 20
81.5374510135
 30
0.0
 10
21.1185179293
 20
81.4337392916
 30
0.0
 10
21.5282453705
 20
81.3517197555
 30
0.0
 10
21.9616472603
 20
81.3398008404
 30
0.0
 10
22.3831660314
 20
81.398919472
 30
0.0
 10
22.7591611794
 20
81.5247905274
 30
0.0
 10
23.0604449412
 20
81.7076249046
 30
0.0
 10
23.2358976367
 20
81.9091783426
 30
0.0
 10
23.30530578
 20
82.0836705176
 30
0.0
 10
23.3166435918
 20
82.1712187668
 30
0.0
 10
23.3166452375
 20
82.2139196422
 30
0.0
  0
SPLINE
  5
2FD
100
AcDbEntity
  8
0
100
AcDbSpline
 62
7
  6
BYLAYER
 70
0
 71
3
 72
11
 73
7
 74
0
 42
0.0000001
 43
0.0000001
 44
0.0000000001
 40
0.0
 40
0.0
 40
0.0
 40
0.0
 40
0.2503099129
 40
0.5004729181
 40
0.7503397608
 40
1.0
 40
1.0
 40
1.0
 40
1.0
 10
36.8591098916
 20
125.328954822
 30
0.0
 10
36.8591098916
 20
125.5250935346
 30
0.0
 10
36.9130610134
 20
125.9193208523
 30
0.0
 10
37.148916938
 20
126.4653889636
 30
0.0
 10
37.5190391834
 20
126.9299634719
 30
0.0
 10
37.836139016
 20
127.1673142099
 30
0.0
 10
38.0055595059
 20
127.2651285915
 30
0.0
  0
SPLINE
  5
2FE
100
AcDbEntity
  8
0
100
AcDbSpline
 62
7
  6
BYLAYER
 70
0
 71
3
 72
17
 73
13
 74
0
 42
0.0000001
 43
0.0000001
 44
0.0000000001
 40
0.0
 40
0.0
 40
0.0
 40
0.0
 40
0.0430160513
 40
0.088369022
 40
0.1372110632
 40
0.190242606
 40
0.3091587404
 40
0.4433138937
 40
0.586995616
 40
0.7327100006
 40
0.8726849581
 40
1.0
 40
1.0
 40
1.0
 40
1.0
 10
42.0532970795
 20
126.6828638025
 30
0.0
 10
42.0592575678
 20
126.6299298265
 30
0.0
 10
42.0853788777
 20
126.522362906
 30
0.0
 10
42.1628832531
 20
126.3697597157
 30
0.0
 10
42.2766833211
 20
126.2259636054
 30
0.0
 10
42.4812086376
 20
126.0429100366
 30
0.0
 10
42.8159579459
 20
125.8557676572
 30
0.0
 10
43.2880687692
 20
125.7104744311
 30
0.0
 10
43.8110760235
 20
125.6457179407
 30
0.0
 10
44.344783718
 20
125.6665482274
 30
0.0
 10
44.8477551049
 20
125.77130093
 30
0.0
 10
45.1561734891
 20
125.8998390444
 30
0.0
 10
45.2927106707
 20
125.9786683524
 30
0.0
  0
SPLINE
  5
2FF
100
AcDbEntity
  8
0
100
AcDbSpline
 62
7
  6
BYLAYER
 70
0
 71
3
 72
10
 73
6
 74
0
 42
0.0000001
 43
0.0000001
 44
0.0000000001
 40
0.0
 40
0.0
 40
0.0
 40
0.0
 40
0.2296716908
 40
0.4755245076
 40
1.0
 40
1.0
 40
1.0
 40
1.0
 10
19.2074976185
 20
79.2377942552
 30
0.0
 10
19.3586020451
 20
79.1505560474
 30
0.0
 10
19.6852716955
 20
78.9931962148
 30
0.0
 10
20.4060538493
 20
78.7494771682
 30
0.0
 10
20.9892544131
 20
78.6552564995
 30
0.0
 10
21.3867826897
 20
78.6283325603
 30
0.0
  0
SPLINE
  5
300
100
AcDbEntity
  8
0
100
AcDbSpline
 62
7
  6
BYLAYER
 70
0
 71
3
 72
17
 73
13
 74
0
 42
0.0000001
 43
0.0000001
 44
0.0000000001
 40
0.0
 40
0.0
 40
0.0
 40
0.0
 40
0.1286930255
 40
0.2702801155
 40
0.4174389234
 40
0.5617808058
 40
0.6954504305
 40
0.8127136056
 40
0.8646759876
 40
0.9125114232
 40
0.9571388406
 40
1.0
 40
1.0
 40
1.0
 40
1.0
 10
19.6953992661
 20
76.2534730528
 30
0.0
 10
19.9174774713
 20
76.1252590419
 30
0.0
 10
20.4202825389
 20
75.917796515
 30
0.0
 10
21.2397653694
 20
75.7538768249
 30
0.0
 10
22.1064995307
 20
75.7298749191
 30
0.0
 10
22.949766501
 20
75.8483837331
 30
0.0
 10
23.7011863711
 20
76.0993750715
 30
0.0
 10
24.2238154169
 20
76.4174791319
 30
0.0
 10
24.5304986158
 20
76.7253018383
 30
0.0
 10
24.6934646583
 20
76.9649320038
 30
0.0
 10
24.7938035374
 20
77.2177381558
 30
0.0
 10
24.816708649
 20
77.3928007845
 30
0.0
 10
24.8166969862
 20
77.4782054802
 30
0.0
  0
SPLINE
  5
301
100
AcDbEntity
  8
0
100
AcDbSpline
 62
7
  6
BYLAYER
 70
0
 71
3
 72
11
 73
7
 74
0
 42
0.0000001
 43
0.0000001
 44
0.0000000001
 40
0.0
 40
0.0
 40
0.0
 40
0.0
 40
0.2479491859
 40
0.4956850196
 40
0.7449575083
 40
1.0
 40
1.0
 40
1.0
 40
1.0
 10
14.5740700907
 20
100.0953122709
 30
0.0
 10
14.5740700907
 20
100.2683353257
 30
0.0
 10
14.6292677372
 20
100.6165119907
 30
0.0
 10
14.8630903496
 20
101.0885147953
 30
0.0
 10
15.2160768066
 20
101.4839847861
 30
0.0
 10
15.5057236125
 20
101.6888344338
 30
0.0
 10
15.6598528788
 20
101.7778204761
 30
0.0
  0
SPLINE
  5
302
100
AcDbEntity
  8
0
100
AcDbSpline
 62
7
  6
BYLAYER
 70
0
 71
3
 72
11
 73
7
 74
0
 42
0.0000001
 43
0.0000001
 44
0.0000000001
 40
0.0
 40
0.0
 40
0.0
 40
0.0
 40
0.2550463361
 40
0.5043102758
 40
0.7520369707
 40
1.0
 40
1.0
 40
1.0
 40
1.0
 10
95.8558016491
 20
101.7780144453
 30
0.0
 10
96.009935467
 20
101.6890272572
 30
0.0
 10
96.2995867563
 20
101.4841816485
 30
0.0
 10
96.6525636465
 20
101.0887108887
 30
0.0
 10
96.8864089823
 20
100.6167166941
 30
0.0
 10
96.9416024582
 20
100.2685303319
 30
0.0
 10
96.9416024582
 20
100.0954958358
 30
0.0
  0
SPLINE
  5
303
100
AcDbEntity
  8
0
100
AcDbSpline
 62
7
  6
BYLAYER
 70
0
 71
3
 72
11
 73
7
 74
0
 42
0.0000001
 43
0.0000001
 44
0.0000000001
 40
0.0
 40
0.0
 40
0.0
 40
0.0
 40
0.2177817009
 40
0.4509079353
 40
0.7102947134
 40
1.0
 40
1.0
 40
1.0
 40
1.0
 10
14.5740850603
 20
96.5843518772
 30
0.0
 10
14.5740850815
 20
96.470086636
 30
0.0
 10
14.6163117472
 20
96.2319217041
 30
0.0
 10
14.7968654387
 20
95.9000817499
 30
0.0
 10
15.082295153
 20
95.6001120475
 30
0.0
 10
15.3211202794
 20
95.435619104
 30
0.0
 10
15.4527585791
 20
95.3596194156
 30
0.0
  0
SPLINE
  5
304
100
AcDbEntity
  8
0
100
AcDbSpline
 62
7
  6
BYLAYER
 70
0
 71
3
 72
11
 73
7
 74
0
 42
0.0000001
 43
0.0000001
 44
0.0000000001
 40
0.0
 40
0.0
 40
0.0
 40
0.0
 40
0.2177223257
 40
0.4508705615
 40
0.7104663776
 40
1.0
 40
1.0
 40
1.0
 40
1.0
 10
54.2580431251
 20
62.6183632083
 30
0.0
 10
54.2580409239
 20
62.5612470763
 30
0.0
 10
54.2790453281
 20
62.4421613399
 30
0.0
 10
54.3693706113
 20
62.2761927286
 30
0.0
 10
54.5121712614
 20
62.1262847881
 30
0.0
 10
54.6315427307
 20
62.043973807
 30
0.0
 10
54.697321829
 20
62.005997086
 30
0.0
  0
SPLINE
  5
305
100
AcDbEntity
  8
0
100
AcDbSpline
 62
7
  6
BYLAYER
 70
0
 71
3
 72
11
 73
7
 74
0
 42
0.0000001
 43
0.0000001
 44
0.0000000001
 40
0.0
 40
0.0
 40
0.0
 40
0.0
 40
0.2177822878
 40
0.4509146108
 40
0.7103059136
 40
1.0
 40
1.0
 40
1.0
 40
1.0
 10
52.7579913764
 20
57.8826493317
 30
0.0
 10
52.7580069804
 20
57.7683836252
 30
0.0
 10
52.8002094054
 20
57.5302148123
 30
0.0
 10
52.9807763259
 20
57.1983682135
 30
0.0
 10
53.2662096162
 20
56.8984043621
 30
0.0
 10
53.5050326804
 20
56.7339136913
 30
0.0
 10
53.6366660732
 20
56.6579168358
 30
0.0
  0
SPLINE
  5
306
100
AcDbEntity
  8
0
100
AcDbSpline
 62
7
  6
BYLAYER
 70
0
 71
3
 72
11
 73
7
 74
0
 42
0.0000001
 43
0.0000001
 44
0.0000000001
 40
0.0
 40
0.0
 40
0.0
 40
0.0
 40
0.2177817009
 40
0.4509079353
 40
0.7102947134
 40
1.0
 40
1.0
 40
1.0
 40
1.0
 10
64.6070162029
 20
62.0669790808
 30
0.0
 10
64.6070162241
 20
61.9529072178
 30
0.0
 10
64.649171427
 20
61.7151453474
 30
0.0
 10
64.8294195562
 20
61.3838669867
 30
0.0
 10
65.1143662199
 20
61.0844049418
 30
0.0
 10
65.3527871676
 20
60.92019038
 30
0.0
 10
65.4842026874
 20
60.8443193107
 30
0.0
  0
SPLINE
  5
307
100
AcDbEntity
  8
0
100
AcDbSpline
 62
7
  6
BYLAYER
 70
0
 71
3
 72
11
 73
7
 74
0
 42
0.0000001
 43
0.0000001
 44
0.0000000001
 40
0.0
 40
0.0
 40
0.0
 40
0.0
 40
0.2177817009
 40
0.4509079353
 40
0.7102947134
 40
1.0
 40
1.0
 40
1.0
 40
1.0
 10
71.6780545751
 20
66.1494206195
 30
0.0
 10
71.6780545962
 20
66.0353487565
 30
0.0
 10
71.7202097991
 20
65.7975868861
 30
0.0
 10
71.9004579283
 20
65.4663085254
 30
0.0
 10
72.185404592
 20
65.1668464806
 30
0.0
 10
72.4238255397
 20
65.0026319187
 30
0.0
 10
72.5552410596
 20
64.9267608494
 30
0.0
  0
SPLINE
  5
308
100
AcDbEntity
  8
0
100
AcDbSpline
 62
7
  6
BYLAYER
 70
0
 71
3
 72
11
 73
7
 74
0
 42
0.0000001
 43
0.0000001
 44
0.0000000001
 40
0.0
 40
0.0
 40
0.0
 40
0.0
 40
0.2177223257
 40
0.4508705615
 40
0.7104663776
 40
1.0
 40
1.0
 40
1.0
 40
1.0
 10
20.3167763181
 20
82.2139194253
 30
0.0
 10
20.3167741169
 20
82.1568032933
 30
0.0
 10
20.3377785211
 20
82.0377175569
 30
0.0
 10
20.4281038042
 20
81.8717489455
 30
0.0
 10
20.5709044543
 20
81.7218410051
 30
0.0
 10
20.6902759236
 20
81.639530024
 30
0.0
 10
20.756055022
 20
81.601553303
 30
0.0
  0
SPLINE
  5
309
100
AcDbEntity
  8
0
100
AcDbSpline
 62
7
  6
BYLAYER
 70
0
 71
3
 72
13
 73
9
 74
0
 42
0.0000001
 43
0.0000001
 44
0.0000000001
 40
0.0
 40
0.0
 40
0.0
 40
0.0
 40
0.1142253587
 40
0.237559206
 40
0.5000004539
 40
0.7624414493
 40
0.885775028
 40
1.0
 40
1.0
 40
1.0
 40
1.0
 10
72.5552410596
 20
64.9267608494
 30
0.0
 10
72.7001769288
 20
64.8430839793
 30
0.0
 10
73.0172577094
 20
64.6954748465
 30
0.0
 10
73.7198726484
 20
64.482005369
 30
0.0
 10
74.6729744168
 20
64.3783784465
 30
0.0
 10
75.626075391
 20
64.4820096668
 30
0.0
 10
76.3286878857
 20
64.6954826641
 30
0.0
 10
76.6457668847
 20
64.8430933982
 30
0.0
 10
76.7907016599
 20
64.9267710302
 30
0.0
  0
SPLINE
  5
30A
100
AcDbEntity
  8
0
100
AcDbSpline
 62
7
  6
BYLAYER
 70
0
 71
3
 72
11
 73
7
 74
0
 42
0.0000001
 43
0.0000001
 44
0.0000000001
 40
0.0
 40
0.0
 40
0.0
 40
0.0
 40
0.2897048043
 40
0.5490913404
 40
0.7822177947
 40
1.0
 40
1.0
 40
1.0
 40
1.0
 10
76.7907016599
 20
64.9267710302
 30
0.0
 10
76.9221147215
 20
65.0026419438
 30
0.0
 10
77.1605311421
 20
65.1668558183
 30
0.0
 10
77.445471982
 20
65.4663156578
 30
0.0
 10
77.6257162156
 20
65.7975907938
 30
0.0
 10
77.6678705316
 20
66.0353499612
 30
0.0
 10
77.6678705105
 20
66.1494206195
 30
0.0
  0
SPLINE
  5
30B
100
AcDbEntity
  8
0
100
AcDbSpline
 62
7
  6
BYLAYER
 70
0
 71
3
 72
13
 73
9
 74
0
 42
0.0000001
 43
0.0000001
 44
0.0000000001
 40
0.0
 40
0.0
 40
0.0
 40
0.0
 40
0.1142253587
 40
0.237559206
 40
0.5000004539
 40
0.7624414493
 40
0.885775028
 40
1.0
 40
1.0
 40
1.0
 40
1.0
 10
65.4842026874
 20
60.8443193107
 30
0.0
 10
65.6291385567
 20
60.7606424406
 30
0.0
 10
65.9462193373
 20
60.6130333078
 30
0.0
 10
66.6488342763
 20
60.3995638303
 30
0.0
 10
67.6019360446
 20
60.2959369078
 30
0.0
 10
68.5550370189
 20
60.3995681281
 30
0.0
 10
69.2576495135
 20
60.6130411254
 30
0.0
 10
69.5747285126
 20
60.7606518595
 30
0.0
 10
69.7196632878
 20
60.8443294915
 30
0.0
  0
SPLINE
  5
30C
100
AcDbEntity
  8
0
100
AcDbSpline
 62
7
  6
BYLAYER
 70
0
 71
3
 72
11
 73
7
 74
0
 42
0.0000001
 43
0.0000001
 44
0.0000000001
 40
0.0
 40
0.0
 40
0.0
 40
0.0
 40
0.2897048043
 40
0.5490913404
 40
0.7822177947
 40
1.0
 40
1.0
 40
1.0
 40
1.0
 10
69.7196632878
 20
60.8443294915
 30
0.0
 10
69.8510763494
 20
60.9202004051
 30
0.0
 10
70.08949277
 20
61.0844142796
 30
0.0
 10
70.3744336098
 20
61.3838741191
 30
0.0
 10
70.5546778434
 20
61.7151492551
 30
0.0
 10
70.5968321595
 20
61.9529084225
 30
0.0
 10
70.5968321384
 20
62.0669790808
 30
0.0
  0
SPLINE
  5
30D
100
AcDbEntity
  8
0
100
AcDbSpline
 62
7
  6
BYLAYER
 70
0
 71
3
 72
10
 73
6
 74
0
 42
0.0000001
 43
0.0000001
 44
0.0000000001
 40
0.0
 40
0.0
 40
0.0
 40
0.0
 40
0.5247832592
 40
0.7710312646
 40
1.0
 40
1.0
 40
1.0
 40
1.0
 10
60.7135696086
 20
56.2586840019
 30
0.0
 10
61.0659526887
 20
56.2711526237
 30
0.0
 10
61.5848610997
 20
56.3415324616
 30
0.0
 10
62.2256018176
 20
56.5476517343
 30
0.0
 10
62.5153911692
 20
56.6849658726
 30
0.0
 10
62.6486249156
 20
56.7618879528
 30
0.0
  0
SPLINE
  5
30E
100
AcDbEntity
  8
0
100
AcDbSpline
 62
7
  6
BYLAYER
 70
0
 71
3
 72
11
 73
7
 74
0
 42
0.0000001
 43
0.0000001
 44
0.0000000001
 40
0.0
 40
0.0
 40
0.0
 40
0.0
 40
0.2897048043
 40
0.5490913404
 40
0.7822177947
 40
1.0
 40
1.0
 40
1.0
 40
1.0
 10
62.6486249156
 20
56.7618879528
 30
0.0
 10
62.7800379773
 20
56.8377588664
 30
0.0
 10
63.0184543978
 20
57.0019727409
 30
0.0
 10
63.3033952377
 20
57.3014325804
 30
0.0
 10
63.4836394713
 20
57.6327077163
 30
0.0
 10
63.5257937874
 20
57.8704668838
 30
0.0
 10
63.5257937662
 20
57.984537542
 30
0.0
  0
SPLINE
  5
30F
100
AcDbEntity
  8
0
100
AcDbSpline
 62
7
  6
BYLAYER
 70
0
 71
3
 72
11
 73
7
 74
0
 42
0.0000001
 43
0.0000001
 44
0.0000000001
 40
0.0
 40
0.0
 40
0.0
 40
0.0
 40
0.2177822878
 40
0.4509146108
 40
0.7103059136
 40
1.0
 40
1.0
 40
1.0
 40
1.0
 10
18.8167245693
 20
77.4782055486
 30
0.0
 10
18.8167401733
 20
77.3639398422
 30
0.0
 10
18.8589425983
 20
77.1257710292
 30
0.0
 10
19.0395095188
 20
76.7939244305
 30
0.0
 10
19.3249428091
 20
76.4939605791
 30
0.0
 10
19.5637658733
 20
76.3294699083
 30
0.0
 10
19.6953992661
 20
76.2534730528
 30
0.0
  0
SPLINE
  5
310
100
AcDbEntity
  8
0
100
AcDbSpline
 62
7
  6
BYLAYER
 70
0
 71
3
 72
11
 73
7
 74
0
 42
0.0000001
 43
0.0000001
 44
0.0000000001
 40
0.0
 40
0.0
 40
0.0
 40
0.0
 40
0.2177808265
 40
0.4509157082
 40
0.71026666
 40
1.0
 40
1.0
 40
1.0
 40
1.0
 10
18.126730929
 20
82.213919579
 30
0.0
 10
18.126706594
 20
82.3544637311
 30
0.0
 10
18.1786861063
 20
82.6474075138
 30
0.0
 10
18.400730586
 20
83.0555524848
 30
0.0
 10
18.7517853133
 20
83.4245378533
 30
0.0
 10
19.0455475395
 20
83.6268390981
 30
0.0
 10
19.207475892
 20
83.720327918
 30
0.0
  0
SPLINE
  5
311
100
AcDbEntity
  8
0
100
AcDbSpline
 62
7
  6
BYLAYER
 70
0
 71
3
 72
11
 73
7
 74
0
 42
0.0000001
 43
0.0000001
 44
0.0000000001
 40
0.0
 40
0.0
 40
0.0
 40
0.0
 40
0.2177817009
 40
0.4509079353
 40
0.7102947134
 40
1.0
 40
1.0
 40
1.0
 40
1.0
 10
18.1267291904
 20
80.744215183
 30
0.0
 10
18.1267292164
 20
80.6036689362
 30
0.0
 10
18.1786680153
 20
80.31072607
 30
0.0
 10
18.4007490559
 20
79.9025629263
 30
0.0
 10
18.7518276045
 20
79.5336001924
 30
0.0
 10
19.0455825099
 20
79.3312738719
 30
0.0
 10
19.2074976185
 20
79.2377942552
 30
0.0
  0
SPLINE
  5
312
100
AcDbEntity
  8
0
100
AcDbSpline
 62
7
  6
BYLAYER
 70
0
 71
3
 72
17
 73
13
 74
0
 42
0.0000001
 43
0.0000001
 44
0.0000000001
 40
0.0
 40
0.0
 40
0.0
 40
0.0
 40
0.0433265925
 40
0.0894057138
 40
0.1391087011
 40
0.1929651182
 40
0.3131075456
 40
0.4475552421
 40
0.5906396131
 40
0.7351887598
 40
0.873772518
 40
1.0
 40
1.0
 40
1.0
 40
1.0
 10
52.0931125671
 20
60.9004257986
 30
0.0
 10
52.113546985
 20
60.7998654493
 30
0.0
 10
52.1813069323
 20
60.5969554435
 30
0.0
 10
52.3510771985
 20
60.312175147
 30
0.0
 10
52.5871798935
 20
60.0454496332
 30
0.0
 10
52.9979400434
 20
59.7080143198
 30
0.0
 10
53.6522757057
 20
59.3663100566
 30
0.0
 10
54.5620035497
 20
59.1047863259
 30
0.0
 10
55.5600711895
 20
58.9942327374
 30
0.0
 10
56.5727322931
 20
59.043216879
 30
0.0
 10
57.5248572474
 20
59.2475234163
 30
0.0
 10
58.1083054633
 20
59.4927714437
 30
0.0
 10
58.3672124706
 20
59.6422505818
 30
0.0
  0
SPLINE
  5
313
100
AcDbEntity
  8
0
100
AcDbSpline
 62
7
  6
BYLAYER
 70
0
 71
3
 72
11
 73
7
 74
0
 42
0.0000001
 43
0.0000001
 44
0.0000000001
 40
0.0
 40
0.0
 40
0.0
 40
0.0
 40
0.2897452611
 40
0.5490232266
 40
0.7821414993
 40
1.0
 40
1.0
 40
1.0
 40
1.0
 10
58.3672124706
 20
59.6422505818
 30
0.0
 10
58.5291483052
 20
59.7357437214
 30
0.0
 10
58.8229214989
 20
59.9379828026
 30
0.0
 10
59.1738503449
 20
60.3069911938
 30
0.0
 10
59.3960849941
 20
60.7150477067
 30
0.0
 10
59.4479181783
 20
61.0080638842
 30
0.0
 10
59.4479219754
 20
61.1486588767
 30
0.0
  0
SPLINE
  5
314
100
AcDbEntity
  8
0
100
AcDbSpline
 62
7
  6
BYLAYER
 70
0
 71
3
 72
17
 73
13
 74
0
 42
0.0000001
 43
0.0000001
 44
0.0000000001
 40
0.0
 40
0.0
 40
0.0
 40
0.0
 40
0.1286930255
 40
0.2702801155
 40
0.4174389234
 40
0.5617808058
 40
0.6954504305
 40
0.8127136056
 40
0.8646759876
 40
0.9125114232
 40
0.9571388406
 40
1.0
 40
1.0
 40
1.0
 40
1.0
 10
53.6366660732
 20
56.6579168358
 30
0.0
 10
53.8587442783
 20
56.5297028249
 30
0.0
 10
54.361549346
 20
56.3222402981
 30
0.0
 10
55.1810321765
 20
56.1583206079
 30
0.0
 10
56.0477663378
 20
56.1343187021
 30
0.0
 10
56.891033308
 20
56.2528275161
 30
0.0
 10
57.6424531782
 20
56.5038188545
 30
0.0
 10
58.1650822239
 20
56.8219229149
 30
0.0
 10
58.4717654228
 20
57.1297456213
 30
0.0
 10
58.6347314654
 20
57.3693757868
 30
0.0
 10
58.7350703444
 20
57.6221819388
 30
0.0
 10
58.757975456
 20
57.7972445675
 30
0.0
 10
58.7579637933
 20
57.8826492632
 30
0.0
  0
SPLINE
  5
315
100
AcDbEntity
  8
0
100
AcDbSpline
 62
7
  6
BYLAYER
 70
0
 71
3
 72
11
 73
7
 74
0
 42
0.0000001
 43
0.0000001
 44
0.0000000001
 40
0.0
 40
0.0
 40
0.0
 40
0.0
 40
0.2897048043
 40
0.5490913404
 40
0.7822177947
 40
1.0
 40
1.0
 40
1.0
 40
1.0
 10
96.0629316336
 20
95.3598131786
 30
0.0
 10
96.1945674709
 20
95.4358127109
 30
0.0
 10
96.4333880625
 20
95.600304966
 30
0.0
 10
96.718811943
 20
95.9002724594
 30
0.0
 10
96.8993617324
 20
96.2321091834
 30
0.0
 10
96.9415875098
 20
96.4702714077
 30
0.0
 10
96.9415874886
 20
96.5845354421
 30
0.0
  0
SPLINE
  5
316
100
AcDbEntity
  8
0
100
AcDbSpline
 62
7
  6
BYLAYER
 70
0
 71
3
 72
13
 73
9
 74
0
 42
0.0000001
 43
0.0000001
 44
0.0000000001
 40
0.0
 40
0.0
 40
0.0
 40
0.0
 40
0.1142253587
 40
0.237559206
 40
0.5000004539
 40
0.7624414493
 40
0.885775028
 40
1.0
 40
1.0
 40
1.0
 40
1.0
 10
53.636683737
 20
73.3146186715
 30
0.0
 10
53.781865306
 20
73.2307999496
 30
0.0
 10
54.0994836121
 20
73.0829405853
 30
0.0
 10
54.8032896461
 20
72.8691092276
 30
0.0
 10
55.7580071427
 20
72.7653066334
 30
0.0
 10
56.7127238439
 20
72.8691135327
 30
0.0
 10
57.4165274295
 20
73.0829484161
 30
0.0
 10
57.7341439509
 20
73.2308093846
 30
0.0
 10
57.8793244241
 20
73.3146288696
 30
0.0
  0
SPLINE
  5
317
100
AcDbEntity
  8
0
100
AcDbSpline
 62
7
  6
BYLAYER
 70
0
 71
3
 72
13
 73
9
 74
0
 42
0.0000001
 43
0.0000001
 44
0.0000000001
 40
0.0
 40
0.0
 40
0.0
 40
0.0
 40
0.1141764757
 40
0.2375702783
 40
0.5000009872
 40
0.7624311564
 40
0.8858243582
 40
1.0
 40
1.0
 40
1.0
 40
1.0
 10
69.5463964277
 20
135.0008498715
 30
0.0
 10
69.5463964277
 20
135.1125615986
 30
0.0
 10
69.5258056844
 20
135.3452230423
 30
0.0
 10
69.4148480558
 20
135.8228850071
 30
0.0
 10
69.156318805
 20
136.4086355498
 30
0.0
 10
68.7783066378
 20
136.9254016891
 30
0.0
 10
68.4201173038
 20
137.2603211929
 30
0.0
 10
68.2289220115
 20
137.394481707
 30
0.0
 10
68.1321769774
 20
137.4503362148
 30
0.0
  0
SPLINE
  5
318
100
AcDbEntity
  8
0
100
AcDbSpline
 62
7
  6
BYLAYER
 70
0
 71
3
 72
9
 73
5
 74
0
 42
0.0000001
 43
0.0000001
 44
0.0000000001
 40
0.0
 40
0.0
 40
0.0
 40
0.0
 40
0.539606051
 40
1.0
 40
1.0
 40
1.0
 40
1.0
 10
62.4752991762
 20
140.716262251
 30
0.0
 10
62.3526833594
 20
140.7870529244
 30
0.0
 10
62.10970427
 20
140.8946671532
 30
0.0
 10
61.8405109979
 20
140.9180757232
 30
0.0
 10
61.7210582531
 20
140.9000859298
 30
0.0
  0
SPLINE
  5
319
100
AcDbEntity
  8
0
100
AcDbSpline
 62
7
  6
BYLAYER
 70
0
 71
3
 72
9
 73
5
 74
0
 42
0.0000001
 43
0.0000001
 44
0.0000000001
 40
0.0
 40
0.0
 40
0.0
 40
0.0
 40
0.2556801415
 40
1.0
 40
1.0
 40
1.0
 40
1.0
 10
61.7210582531
 20
140.9000859298
 30
0.0
 10
61.6990785825
 20
140.8967757527
 30
0.0
 10
61.6137178473
 20
140.880144152
 30
0.0
 10
61.5313896972
 20
140.8475817029
 30
0.0
 10
61.4753513714
 20
140.8152281573
 30
0.0
  0
SPLINE
  5
31A
100
AcDbEntity
  8
0
100
AcDbSpline
 62
7
  6
BYLAYER
 70
0
 71
3
 72
17
 73
13
 74
0
 42
0.0000001
 43
0.0000001
 44
0.0000000001
 40
0.0
 40
0.0
 40
0.0
 40
0.0
 40
0.1286930255
 40
0.2702801155
 40
0.4174389234
 40
0.5617808058
 40
0.6954504305
 40
0.8127136056
 40
0.8646759876
 40
0.9125114232
 40
0.9571388406
 40
1.0
 40
1.0
 40
1.0
 40
1.0
 10
87.5776502595
 20
76.2536362217
 30
0.0
 10
87.7997284646
 20
76.1254222107
 30
0.0
 10
88.3025335323
 20
75.9179596839
 30
0.0
 10
89.1220163627
 20
75.7540399938
 30
0.0
 10
89.988750524
 20
75.7300380879
 30
0.0
 10
90.8320174943
 20
75.8485469019
 30
0.0
 10
91.5834373644
 20
76.0995382403
 30
0.0
 10
92.1060664102
 20
76.4176423007
 30
0.0
 10
92.4127496091
 20
76.7254650071
 30
0.0
 10
92.5757156517
 20
76.9650951727
 30
0.0
 10
92.6760545307
 20
77.2179013247
 30
0.0
 10
92.6989596423
 20
77.3929639533
 30
0.0
 10
92.6989479795
 20
77.4783686491
 30
0.0
  0
SPLINE
  5
31B
100
AcDbEntity
  8
0
100
AcDbSpline
 62
7
  6
BYLAYER
 70
0
 71
3
 72
12
 73
8
 74
0
 42
0.0000001
 43
0.0000001
 44
0.0000000001
 40
0.0
 40
0.0
 40
0.0
 40
0.0
 40
0.2564286997
 40
0.5376077379
 40
0.6730115155
 40
0.7973434579
 40
1.0
 40
1.0
 40
1.0
 40
1.0
 10
67.3996717649
 20
138.85301654
 30
0.0
 10
67.466621058
 20
138.814364222
 30
0.0
 10
67.6256487575
 20
138.7660323093
 30
0.0
 10
67.8309479523
 20
138.7645763725
 30
0.0
 10
67.9912099568
 20
138.7997936627
 30
0.0
 10
68.1199402282
 20
138.8520924149
 30
0.0
 10
68.2023979927
 20
138.9183481994
 30
0.0
 10
68.2311256614
 20
138.9722679669
 30
0.0
  0
SPLINE
  5
31C
100
AcDbEntity
  8
0
100
AcDbSpline
 62
7
  6
BYLAYER
 70
0
 71
3
 72
11
 73
7
 74
0
 42
0.0000001
 43
0.0000001
 44
0.0000000001
 40
0.0
 40
0.0
 40
0.0
 40
0.0
 40
0.2346798841
 40
0.4769791931
 40
0.7319615605
 40
1.0
 40
1.0
 40
1.0
 40
1.0
 10
36.8593967713
 20
112.42777425
 30
0.0
 10
36.8596177657
 20
112.3518994812
 30
0.0
 10
36.8812450072
 20
112.197033499
 30
0.0
 10
36.9739282346
 20
111.976793625
 30
0.0
 10
37.1199390191
 20
111.7749384201
 30
0.0
 10
37.2424851431
 20
111.6571872639
 30
0.0
 10
37.3092690938
 20
111.6019611814
 30
0.0
  0
SPLINE
  5
31D
100
AcDbEntity
  8
0
100
AcDbSpline
 62
7
  6
BYLAYER
 70
0
 71
3
 72
11
 73
7
 74
0
 42
0.0000001
 43
0.0000001
 44
0.0000000001
 40
0.0
 40
0.0
 40
0.0
 40
0.0
 40
0.2177821605
 40
0.4509085882
 40
0.7102951949
 40
1.0
 40
1.0
 40
1.0
 40
1.0
 10
59.4479591722
 20
62.6183633168
 30
0.0
 10
59.4479591328
 20
62.4778185838
 30
0.0
 10
59.3960215541
 20
62.1848790952
 30
0.0
 10
59.1739452969
 20
61.7767199057
 30
0.0
 10
58.8228738808
 20
61.4077599062
 30
0.0
 10
58.5291245504
 20
61.2054343574
 30
0.0
 10
58.3672124706
 20
61.1119549326
 30
0.0
  0
SPLINE
  5
31E
100
AcDbEntity
  8
0
100
AcDbSpline
 62
7
  6
BYLAYER
 70
0
 71
3
 72
11
 73
7
 74
0
 42
0.0000001
 43
0.0000001
 44
0.0000000001
 40
0.0
 40
0.0
 40
0.0
 40
0.0
 40
0.2177817009
 40
0.4509079353
 40
0.7102947134
 40
1.0
 40
1.0
 40
1.0
 40
1.0
 10
63.5257937662
 20
57.984537542
 30
0.0
 10
63.5257937451
 20
58.0986094051
 30
0.0
 10
63.4836385422
 20
58.3363712755
 30
0.0
 10
63.303390413
 20
58.6676496362
 30
0.0
 10
63.0184437493
 20
58.967111681
 30
0.0
 10
62.7800228016
 20
59.1313262428
 30
0.0
 10
62.6486072817
 20
59.2071973122
 30
0.0
  0
SPLINE
  5
31F
100
AcDbEntity
  8
0
100
AcDbSpline
 62
7
  6
BYLAYER
 70
0
 71
3
 72
11
 73
7
 74
0
 42
0.0000001
 43
0.0000001
 44
0.0000000001
 40
0.0
 40
0.0
 40
0.0
 40
0.0
 40
0.2177817009
 40
0.4509079353
 40
0.7102947134
 40
1.0
 40
1.0
 40
1.0
 40
1.0
 10
70.5968321384
 20
62.0669790808
 30
0.0
 10
70.5968321172
 20
62.1810509438
 30
0.0
 10
70.5546769143
 20
62.4188128142
 30
0.0
 10
70.3744287851
 20
62.7500911749
 30
0.0
 10
70.0894821214
 20
63.0495532197
 30
0.0
 10
69.8510611737
 20
63.2137677815
 30
0.0
 10
69.7196456539
 20
63.2896388509
 30
0.0
  0
SPLINE
  5
320
100
AcDbEntity
  8
0
100
AcDbSpline
 62
7
  6
BYLAYER
 70
0
 71
3
 72
11
 73
7
 74
0
 42
0.0000001
 43
0.0000001
 44
0.0000000001
 40
0.0
 40
0.0
 40
0.0
 40
0.0
 40
0.2177817009
 40
0.4509079353
 40
0.7102947134
 40
1.0
 40
1.0
 40
1.0
 40
1.0
 10
77.6678705105
 20
66.1494206195
 30
0.0
 10
77.6678704894
 20
66.2634924825
 30
0.0
 10
77.6257152865
 20
66.5012543529
 30
0.0
 10
77.4454671572
 20
66.8325327136
 30
0.0
 10
77.1605204935
 20
67.1319947584
 30
0.0
 10
76.9220995459
 20
67.2962093203
 30
0.0
 10
76.790684026
 20
67.3720803896
 30
0.0
  0
SPLINE
  5
321
100
AcDbEntity
  8
0
100
AcDbSpline
 62
7
  6
BYLAYER
 70
0
 71
3
 72
15
 73
11
 74
0
 42
0.0000001
 43
0.0000001
 44
0.0000000001
 40
0.0
 40
0.0
 40
0.0
 40
0.0
 40
0.1141231812
 40
0.2373468278
 40
0.366971913
 40
0.4999994099
 40
0.6330269884
 40
0.76265231
 40
0.885876356
 40
1.0
 40
1.0
 40
1.0
 40
1.0
 10
92.3081966569
 20
80.7076743185
 30
0.0
 10
92.1296247347
 20
80.6045763865
 30
0.0
 10
91.7389731509
 20
80.4227526662
 30
0.0
 10
91.102965963
 20
80.2293197021
 30
0.0
 10
90.4142710233
 20
80.1103995045
 30
0.0
 10
89.6989773941
 20
80.0701801514
 30
0.0
 10
88.9836831448
 20
80.1103960278
 30
0.0
 10
88.2949863213
 20
80.229312906
 30
0.0
 10
87.6589761765
 20
80.4227429225
 30
0.0
 10
87.2683220016
 20
80.6045647125
 30
0.0
 10
87.0897486118
 20
80.7076617749
 30
0.0
  0
SPLINE
  5
322
100
AcDbEntity
  8
0
100
AcDbSpline
 62
7
  6
BYLAYER
 70
0
 71
3
 72
17
 73
13
 74
0
 42
0.0000001
 43
0.0000001
 44
0.0000000001
 40
0.0
 40
0.0
 40
0.0
 40
0.0
 40
0.1262274491
 40
0.2648111769
 40
0.4093603065
 40
0.5524446754
 40
0.6868923837
 40
0.8070348327
 40
0.8608912595
 40
0.910594263
 40
0.956673401
 40
1.0
 40
1.0
 40
1.0
 40
1.0
 10
58.3672124706
 20
61.1119549326
 30
0.0
 10
58.1083055311
 20
60.9624758336
 30
0.0
 10
57.5248574667
 20
60.7172278435
 30
0.0
 10
56.5727327119
 20
60.5129212932
 30
0.0
 10
55.5600717323
 20
60.4639370755
 30
0.0
 10
54.5620041
 20
60.5744905688
 30
0.0
 10
53.6522761616
 20
60.8360142271
 30
0.0
 10
52.9979403598
 20
61.1777184524
 30
0.0
 10
52.5871800974
 20
61.5151538024
 30
0.0
 10
52.3510772873
 20
61.7818793537
 30
0.0
 10
52.1813069899
 20
62.0666597397
 30
0.0
 10
52.1135469881
 20
62.2695697849
 30
0.0
 10
52.0931125671
 20
62.3701301495
 30
0.0
  0
SPLINE
  5
323
100
AcDbEntity
  8
0
100
AcDbSpline
 62
7
  6
BYLAYER
 70
0
 71
3
 72
14
 73
10
 74
0
 42
0.0000001
 43
0.0000001
 44
0.0000000001
 40
0.0
 40
0.0
 40
0.0
 40
0.0
 40
0.3072252905
 40
0.4497661238
 40
0.5815886869
 40
0.7013969738
 40
0.8093589884
 40
0.9075168557
 40
1.0
 40
1.0
 40
1.0
 40
1.0
 10
21.3867826897
 20
80.0980369111
 30
0.0
 10
20.9560927765
 20
80.1272068337
 30
0.0
 10
20.3259475007
 20
80.2337330174
 30
0.0
 10
19.5568562635
 20
80.5151617723
 30
0.0
 10
19.0660705075
 20
80.7764489341
 30
0.0
 10
18.6629216656
 20
81.0855355543
 30
0.0
 10
18.3604416563
 20
81.4345859045
 30
0.0
 10
18.1706183845
 20
81.8144848973
 30
0.0
 10
18.1267534289
 20
82.0839732179
 30
0.0
 10
18.126730929
 20
82.213919579
 30
0.0
  0
SPLINE
  5
324
100
AcDbEntity
  8
0
100
AcDbSpline
 62
7
  6
BYLAYER
 70
0
 71
3
 72
11
 73
7
 74
0
 42
0.0000001
 43
0.0000001
 44
0.0000000001
 40
0.0
 40
0.0
 40
0.0
 40
0.0
 40
0.2177491131
 40
0.4508632789
 40
0.7103391504
 40
1.0
 40
1.0
 40
1.0
 40
1.0
 10
74.6565212163
 20
138.5490418278
 30
0.0
 10
74.6564731136
 20
138.4538361698
 30
0.0
 10
74.6214434551
 20
138.2553762271
 30
0.0
 10
74.4709286777
 20
137.9788170417
 30
0.0
 10
74.2330196264
 20
137.7288946172
 30
0.0
 10
74.0340169841
 20
137.5917633421
 30
0.0
 10
73.9243369695
 20
137.5284399342
 30
0.0
  0
SPLINE
  5
325
100
AcDbEntity
  8
0
100
AcDbSpline
 62
7
  6
BYLAYER
 70
0
 71
3
 72
16
 73
12
 74
0
 42
0.0000001
 43
0.0000001
 44
0.0000000001
 40
0.0
 40
0.0
 40
0.0
 40
0.0
 40
0.1287407842
 40
0.2704216738
 40
0.4176264892
 40
0.5620283504
 40
0.6957542622
 40
0.8130692111
 40
0.9124720203
 40
0.9571212591
 40
1.0
 40
1.0
 40
1.0
 40
1.0
 10
56.8186333407
 20
63.2307295476
 30
0.0
 10
56.7076024067
 20
63.294831837
 30
0.0
 10
56.4561704334
 20
63.398543559
 30
0.0
 10
56.0464429921
 20
63.4805630951
 30
0.0
 10
55.6130411023
 20
63.4924820102
 30
0.0
 10
55.1915223312
 20
63.4333633786
 30
0.0
 10
54.8155271832
 20
63.3074923232
 30
0.0
 10
54.5142434214
 20
63.124657946
 30
0.0
 10
54.3387907259
 20
62.923104508
 30
0.0
 10
54.2693825826
 20
62.748612333
 30
0.0
 10
54.2580447708
 20
62.6610640838
 30
0.0
 10
54.2580431251
 20
62.6183632083
 30
0.0
  0
SPLINE
  5
326
100
AcDbEntity
  8
0
100
AcDbSpline
 62
7
  6
BYLAYER
 70
0
 71
3
 72
16
 73
12
 74
0
 42
0.0000001
 43
0.0000001
 44
0.0000000001
 40
0.0
 40
0.0
 40
0.0
 40
0.0
 40
0.1287407842
 40
0.2704216738
 40
0.4176264892
 40
0.5620283504
 40
0.6957542622
 40
0.8130692111
 40
0.9124720203
 40
0.9571212591
 40
1.0
 40
1.0
 40
1.0
 40
1.0
 10
90.7596175269
 20
82.8264489334
 30
0.0
 10
90.6485865929
 20
82.8905512229
 30
0.0
 10
90.3971546196
 20
82.9942629448
 30
0.0
 10
89.9874271784
 20
83.0762824809
 30
0.0
 10
89.5540252886
 20
83.088201396
 30
0.0
 10
89.1325065175
 20
83.0290827644
 30
0.0
 10
88.7565113695
 20
82.903211709
 30
0.0
 10
88.4552276077
 20
82.7203773318
 30
0.0
 10
88.2797749122
 20
82.5188238938
 30
0.0
 10
88.2103667689
 20
82.3443317189
 30
0.0
 10
88.199028957
 20
82.2567834696
 30
0.0
 10
88.1990273114
 20
82.2140825942
 30
0.0
  0
SPLINE
  5
327
100
AcDbEntity
  8
0
100
AcDbSpline
 62
7
  6
BYLAYER
 70
0
 71
3
 72
11
 73
7
 74
0
 42
0.0000001
 43
0.0000001
 44
0.0000000001
 40
0.0
 40
0.0
 40
0.0
 40
0.0
 40
0.2177223257
 40
0.4508705615
 40
0.7104663776
 40
1.0
 40
1.0
 40
1.0
 40
1.0
 10
91.1988962308
 20
82.2140828111
 30
0.0
 10
91.198898432
 20
82.2711989431
 30
0.0
 10
91.1778940278
 20
82.3902846796
 30
0.0
 10
91.0875687447
 20
82.5562532909
 30
0.0
 10
90.9447680946
 20
82.7061612314
 30
0.0
 10
90.8253966253
 20
82.7884722125
 30
0.0
 10
90.7596175269
 20
82.8264489334
 30
0.0
  0
SPLINE
  5
328
100
AcDbEntity
  8
0
100
AcDbSpline
 62
7
  6
BYLAYER
 70
0
 71
3
 72
16
 73
12
 74
0
 42
0.0000001
 43
0.0000001
 44
0.0000000001
 40
0.0
 40
0.0
 40
0.0
 40
0.0
 40
0.1287407842
 40
0.2704216738
 40
0.4176264892
 40
0.5620283504
 40
0.6957542622
 40
0.8130692111
 40
0.9124720203
 40
0.9571212591
 40
1.0
 40
1.0
 40
1.0
 40
1.0
 10
22.8773665336
 20
82.8262857646
 30
0.0
 10
22.7663355996
 20
82.890388054
 30
0.0
 10
22.5149036263
 20
82.994099776
 30
0.0
 10
22.1051761851
 20
83.0761193121
 30
0.0
 10
21.6717742953
 20
83.0880382271
 30
0.0
 10
21.2502555241
 20
83.0289195955
 30
0.0
 10
20.8742603761
 20
82.9030485401
 30
0.0
 10
20.5729766144
 20
82.720214163
 30
0.0
 10
20.3975239189
 20
82.518660725
 30
0.0
 10
20.3281157756
 20
82.34416855
 30
0.0
 10
20.3167779637
 20
82.2566203007
 30
0.0
 10
20.3167763181
 20
82.2139194253
 30
0.0
  0
SPLINE
  5
329
100
AcDbEntity
  8
0
100
AcDbSpline
 62
7
  6
BYLAYER
 70
0
 71
3
 72
23
 73
19
 74
0
 42
0.0000001
 43
0.0000001
 44
0.0000000001
 40
0.0
 40
0.0
 40
0.0
 40
0.0
 40
0.0564536875
 40
0.1067499866
 40
0.1512128731
 40
0.1908395942
 40
0.2275000435
 40
0.2640396346
 40
0.3035519044
 40
0.3485935623
 40
0.4008054607
 40
0.461154529
 40
0.5300366671
 40
0.6075527596
 40
0.6935752886
 40
0.7879067763
 40
0.8902520344
 40
1.0
 40
1.0
 40
1.0
 40
1.0
 10
33.2578710899
 20
107.6254349545
 30
0.0
 10
33.2578457856
 20
107.444352804
 30
0.0
 10
33.2794726078
 20
107.1012125333
 30
0.0
 10
33.3876291986
 20
106.6258364067
 30
0.0
 10
33.5670504169
 20
106.2297980092
 30
0.0
 10
33.8153621457
 20
105.9254927455
 30
0.0
 10
34.1279844279
 20
105.7285990167
 30
0.0
 10
34.4909140926
 20
105.6584481417
 30
0.0
 10
34.8810804484
 20
105.7201403593
 30
0.0
 10
35.2813750465
 20
105.9110103415
 30
0.0
 10
35.679230553
 20
106.2285419582
 30
0.0
 10
36.061229051
 20
106.6712287728
 30
0.0
 10
36.4141257388
 20
107.2352782457
 30
0.0
 10
36.7242832236
 20
107.9152665752
 30
0.0
 10
36.9794386997
 20
108.7037719583
 30
0.0
 10
37.169153923
 20
109.5919788484
 30
0.0
 10
37.2848007828
 20
110.5692569035
 30
0.0
 10
37.3092685679
 20
111.2499310959
 30
0.0
 10
37.3092690946
 20
111.6019612057
 30
0.0
  0
SPLINE
  5
32A
100
AcDbEntity
  8
0
100
AcDbSpline
 62
7
  6
BYLAYER
 70
0
 71
3
 72
14
 73
10
 74
0
 42
0.0000001
 43
0.0000001
 44
0.0000000001
 40
0.0
 40
0.0
 40
0.0
 40
0.0
 40
0.117394257
 40
0.2378553026
 40
0.3616578191
 40
0.4883101794
 40
0.6167049762
 40
0.7456379444
 40
1.0
 40
1.0
 40
1.0
 40
1.0
 10
34.8609559145
 20
112.4684182215
 30
0.0
 10
34.915922098
 20
112.5337132372
 30
0.0
 10
35.038415569
 20
112.6570712007
 30
0.0
 10
35.2527873671
 20
112.8113132727
 30
0.0
 10
35.4951587666
 20
112.9319535373
 30
0.0
 10
35.757349244
 20
113.0189733403
 30
0.0
 10
36.0323931257
 20
113.0714492671
 30
0.0
 10
36.4043789519
 20
113.0945466415
 30
0.0
 10
36.6841522998
 20
113.0659431496
 30
0.0
 10
36.8654728914
 20
113.0295746972
 30
0.0
  0
SPLINE
  5
32B
100
AcDbEntity
  8
0
100
AcDbSpline
 62
7
  6
BYLAYER
 70
0
 71
3
 72
11
 73
7
 74
0
 42
0.0000001
 43
0.0000001
 44
0.0000000001
 40
0.0
 40
0.0
 40
0.0
 40
0.0
 40
0.2177470838
 40
0.450887992
 40
0.7104637237
 40
1.0
 40
1.0
 40
1.0
 40
1.0
 10
61.7581929071
 20
140.9785258193
 30
0.0
 10
61.8241524678
 20
141.0166073823
 30
0.0
 10
61.9756577418
 20
141.0717801565
 30
0.0
 10
62.2275232114
 20
141.0780936258
 30
0.0
 10
62.4958118344
 20
141.0131551873
 30
0.0
 10
62.6704345186
 20
140.9301959609
 30
0.0
 10
62.7581407111
 20
140.8795599126
 30
0.0
  0
SPLINE
  5
32C
100
AcDbEntity
  8
0
100
AcDbSpline
 62
7
  6
BYLAYER
 70
0
 71
3
 72
11
 73
7
 74
0
 42
0.0000001
 43
0.0000001
 44
0.0000000001
 40
0.0
 40
0.0
 40
0.0
 40
0.0
 40
0.2177223257
 40
0.4508705615
 40
0.7104663776
 40
1.0
 40
1.0
 40
1.0
 40
1.0
 10
23.3166452375
 20
82.2139196422
 30
0.0
 10
23.3166474387
 20
82.2710357743
 30
0.0
 10
23.2956430345
 20
82.3901215107
 30
0.0
 10
23.2053177513
 20
82.556090122
 30
0.0
 10
23.0625171013
 20
82.7059980625
 30
0.0
 10
22.9431456319
 20
82.7883090436
 30
0.0
 10
22.8773665336
 20
82.8262857646
 30
0.0
  0
SPLINE
  5
32D
100
AcDbEntity
  8
0
100
AcDbSpline
 62
7
  6
BYLAYER
 70
0
 71
3
 72
13
 73
9
 74
0
 42
0.0000001
 43
0.0000001
 44
0.0000000001
 40
0.0
 40
0.0
 40
0.0
 40
0.0
 40
0.1142253587
 40
0.237559206
 40
0.5000004539
 40
0.7624414493
 40
0.885775028
 40
1.0
 40
1.0
 40
1.0
 40
1.0
 10
76.790684026
 20
67.3720803896
 30
0.0
 10
76.6457481568
 20
67.4557572597
 30
0.0
 10
76.3286673761
 20
67.6033663925
 30
0.0
 10
75.6260524372
 20
67.8168358699
 30
0.0
 10
74.6729506688
 20
67.9204627925
 30
0.0
 10
73.7198496946
 20
67.8168315722
 30
0.0
 10
73.0172371999
 20
67.6033585749
 30
0.0
 10
72.7001582008
 20
67.4557478408
 30
0.0
 10
72.5552234257
 20
67.3720702088
 30
0.0
  0
SPLINE
  5
32E
100
AcDbEntity
  8
0
100
AcDbSpline
 62
7
  6
BYLAYER
 70
0
 71
3
 72
11
 73
7
 74
0
 42
0.0000001
 43
0.0000001
 44
0.0000000001
 40
0.0
 40
0.0
 40
0.0
 40
0.0
 40
0.2897048043
 40
0.5490913404
 40
0.7822177947
 40
1.0
 40
1.0
 40
1.0
 40
1.0
 10
72.5552234257
 20
67.3720702088
 30
0.0
 10
72.423810364
 20
67.2961992952
 30
0.0
 10
72.1853939435
 20
67.1319854207
 30
0.0
 10
71.9004531036
 20
66.8325255812
 30
0.0
 10
71.72020887
 20
66.5012504452
 30
0.0
 10
71.6780545539
 20
66.2634912778
 30
0.0
 10
71.6780545751
 20
66.1494206195
 30
0.0
  0
SPLINE
  5
32F
100
AcDbEntity
  8
0
100
AcDbSpline
 62
7
  6
BYLAYER
 70
0
 71
3
 72
11
 73
7
 74
0
 42
0.0000001
 43
0.0000001
 44
0.0000000001
 40
0.0
 40
0.0
 40
0.0
 40
0.0
 40
0.2077035536
 40
0.4389043447
 40
0.7023530666
 40
1.0
 40
1.0
 40
1.0
 40
1.0
 10
68.1645041276
 20
143.5213592509
 30
0.0
 10
68.1145529636
 20
143.5316578308
 30
0.0
 10
68.0048057093
 20
143.5351431294
 30
0.0
 10
67.8361059908
 20
143.4921328343
 30
0.0
 10
67.6612401275
 20
143.4043249005
 30
0.0
 10
67.5493422405
 20
143.3230021039
 30
0.0
 10
67.4930185389
 20
143.2764251563
 30
0.0
  0
SPLINE
  5
330
100
AcDbEntity
  8
0
100
AcDbSpline
 62
7
  6
BYLAYER
 70
0
 71
3
 72
13
 73
9
 74
0
 42
0.0000001
 43
0.0000001
 44
0.0000000001
 40
0.0
 40
0.0
 40
0.0
 40
0.0
 40
0.1142253587
 40
0.237559206
 40
0.5000004539
 40
0.7624414493
 40
0.885775028
 40
1.0
 40
1.0
 40
1.0
 40
1.0
 10
69.7196456539
 20
63.2896388509
 30
0.0
 10
69.5747097846
 20
63.373315721
 30
0.0
 10
69.257629004
 20
63.5209248538
 30
0.0
 10
68.555014065
 20
63.7343943312
 30
0.0
 10
67.6019122967
 20
63.8380212538
 30
0.0
 10
66.6488113224
 20
63.7343900335
 30
0.0
 10
65.9461988278
 20
63.5209170362
 30
0.0
 10
65.6291198287
 20
63.3733063021
 30
0.0
 10
65.4841850535
 20
63.2896286701
 30
0.0
  0
SPLINE
  5
331
100
AcDbEntity
  8
0
100
AcDbSpline
 62
7
  6
BYLAYER
 70
0
 71
3
 72
11
 73
7
 74
0
 42
0.0000001
 43
0.0000001
 44
0.0000000001
 40
0.0
 40
0.0
 40
0.0
 40
0.0
 40
0.2897048043
 40
0.5490913404
 40
0.7822177947
 40
1.0
 40
1.0
 40
1.0
 40
1.0
 10
65.4841850535
 20
63.2896286701
 30
0.0
 10
65.3527719919
 20
63.2137577565
 30
0.0
 10
65.1143555713
 20
63.049543882
 30
0.0
 10
64.8294147315
 20
62.7500840425
 30
0.0
 10
64.6491704979
 20
62.4188089065
 30
0.0
 10
64.6070161818
 20
62.1810497391
 30
0.0
 10
64.6070162029
 20
62.0669790808
 30
0.0
  0
SPLINE
  5
332
100
AcDbEntity
  8
0
100
AcDbSpline
 62
7
  6
BYLAYER
 70
0
 71
3
 72
11
 73
7
 74
0
 42
0.0000001
 43
0.0000001
 44
0.0000000001
 40
0.0
 40
0.0
 40
0.0
 40
0.0
 40
0.2177019728
 40
0.4508368849
 40
0.7104703378
 40
1.0
 40
1.0
 40
1.0
 40
1.0
 10
38.0056057845
 20
127.2650484442
 30
0.0
 10
38.071545749
 20
127.3031328535
 30
0.0
 10
38.2230380641
 20
127.358288496
 30
0.0
 10
38.4749055611
 20
127.3646453207
 30
0.0
 10
38.7432025503
 20
127.2996559983
 30
0.0
 10
38.9178505727
 20
127.2167150795
 30
0.0
 10
39.0055550291
 20
127.1660800335
 30
0.0
  0
SPLINE
  5
333
100
AcDbEntity
  8
0
100
AcDbSpline
 62
7
  6
BYLAYER
 70
0
 71
3
 72
10
 73
6
 74
0
 42
0.0000001
 43
0.0000001
 44
0.0000000001
 40
0.0
 40
0.0
 40
0.0
 40
0.0
 40
0.2289691552
 40
0.4752171893
 40
1.0
 40
1.0
 40
1.0
 40
1.0
 10
62.6486072817
 20
59.2071973122
 30
0.0
 10
62.5153740919
 20
59.28411779
 30
0.0
 10
62.2255867144
 20
59.4214290679
 30
0.0
 10
61.5848518279
 20
59.6275439914
 30
0.0
 10
61.065949059
 20
59.6979225882
 30
0.0
 10
60.7135698657
 20
59.7103910849
 30
0.0
  0
SPLINE
  5
334
100
AcDbEntity
  8
0
100
AcDbSpline
 62
7
  6
BYLAYER
 70
0
 71
3
 72
25
 73
21
 74
0
 42
0.0000001
 43
0.0000001
 44
0.0000000001
 40
0.0
 40
0.0
 40
0.0
 40
0.0
 40
0.0213320983
 40
0.0428927279
 40
0.0648979497
 40
0.0875430092
 40
0.1353181257
 40
0.1872188795
 40
0.243656234
 40
0.3046037786
 40
0.3696912665
 40
0.4382884086
 40
0.5095748477
 40
0.5825991774
 40
0.6563311429
 40
0.7297074864
 40
0.8016840761
 40
0.8712750897
 40
0.9376185808
 40
1.0
 40
1.0
 40
1.0
 40
1.0
 10
33.2578765699
 20
100.9119063008
 30
0.0
 10
33.2578558217
 20
100.5927148783
 30
0.0
 10
33.2990590373
 20
99.9501681396
 30
0.0
 10
33.4837074411
 20
98.994385886
 30
0.0
 10
33.7898893745
 20
98.0495976122
 30
0.0
 10
34.3676753196
 20
96.7901610076
 30
0.0
 10
35.4042974143
 20
95.2646886984
 30
0.0
 10
37.0603355688
 20
93.6020483203
 30
0.0
 10
39.112612244
 20
92.102312431
 30
0.0
 10
41.5171760688
 20
90.7945334351
 30
0.0
 10
44.2237504747
 20
89.7041475964
 30
0.0
 10
47.1754506362
 20
88.8534890302
 30
0.0
 10
50.3098824852
 20
88.2602723773
 30
0.0
 10
53.5604599864
 20
87.9370265666
 30
0.0
 10
56.857898236
 20
87.8906471434
 30
0.0
 10
60.1318857215
 20
88.1220684321
 30
0.0
 10
63.312525343
 20
88.6264488436
 30
0.0
 10
66.3324933583
 20
89.3930305643
 30
0.0
 10
69.1270293501
 20
90.4056444446
 30
0.0
 10
70.8594462951
 20
91.2597861116
 30
0.0
 10
71.6678050902
 20
91.7264894938
 30
0.0
  0
SPLINE
  5
335
100
AcDbEntity
  8
0
100
AcDbSpline
 62
7
  6
BYLAYER
 70
0
 71
3
 72
9
 73
5
 74
0
 42
0.0000001
 43
0.0000001
 44
0.0000000001
 40
0.0
 40
0.0
 40
0.0
 40
0.0
 40
0.2335745079
 40
1.0
 40
1.0
 40
1.0
 40
1.0
 10
64.8983918222
 20
140.2970967163
 30
0.0
 10
64.913233443
 20
140.3056664108
 30
0.0
 10
64.9788022638
 20
140.3388183314
 30
0.0
 10
65.0503751509
 20
140.3592524571
 30
0.0
 10
65.1057540013
 20
140.3690275882
 30
0.0
  0
SPLINE
  5
336
100
AcDbEntity
  8
0
100
AcDbSpline
 62
7
  6
BYLAYER
 70
0
 71
3
 72
11
 73
7
 74
0
 42
0.0000001
 43
0.0000001
 44
0.0000000001
 40
0.0
 40
0.0
 40
0.0
 40
0.0
 40
0.2177808265
 40
0.4509157082
 40
0.71026666
 40
1.0
 40
1.0
 40
1.0
 40
1.0
 10
93.3889416199
 20
82.2140826574
 30
0.0
 10
93.3889659548
 20
82.0735385053
 30
0.0
 10
93.3369864426
 20
81.7805947226
 30
0.0
 10
93.1149419628
 20
81.3724497516
 30
0.0
 10
92.7638872356
 20
81.0034643832
 30
0.0
 10
92.4701250094
 20
80.8011631383
 30
0.0
 10
92.3081966569
 20
80.7076743185
 30
0.0
  0
SPLINE
  5
337
100
AcDbEntity
  8
0
100
AcDbSpline
 62
7
  6
BYLAYER
 70
0
 71
3
 72
11
 73
7
 74
0
 42
0.0000001
 43
0.0000001
 44
0.0000000001
 40
0.0
 40
0.0
 40
0.0
 40
0.0
 40
0.2176492701
 40
0.4508387353
 40
0.7105901018
 40
1.0
 40
1.0
 40
1.0
 40
1.0
 10
87.8586908082
 20
32.2889537288
 30
0.0
 10
87.8586960597
 20
32.3079856519
 30
0.0
 10
87.8516564975
 20
32.3476693504
 30
0.0
 10
87.8215830067
 20
32.4030181022
 30
0.0
 10
87.7739472541
 20
32.4529664192
 30
0.0
 10
87.7341718946
 20
32.4804225035
 30
0.0
 10
87.7122553571
 20
32.4930757361
 30
0.0
  0
SPLINE
  5
338
100
AcDbEntity
  8
0
100
AcDbSpline
 62
7
  6
BYLAYER
 70
0
 71
3
 72
11
 73
7
 74
0
 42
0.0000001
 43
0.0000001
 44
0.0000000001
 40
0.0
 40
0.0
 40
0.0
 40
0.0
 40
0.2271880925
 40
0.4646980694
 40
0.7209124268
 40
1.0
 40
1.0
 40
1.0
 40
1.0
 10
89.7172588095
 20
32.081922042
 30
0.0
 10
89.717289916
 20
32.022225475
 30
0.0
 10
89.7004826966
 20
31.8995562697
 30
0.0
 10
89.6267973387
 20
31.7230874501
 30
0.0
 10
89.5074828309
 20
31.5569925501
 30
0.0
 10
89.4048614336
 20
31.4596243057
 30
0.0
 10
89.3479599222
 20
31.4133634345
 30
0.0
  0
SPLINE
  5
339
100
AcDbEntity
  8
0
100
AcDbSpline
 62
7
  6
BYLAYER
 70
0
 71
3
 72
11
 73
7
 74
0
 42
0.0000001
 43
0.0000001
 44
0.0000000001
 40
0.0
 40
0.0
 40
0.0
 40
0.0
 40
0.2177508335
 40
0.4508940037
 40
0.710465094
 40
1.0
 40
1.0
 40
1.0
 40
1.0
 10
15.6598761078
 20
101.7777802422
 30
0.0
 10
15.6928566157
 20
101.7968214376
 30
0.0
 10
15.7686102645
 20
101.8244090605
 30
0.0
 10
15.8945439204
 20
101.8275668154
 30
0.0
 10
16.02868839
 20
101.7950968758
 30
0.0
 10
16.115997543
 20
101.7536142219
 30
0.0
 10
16.1598506404
 20
101.728296197
 30
0.0
  0
SPLINE
  5
33A
100
AcDbEntity
  8
0
100
AcDbSpline
 62
7
  6
BYLAYER
 70
0
 71
3
 72
11
 73
7
 74
0
 42
0.0000001
 43
0.0000001
 44
0.0000000001
 40
0.0
 40
0.0
 40
0.0
 40
0.0
 40
0.2372480941
 40
0.5000010917
 40
0.7627534955
 40
1.0
 40
1.0
 40
1.0
 40
1.0
 10
96.0629316336
 20
98.8707735723
 30
0.0
 10
96.0629316336
 20
98.9866968114
 30
0.0
 10
96.0194719658
 20
99.2311705519
 30
0.0
 10
95.86786783
 20
99.5746521312
 30
0.0
 10
95.6462052135
 20
99.8776843204
 30
0.0
 10
95.4562142736
 20
100.0375564961
 30
0.0
 10
95.3558219085
 20
100.0955167439
 30
0.0
  0
SPLINE
  5
33B
100
AcDbEntity
  8
0
100
AcDbSpline
 62
7
  6
BYLAYER
 70
0
 71
3
 72
11
 73
7
 74
0
 42
0.0000001
 43
0.0000001
 44
0.0000000001
 40
0.0
 40
0.0
 40
0.0
 40
0.0
 40
0.2895353844
 40
0.5491065881
 40
0.7822495581
 40
1.0
 40
1.0
 40
1.0
 40
1.0
 10
95.3558101326
 20
101.7284865607
 30
0.0
 10
95.3996626074
 20
101.7538046477
 30
0.0
 10
95.4869705098
 20
101.7952875303
 30
0.0
 10
95.621113202
 20
101.8277582305
 30
0.0
 10
95.7470453308
 20
101.8246015876
 30
0.0
 10
95.8227982208
 20
101.7970149135
 30
0.0
 10
95.8557784205
 20
101.7779742112
 30
0.0
  0
SPLINE
  5
33C
100
AcDbEntity
  8
0
100
AcDbSpline
 62
7
  6
BYLAYER
 70
0
 71
3
 72
11
 73
7
 74
0
 42
0.0000001
 43
0.0000001
 44
0.0000000001
 40
0.0
 40
0.0
 40
0.0
 40
0.0
 40
0.2372483561
 40
0.5000016178
 40
0.7627539995
 40
1.0
 40
1.0
 40
1.0
 40
1.0
 10
53.636683737
 20
76.8255790652
 30
0.0
 10
53.636683737
 20
76.9415023664
 30
0.0
 10
53.6801430471
 20
77.1859762161
 30
0.0
 10
53.8317458173
 20
77.5294583787
 30
0.0
 10
54.0534064449
 20
77.8324915347
 30
0.0
 10
54.2433958974
 20
77.9923648205
 30
0.0
 10
54.3437875742
 20
78.0503256362
 30
0.0
  0
SPLINE
  5
33D
100
AcDbEntity
  8
0
100
AcDbSpline
 62
7
  6
BYLAYER
 70
0
 71
3
 72
11
 73
7
 74
0
 42
0.0000001
 43
0.0000001
 44
0.0000000001
 40
0.0
 40
0.0
 40
0.0
 40
0.0
 40
0.2372465045
 40
0.4999989083
 40
0.7627519059
 40
1.0
 40
1.0
 40
1.0
 40
1.0
 10
57.1722146989
 20
78.0503324349
 30
0.0
 10
57.272607064
 20
77.9923721871
 30
0.0
 10
57.462598004
 20
77.8325000114
 30
0.0
 10
57.6842606205
 20
77.5294678221
 30
0.0
 10
57.8358647562
 20
77.1859862428
 30
0.0
 10
57.8793244241
 20
76.9415125023
 30
0.0
 10
57.8793244241
 20
76.8255892632
 30
0.0
  0
SPLINE
  5
33E
100
AcDbEntity
  8
0
100
AcDbSpline
 62
7
  6
BYLAYER
 70
0
 71
3
 72
13
 73
9
 74
0
 42
0.0000001
 43
0.0000001
 44
0.0000000001
 40
0.0
 40
0.0
 40
0.0
 40
0.0
 40
0.1142233651
 40
0.237555422
 40
0.4999994775
 40
0.7624438189
 40
0.88577621
 40
1.0
 40
1.0
 40
1.0
 40
1.0
 10
57.8793244241
 20
76.8255892632
 30
0.0
 10
57.7341458455
 20
76.7417708721
 30
0.0
 10
57.4165350173
 20
76.5939080321
 30
0.0
 10
56.712731662
 20
76.3800698465
 30
0.0
 10
55.7580074027
 20
76.2762549977
 30
0.0
 10
54.8032822255
 20
76.3800654327
 30
0.0
 10
54.0994762322
 20
76.5939001563
 30
0.0
 10
53.7818634584
 20
76.7417614101
 30
0.0
 10
53.6366837354
 20
76.8255790661
 30
0.0
  0
SPLINE
  5
33F
100
AcDbEntity
  8
0
100
AcDbSpline
 62
7
  6
BYLAYER
 70
0
 71
3
 72
11
 73
7
 74
0
 42
0.0000001
 43
0.0000001
 44
0.0000000001
 40
0.0
 40
0.0
 40
0.0
 40
0.0
 40
0.2372460005
 40
0.4999983822
 40
0.7627516439
 40
1.0
 40
1.0
 40
1.0
 40
1.0
 10
16.1598624163
 20
100.0953263803
 30
0.0
 10
16.0594707395
 20
100.0373655646
 30
0.0
 10
15.869481287
 20
99.8774922788
 30
0.0
 10
15.6478206594
 20
99.5744591228
 30
0.0
 10
15.4962178892
 20
99.2309769602
 30
0.0
 10
15.4527585791
 20
98.9865031105
 30
0.0
 10
15.4527585791
 20
98.8705798093
 30
0.0
  0
SPLINE
  5
340
100
AcDbEntity
  8
0
100
AcDbSpline
 62
7
  6
BYLAYER
 70
0
 71
3
 72
11
 73
7
 74
0
 42
0.0000001
 43
0.0000001
 44
0.0000000001
 40
0.0
 40
0.0
 40
0.0
 40
0.0
 40
0.2897023113
 40
0.5490868678
 40
0.7822157677
 40
1.0
 40
1.0
 40
1.0
 40
1.0
 10
15.4527585791
 20
98.8705798093
 30
0.0
 10
15.3211208794
 20
98.9465791512
 30
0.0
 10
15.0822944686
 20
99.1110681751
 30
0.0
 10
14.7968618834
 20
99.4110363418
 30
0.0
 10
14.6162999276
 20
99.7428759027
 30
0.0
 10
14.5740700852
 20
99.9810450487
 30
0.0
 10
14.5740700907
 20
100.0953122709
 30
0.0
  0
SPLINE
  5
341
100
AcDbEntity
  8
0
100
AcDbSpline
 62
7
  6
BYLAYER
 70
0
 71
3
 72
9
 73
5
 74
0
 42
0.0000001
 43
0.0000001
 44
0.0000000001
 40
0.0
 40
0.0
 40
0.0
 40
0.0
 40
0.260503225
 40
1.0
 40
1.0
 40
1.0
 40
1.0
 10
95.3558101326
 20
101.7284865607
 30
0.0
 10
95.3806897857
 20
101.7141226112
 30
0.0
 10
95.4748841284
 20
101.6567799962
 30
0.0
 10
95.5637424676
 20
101.5903850746
 30
0.0
 10
95.6244084899
 20
101.5358841002
 30
0.0
  0
SPLINE
  5
342
100
AcDbEntity
  8
0
100
AcDbSpline
 62
7
  6
BYLAYER
 70
0
 71
3
 72
15
 73
11
 74
0
 42
0.0000001
 43
0.0000001
 44
0.0000000001
 40
0.0
 40
0.0
 40
0.0
 40
0.0
 40
0.1325758638
 40
0.2532698475
 40
0.3660659756
 40
0.4766116007
 40
0.5910140989
 40
0.7145660356
 40
0.8506742063
 40
1.0
 40
1.0
 40
1.0
 40
1.0
 10
95.6244084899
 20
101.5358841002
 30
0.0
 10
95.6825780223
 20
101.4836259156
 30
0.0
 10
95.7854154399
 20
101.3736369125
 30
0.0
 10
95.894997938
 20
101.1851129811
 30
0.0
 10
95.9473521854
 20
100.9861818697
 30
0.0
 10
95.9392802615
 20
100.7841501903
 30
0.0
 10
95.8711569877
 20
100.5874153317
 30
0.0
 10
95.7471535525
 20
100.4024668853
 30
0.0
 10
95.5722948029
 20
100.2342152597
 30
0.0
 10
95.4320975925
 20
100.1395542677
 30
0.0
 10
95.3558219085
 20
100.0955167439
 30
0.0
  0
SPLINE
  5
343
100
AcDbEntity
  8
0
100
AcDbSpline
 62
7
  6
BYLAYER
 70
0
 71
3
 72
13
 73
9
 74
0
 42
0.0000001
 43
0.0000001
 44
0.0000000001
 40
0.0
 40
0.0
 40
0.0
 40
0.0
 40
0.1141754922
 40
0.2375687268
 40
0.4999993804
 40
0.7624303731
 40
0.8858240358
 40
1.0
 40
1.0
 40
1.0
 40
1.0
 10
57.1722146989
 20
78.0503324349
 30
0.0
 10
57.0754703682
 20
77.9944774029
 30
0.0
 10
56.8636857839
 20
77.8959801828
 30
0.0
 10
56.3945417666
 20
77.7532426674
 30
0.0
 10
55.7580035926
 20
77.6842593666
 30
0.0
 10
55.1214646842
 20
77.7532396056
 30
0.0
 10
54.6523187375
 20
77.8959749005
 30
0.0
 10
54.4405327077
 20
77.9944710709
 30
0.0
 10
54.3437875742
 20
78.0503256362
 30
0.0
  0
SPLINE
  5
344
100
AcDbEntity
  8
0
100
AcDbSpline
 62
7
  6
BYLAYER
 70
0
 71
3
 72
15
 73
11
 74
0
 42
0.0000001
 43
0.0000001
 44
0.0000000001
 40
0.0
 40
0.0
 40
0.0
 40
0.0
 40
0.1493262808
 40
0.285434853
 40
0.4089871396
 40
0.5233898308
 40
0.6339353931
 40
0.7467311893
 40
0.8674246729
 40
1.0
 40
1.0
 40
1.0
 40
1.0
 10
16.1598624163
 20
100.0953263803
 30
0.0
 10
16.0835860024
 20
100.1393635921
 30
0.0
 10
15.9433873038
 20
100.2340239535
 30
0.0
 10
15.7685261687
 20
100.402274868
 30
0.0
 10
15.6445200769
 20
100.5872227476
 30
0.0
 10
15.5763940866
 20
100.7839574063
 30
0.0
 10
15.5683192879
 20
100.9859892883
 30
0.0
 10
15.6206710754
 20
101.1849209879
 30
0.0
 10
15.7302513741
 20
101.3734458391
 30
0.0
 10
15.8330877605
 20
101.483435445
 30
0.0
 10
15.8912567951
 20
101.5356939608
 30
0.0
  0
SPLINE
  5
345
100
AcDbEntity
  8
0
100
AcDbSpline
 62
7
  6
BYLAYER
 70
0
 71
3
 72
9
 73
5
 74
0
 42
0.0000001
 43
0.0000001
 44
0.0000000001
 40
0.0
 40
0.0
 40
0.0
 40
0.0
 40
0.2396677611
 40
1.0
 40
1.0
 40
1.0
 40
1.0
 10
15.8912567951
 20
101.5356939608
 30
0.0
 10
15.9109190964
 20
101.553358388
 30
0.0
 10
15.995137031
 20
101.6246265871
 30
0.0
 10
16.087231485
 20
101.6863697584
 30
0.0
 10
16.1598506404
 20
101.728296197
 30
0.0
  0
SPLINE
  5
346
100
AcDbEntity
  8
0
100
AcDbSpline
 62
7
  6
BYLAYER
 70
0
 71
3
 72
15
 73
11
 74
0
 42
0.0000001
 43
0.0000001
 44
0.0000000001
 40
0.0
 40
0.0
 40
0.0
 40
0.0
 40
0.1485648661
 40
0.2895093965
 40
0.4227286632
 40
0.5486397376
 40
0.668002006
 40
0.7819383697
 40
0.8919861268
 40
1.0
 40
1.0
 40
1.0
 40
1.0
 10
71.6678050902
 20
91.7264894938
 30
0.0
 10
72.1751862052
 20
92.0194243685
 30
0.0
 10
73.1409429552
 20
92.6316360362
 30
0.0
 10
74.4613768683
 20
93.6535240301
 30
0.0
 10
75.6034705375
 20
94.7467311471
 30
0.0
 10
76.5557105056
 20
95.9010897635
 30
0.0
 10
77.3087219069
 20
97.1062588966
 30
0.0
 10
77.8536277787
 20
98.3515930868
 30
0.0
 10
78.1838605555
 20
99.6242790921
 30
0.0
 10
78.2577682907
 20
100.4859489715
 30
0.0
 10
78.257795979
 20
100.9119066402
 30
0.0
  0
SPLINE
  5
347
100
AcDbEntity
  8
0
100
AcDbSpline
 62
7
  6
BYLAYER
 70
0
 71
3
 72
21
 73
17
 74
0
 42
0.0000001
 43
0.0000001
 44
0.0000000001
 40
0.0
 40
0.0
 40
0.0
 40
0.0
 40
0.0543346448
 40
0.1115228052
 40
0.1711335368
 40
0.232617554
 40
0.2954273151
 40
0.3590918491
 40
0.4232535443
 40
0.4876724795
 40
0.5522054987
 40
0.6167703862
 40
0.6813086008
 40
0.7457540913
 40
0.8738348669
 40
1.0
 40
1.0
 40
1.0
 40
1.0
 10
42.8777581769
 20
108.3870653043
 30
0.0
 10
42.877759018
 20
107.8812772072
 30
0.0
 10
42.9538827389
 20
106.8421321671
 30
0.0
 10
43.2737287408
 20
105.2776616962
 30
0.0
 10
43.8004169846
 20
103.6996784631
 30
0.0
 10
44.5311301029
 20
102.1471762183
 30
0.0
 10
45.460483814
 20
100.6597873821
 30
0.0
 10
46.5788847884
 20
99.2762215362
 30
0.0
 10
47.8712356878
 20
98.031530973
 30
0.0
 10
49.3163233178
 20
96.954295394
 30
0.0
 10
50.8877548571
 20
96.064185717
 30
0.0
 10
52.5561092693
 20
95.370752016
 30
0.0
 10
54.2918162528
 20
94.8737128459
 30
0.0
 10
56.6531266743
 20
94.4629550237
 30
0.0
 10
59.6356299525
 20
94.3840275547
 30
0.0
 10
61.9903657218
 20
94.6972685374
 30
0.0
 10
63.1418713278
 20
94.9282360284
 30
0.0
  0
SPLINE
  5
348
100
AcDbEntity
  8
0
100
AcDbSpline
 62
7
  6
BYLAYER
 70
0
 71
3
 72
9
 73
5
 74
0
 42
0.0000001
 43
0.0000001
 44
0.0000000001
 40
0.0
 40
0.0
 40
0.0
 40
0.0
 40
0.5219180919
 40
1.0
 40
1.0
 40
1.0
 40
1.0
 10
42.8777581769
 20
121.2878034437
 30
0.0
 10
41.8372159834
 20
121.7072205975
 30
0.0
 10
39.8903829044
 20
122.6353823667
 30
0.0
 10
38.1012271574
 20
123.8478004029
 30
0.0
 10
37.3092690946
 20
124.5026993839
 30
0.0
  0
SPLINE
  5
349
100
AcDbEntity
  8
0
100
AcDbSpline
 62
7
  6
BYLAYER
 70
0
 71
3
 72
11
 73
7
 74
0
 42
0.0000001
 43
0.0000001
 44
0.0000000001
 40
0.0
 40
0.0
 40
0.0
 40
0.0
 40
0.2326826811
 40
0.4900459873
 40
0.7527246727
 40
1.0
 40
1.0
 40
1.0
 40
1.0
 10
44.6624328302
 20
123.9001539973
 30
0.0
 10
44.6181853954
 20
123.8746078814
 30
0.0
 10
44.5164062955
 20
123.8354825052
 30
0.0
 10
44.3519065833
 20
123.8110788513
 30
0.0
 10
44.1825973012
 20
123.8191680571
 30
0.0
 10
44.0730136575
 20
123.8472824107
 30
0.0
 10
44.02265401
 20
123.8675811551
 30
0.0
  0
SPLINE
  5
34A
100
AcDbEntity
  8
0
100
AcDbSpline
 62
7
  6
BYLAYER
 70
0
 71
3
 72
9
 73
5
 74
0
 42
0.0000001
 43
0.0000001
 44
0.0000000001
 40
0.0
 40
0.0
 40
0.0
 40
0.0
 40
0.5219178846
 40
1.0
 40
1.0
 40
1.0
 40
1.0
 10
44.02265401
 20
123.8675811551
 30
0.0
 10
43.0746048846
 20
124.2497166113
 30
0.0
 10
41.3008257365
 20
125.0953787783
 30
0.0
 10
39.6707037956
 20
126.2000226047
 30
0.0
 10
38.949141732
 20
126.7967085688
 30
0.0
  0
SPLINE
  5
34B
100
AcDbEntity
  8
0
100
AcDbSpline
 62
7
  6
BYLAYER
 70
0
 71
3
 72
12
 73
8
 74
0
 42
0.0000001
 43
0.0000001
 44
0.0000000001
 40
0.0
 40
0.0
 40
0.0
 40
0.0
 40
0.2566931687
 40
0.370646128
 40
0.4812462177
 40
0.7160670507
 40
1.0
 40
1.0
 40
1.0
 40
1.0
 10
38.949141732
 20
126.7967085688
 30
0.0
 10
38.9191876008
 20
126.8214787314
 30
0.0
 10
38.8804724463
 20
126.8656906774
 30
0.0
 10
38.8585035132
 20
126.9361456377
 30
0.0
 10
38.8584633851
 20
127.0068645256
 30
0.0
 10
38.9041687122
 20
127.0961739082
 30
0.0
 10
38.9683211896
 20
127.1445831946
 30
0.0
 10
39.0055550291
 20
127.1660800335
 30
0.0
  0
SPLINE
  5
34C
100
AcDbEntity
  8
0
100
AcDbSpline
 62
7
  6
BYLAYER
 70
0
 71
3
 72
11
 73
7
 74
0
 42
0.0000001
 43
0.0000001
 44
0.0000000001
 40
0.0
 40
0.0
 40
0.0
 40
0.0
 40
0.217784692
 40
0.450913785
 40
0.71029817
 40
1.0
 40
1.0
 40
1.0
 40
1.0
 10
96.9416024582
 20
100.0954958358
 30
0.0
 10
96.9416024527
 20
99.9812298443
 30
0.0
 10
96.8993736023
 20
99.7430634441
 30
0.0
 10
96.7188155351
 20
99.4112270977
 30
0.0
 10
96.4333887481
 20
99.1112611538
 30
0.0
 10
96.1945668694
 20
98.9467727574
 30
0.0
 10
96.062931632
 20
98.8707735713
 30
0.0
  0
SPLINE
  5
34D
100
AcDbEntity
  8
0
100
AcDbSpline
 62
7
  6
BYLAYER
 70
0
 71
3
 72
11
 73
7
 74
0
 42
0.0000001
 43
0.0000001
 44
0.0000000001
 40
0.0
 40
0.0
 40
0.0
 40
0.0
 40
0.2831371853
 40
0.5430701798
 40
0.7803751184
 40
1.0
 40
1.0
 40
1.0
 40
1.0
 10
42.6056937152
 20
127.5299832196
 30
0.0
 10
42.537989069
 20
127.4908941572
 30
0.0
 10
42.4128341899
 20
127.407197324
 30
0.0
 10
42.2540662335
 20
127.2599056268
 30
0.0
 10
42.1368154453
 20
127.0987107054
 30
0.0
 10
42.087358812
 20
126.9809676671
 30
0.0
 10
42.0716469417
 20
126.9223966792
 30
0.0
  0
SPLINE
  5
34E
100
AcDbEntity
  8
0
100
AcDbSpline
 62
7
  6
BYLAYER
 70
0
 71
3
 72
9
 73
5
 74
0
 42
0.0000001
 43
0.0000001
 44
0.0000000001
 40
0.0
 40
0.0
 40
0.0
 40
0.0
 40
0.2527585529
 40
1.0
 40
1.0
 40
1.0
 40
1.0
 10
42.0716469417
 20
126.9223966792
 30
0.0
 10
42.0679397503
 20
126.9085769455
 30
0.0
 10
42.0550091724
 20
126.8534516045
 30
0.0
 10
42.0492810949
 20
126.7966261903
 30
0.0
 10
42.0492803238
 20
126.7543258327
 30
0.0
  0
SPLINE
  5
34F
100
AcDbEntity
  8
0
100
AcDbSpline
 62
7
  6
BYLAYER
 70
0
 71
3
 72
11
 73
7
 74
0
 42
0.0000001
 43
0.0000001
 44
0.0000000001
 40
0.0
 40
0.0
 40
0.0
 40
0.0
 40
0.2635998143
 40
0.5139215812
 40
0.7572524508
 40
1.0
 40
1.0
 40
1.0
 40
1.0
 10
78.2578297818
 20
107.6256902611
 30
0.0
 10
78.2578302174
 20
107.1941388734
 30
0.0
 10
78.2108277496
 20
106.3515589562
 30
0.0
 10
77.9771002826
 20
105.1300486166
 30
0.0
 10
77.5823706368
 20
103.986599693
 30
0.0
 10
77.2166470277
 20
103.2764814713
 30
0.0
 10
77.0117450893
 20
102.9359635788
 30
0.0
  0
SPLINE
  5
350
100
AcDbEntity
  8
0
100
AcDbSpline
 62
7
  6
BYLAYER
 70
0
 71
3
 72
11
 73
7
 74
0
 42
0.0000001
 43
0.0000001
 44
0.0000000001
 40
0.0
 40
0.0
 40
0.0
 40
0.0
 40
0.2178514516
 40
0.4509749849
 40
0.710702609
 40
1.0
 40
1.0
 40
1.0
 40
1.0
 10
69.3620922064
 20
141.1384691455
 30
0.0
 10
69.3621227944
 20
141.1575189508
 30
0.0
 10
69.3551112128
 20
141.1972299397
 30
0.0
 10
69.3249790432
 20
141.25256282
 30
0.0
 10
69.2773428405
 20
141.3024787943
 30
0.0
 10
69.2375864966
 20
141.3299426666
 30
0.0
 10
69.2156782184
 20
141.3425911308
 30
0.0
  0
SPLINE
  5
351
100
AcDbEntity
  8
0
100
AcDbSpline
 62
7
  6
BYLAYER
 70
0
 71
3
 72
11
 73
7
 74
0
 42
0.0000001
 43
0.0000001
 44
0.0000000001
 40
0.0
 40
0.0
 40
0.0
 40
0.0
 40
0.2474951617
 40
0.5105488964
 40
0.767811094
 40
1.0
 40
1.0
 40
1.0
 40
1.0
 10
38.9491417321
 20
126.7967085688
 30
0.0
 10
38.7227583456
 20
126.7054573339
 30
0.0
 10
38.2873469211
 20
126.4352748989
 30
0.0
 10
37.7665764929
 20
125.8749468598
 30
0.0
 10
37.4096769336
 20
125.2152343814
 30
0.0
 10
37.3092690938
 20
124.7316866046
 30
0.0
 10
37.3092690938
 20
124.5026993846
 30
0.0
  0
SPLINE
  5
352
100
AcDbEntity
  8
0
100
AcDbSpline
 62
7
  6
BYLAYER
 70
0
 71
3
 72
11
 73
7
 74
0
 42
0.0000001
 43
0.0000001
 44
0.0000000001
 40
0.0
 40
0.0
 40
0.0
 40
0.0
 40
0.2785847997
 40
0.5346560391
 40
0.7723686869
 40
1.0
 40
1.0
 40
1.0
 40
1.0
 10
37.3092690938
 20
124.5026993846
 30
0.0
 10
37.2398141879
 20
124.5601341771
 30
0.0
 10
37.1145999135
 20
124.680883174
 30
0.0
 10
36.9692325439
 20
124.8862619108
 30
0.0
 10
36.8795349915
 20
125.1040851003
 30
0.0
 10
36.8591141248
 20
125.2553127784
 30
0.0
 10
36.8591513325
 20
125.328954815
 30
0.0
  0
SPLINE
  5
353
100
AcDbEntity
  8
0
100
AcDbSpline
 62
7
  6
BYLAYER
 70
0
 71
3
 72
11
 73
7
 74
0
 42
0.0000001
 43
0.0000001
 44
0.0000000001
 40
0.0
 40
0.0
 40
0.0
 40
0.0
 40
0.2326826811
 40
0.4900459873
 40
0.7527246727
 40
1.0
 40
1.0
 40
1.0
 40
1.0
 10
66.8532397186
 20
143.243852314
 30
0.0
 10
66.8974871535
 20
143.2693984299
 30
0.0
 10
66.9992662534
 20
143.3085238061
 30
0.0
 10
67.1637659656
 20
143.33292746
 30
0.0
 10
67.3330752477
 20
143.3248382543
 30
0.0
 10
67.4426588914
 20
143.2967239007
 30
0.0
 10
67.4930185389
 20
143.2764251563
 30
0.0
  0
SPLINE
  5
354
100
AcDbEntity
  8
0
100
AcDbSpline
 62
7
  6
BYLAYER
 70
0
 71
3
 72
9
 73
5
 74
0
 42
0.0000001
 43
0.0000001
 44
0.0000000001
 40
0.0
 40
0.0
 40
0.0
 40
0.0
 40
0.5219178846
 40
1.0
 40
1.0
 40
1.0
 40
1.0
 10
67.4930185389
 20
143.2764251563
 30
0.0
 10
68.4410676643
 20
142.8942897
 30
0.0
 10
70.2148468123
 20
142.048627533
 30
0.0
 10
71.8449687533
 20
140.9439837066
 30
0.0
 10
72.5665308168
 20
140.3472977426
 30
0.0
  0
SPLINE
  5
355
100
AcDbEntity
  8
0
100
AcDbSpline
 62
7
  6
BYLAYER
 70
0
 71
3
 72
12
 73
8
 74
0
 42
0.0000001
 43
0.0000001
 44
0.0000000001
 40
0.0
 40
0.0
 40
0.0
 40
0.0
 40
0.2566931687
 40
0.370646128
 40
0.4812462177
 40
0.7160670507
 40
1.0
 40
1.0
 40
1.0
 40
1.0
 10
72.5665308168
 20
140.3472977426
 30
0.0
 10
72.596484948
 20
140.3225275799
 30
0.0
 10
72.6352001025
 20
140.2783156339
 30
0.0
 10
72.6571690357
 20
140.2078606736
 30
0.0
 10
72.6572091638
 20
140.1371417858
 30
0.0
 10
72.6115038367
 20
140.0478324032
 30
0.0
 10
72.5473513593
 20
139.9994231167
 30
0.0
 10
72.5101175198
 20
139.9779262778
 30
0.0
  0
SPLINE
  5
356
100
AcDbEntity
  8
0
100
AcDbSpline
 62
7
  6
BYLAYER
 70
0
 71
3
 72
17
 73
13
 74
0
 42
0.0000001
 43
0.0000001
 44
0.0000000001
 40
0.0
 40
0.0
 40
0.0
 40
0.0
 40
0.1286842356
 40
0.2703031337
 40
0.4174437425
 40
0.5617827569
 40
0.69545054
 40
0.8127145007
 40
0.8646808868
 40
0.9125101646
 40
0.957139951
 40
1.0
 40
1.0
 40
1.0
 40
1.0
 10
45.1512887257
 20
126.0603165033
 30
0.0
 10
45.0254541595
 20
125.9876663163
 30
0.0
 10
44.7404995868
 20
125.8701227433
 30
0.0
 10
44.2761344089
 20
125.7771744705
 30
0.0
 10
43.7849705572
 20
125.7636290579
 30
0.0
 10
43.3071518679
 20
125.8307574016
 30
0.0
 10
42.8813373253
 20
125.972985834
 30
0.0
 10
42.5852374779
 20
126.1532952649
 30
0.0
 10
42.4113636227
 20
126.3276553497
 30
0.0
 10
42.3191161662
 20
126.4635005913
 30
0.0
 10
42.2621228618
 20
126.6067068901
 30
0.0
 10
42.2492783403
 20
126.7059314106
 30
0.0
 10
42.2492764716
 20
126.7543259089
 30
0.0
  0
SPLINE
  5
357
100
AcDbEntity
  8
0
100
AcDbSpline
 62
7
  6
BYLAYER
 70
0
 71
3
 72
11
 73
7
 74
0
 42
0.0000001
 43
0.0000001
 44
0.0000000001
 40
0.0
 40
0.0
 40
0.0
 40
0.0
 40
0.3073332113
 40
0.5781794164
 40
0.8049945529
 40
1.0
 40
1.0
 40
1.0
 40
1.0
 10
65.1057540013
 20
140.7772787968
 30
0.0
 10
65.0572099406
 20
140.7687101004
 30
0.0
 10
64.9670019402
 20
140.744090971
 30
0.0
 10
64.8520657727
 20
140.6823373692
 30
0.0
 10
64.7729095829
 20
140.6007004923
 30
0.0
 10
64.751956138
 20
140.5324995815
 30
0.0
 10
64.7519492427
 20
140.5012218129
 30
0.0
  0
SPLINE
  5
358
100
AcDbEntity
  8
0
100
AcDbSpline
 62
7
  6
BYLAYER
 70
0
 71
3
 72
11
 73
7
 74
0
 42
0.0000001
 43
0.0000001
 44
0.0000000001
 40
0.0
 40
0.0
 40
0.0
 40
0.0
 40
0.2468701324
 40
0.5095504955
 40
0.7671296171
 40
1.0
 40
1.0
 40
1.0
 40
1.0
 10
62.0053626251
 20
15.6272017554
 30
0.0
 10
61.8036705553
 20
15.5445079826
 30
0.0
 10
61.363746582
 20
15.4296088698
 30
0.0
 10
60.6831178958
 20
15.3953009637
 30
0.0
 10
60.0210332624
 20
15.4921943073
 30
0.0
 10
59.6112241323
 20
15.6493455302
 30
0.0
 10
59.4331472071
 20
15.752155965
 30
0.0
  0
SPLINE
  5
359
100
AcDbEntity
  8
0
100
AcDbSpline
 62
7
  6
BYLAYER
 70
0
 71
3
 72
9
 73
5
 74
0
 42
0.0000001
 43
0.0000001
 44
0.0000000001
 40
0.0
 40
0.0
 40
0.0
 40
0.0
 40
0.4780265433
 40
1.0
 40
1.0
 40
1.0
 40
1.0
 10
69.2156782184
 20
141.3425911308
 30
0.0
 10
69.1450431048
 20
141.38337141
 30
0.0
 10
68.9768355198
 20
141.4325558383
 30
0.0
 10
68.8036428894
 20
141.4300072024
 30
0.0
 10
68.7159384567
 20
141.41452616
 30
0.0
  0
SPLINE
  5
35A
100
AcDbEntity
  8
0
100
AcDbSpline
 62
7
  6
BYLAYER
 70
0
 71
3
 72
19
 73
15
 74
0
 42
0.0000001
 43
0.0000001
 44
0.0000000001
 40
0.0
 40
0.0
 40
0.0
 40
0.0
 40
0.0361057448
 40
0.0670777487
 40
0.0959811698
 40
0.126649707
 40
0.1620888102
 40
0.2040416601
 40
0.2533616961
 40
0.3102558324
 40
0.4458721129
 40
0.6083821593
 40
0.7942546517
 40
1.0
 40
1.0
 40
1.0
 40
1.0
 10
35.941904254
 20
108.4403844104
 30
0.0
 10
35.8876064698
 20
108.4134837525
 30
0.0
 10
35.7807273229
 20
108.3736338841
 30
0.0
 10
35.6161310954
 20
108.3666726714
 30
0.0
 10
35.4703996258
 20
108.4240216948
 30
0.0
 10
35.3554093444
 20
108.5396168346
 30
0.0
 10
35.2722387333
 20
108.7030681656
 30
0.0
 10
35.2203214993
 20
108.9106507706
 30
0.0
 10
35.2011113784
 20
109.1594363056
 30
0.0
 10
35.2207442805
 20
109.5656127022
 30
0.0
 10
35.341459913
 20
110.1524406782
 30
0.0
 10
35.6146882577
 20
110.9192605912
 30
0.0
 10
36.0235477251
 20
111.7564678115
 30
0.0
 10
36.3691965808
 20
112.3167841499
 30
0.0
 10
36.562833405
 20
112.6026829194
 30
0.0
  0
SPLINE
  5
35B
100
AcDbEntity
  8
0
100
AcDbSpline
 62
7
  6
BYLAYER
 70
0
 71
3
 72
9
 73
5
 74
0
 42
0.0000001
 43
0.0000001
 44
0.0000000001
 40
0.0
 40
0.0
 40
0.0
 40
0.0
 40
0.7548719281
 40
1.0
 40
1.0
 40
1.0
 40
1.0
 10
68.7159384567
 20
141.0062749515
 30
0.0
 10
68.8035613547
 20
141.0217416018
 30
0.0
 10
68.9241296352
 20
141.0234966883
 30
0.0
 10
69.0398737884
 20
141.000623623
 30
0.0
 10
69.0678300029
 20
140.9933240964
 30
0.0
  0
SPLINE
  5
35C
100
AcDbEntity
  8
0
100
AcDbSpline
 62
7
  6
BYLAYER
 70
0
 71
3
 72
9
 73
5
 74
0
 42
0.0000001
 43
0.0000001
 44
0.0000000001
 40
0.0
 40
0.0
 40
0.0
 40
0.0
 40
0.2635457468
 40
1.0
 40
1.0
 40
1.0
 40
1.0
 10
69.0678300029
 20
140.9933240964
 30
0.0
 10
69.081381625
 20
140.9897856908
 30
0.0
 10
69.1323723882
 20
140.9748496688
 30
0.0
 10
69.1817832232
 20
140.9539087641
 30
0.0
 10
69.2156782184
 20
140.9343399222
 30
0.0
  0
SPLINE
  5
35D
100
AcDbEntity
  8
0
100
AcDbSpline
 62
7
  6
BYLAYER
 70
0
 71
3
 72
11
 73
7
 74
0
 42
0.0000001
 43
0.0000001
 44
0.0000000001
 40
0.0
 40
0.0
 40
0.0
 40
0.0
 40
0.2177223257
 40
0.4508705615
 40
0.7104663776
 40
1.0
 40
1.0
 40
1.0
 40
1.0
 10
57.2579120445
 20
62.6183634253
 30
0.0
 10
57.2579142458
 20
62.6754795573
 30
0.0
 10
57.2369098415
 20
62.7945652937
 30
0.0
 10
57.1465845584
 20
62.960533905
 30
0.0
 10
57.0037839083
 20
63.1104418455
 30
0.0
 10
56.884412439
 20
63.1927528266
 30
0.0
 10
56.8186333407
 20
63.2307295476
 30
0.0
  0
SPLINE
  5
35E
100
AcDbEntity
  8
0
100
AcDbSpline
 62
7
  6
BYLAYER
 70
0
 71
3
 72
13
 73
9
 74
0
 42
0.0000001
 43
0.0000001
 44
0.0000000001
 40
0.0
 40
0.0
 40
0.0
 40
0.0
 40
0.1141755944
 40
0.2375687028
 40
0.4999988186
 40
0.7624295809
 40
0.8858234769
 40
1.0
 40
1.0
 40
1.0
 40
1.0
 10
68.4150185123
 20
137.6136338764
 30
0.0
 10
68.5117635062
 20
137.5577793917
 30
0.0
 10
68.7029587172
 20
137.4236190026
 30
0.0
 10
69.0611478903
 20
137.0886996017
 30
0.0
 10
69.4391600988
 20
136.5719336289
 30
0.0
 10
69.6976895144
 20
135.9861830388
 30
0.0
 10
69.8086471517
 20
135.5085208831
 30
0.0
 10
69.8292379626
 20
135.2758593065
 30
0.0
 10
69.8292379626
 20
135.1641475331
 30
0.0
  0
SPLINE
  5
35F
100
AcDbEntity
  8
0
100
AcDbSpline
 62
7
  6
BYLAYER
 70
0
 71
3
 72
11
 73
7
 74
0
 42
0.0000001
 43
0.0000001
 44
0.0000000001
 40
0.0
 40
0.0
 40
0.0
 40
0.0
 40
0.281719783
 40
0.5395718999
 40
0.7760000872
 40
1.0
 40
1.0
 40
1.0
 40
1.0
 10
72.5665308168
 20
140.3472977426
 30
0.0
 10
72.6830466474
 20
140.3942632624
 30
0.0
 10
72.9152928698
 20
140.4641611574
 30
0.0
 10
73.2639090187
 20
140.4885036881
 30
0.0
 10
73.5821523004
 20
140.4235473076
 30
0.0
 10
73.7640400816
 20
140.3191615545
 30
0.0
 10
73.8410558443
 20
140.2555540706
 30
0.0
  0
SPLINE
  5
360
100
AcDbEntity
  8
0
100
AcDbSpline
 62
7
  6
BYLAYER
 70
0
 71
3
 72
11
 73
7
 74
0
 42
0.0000001
 43
0.0000001
 44
0.0000000001
 40
0.0
 40
0.0
 40
0.0
 40
0.0
 40
0.2895787052
 40
0.5491472255
 40
0.782246825
 40
1.0
 40
1.0
 40
1.0
 40
1.0
 10
66.8532397186
 20
143.243852314
 30
0.0
 10
66.7655201099
 20
143.294496108
 30
0.0
 10
66.5908836809
 20
143.3774569947
 30
0.0
 10
66.322598094
 20
143.4424064914
 30
0.0
 10
66.0707425512
 20
143.4360772809
 30
0.0
 10
65.9192584396
 20
143.3808929485
 30
0.0
 10
65.8532904671
 20
143.342820717
 30
0.0
  0
SPLINE
  5
361
100
AcDbEntity
  8
0
100
AcDbSpline
 62
7
  6
BYLAYER
 70
0
 71
3
 72
13
 73
9
 74
0
 42
0.0000001
 43
0.0000001
 44
0.0000000001
 40
0.0
 40
0.0
 40
0.0
 40
0.0
 40
0.1141758038
 40
0.2375449809
 40
0.4999169314
 40
0.7623671906
 40
0.8858036037
 40
1.0
 40
1.0
 40
1.0
 40
1.0
 10
73.9243369701
 20
137.5284399345
 30
0.0
 10
73.9243369701
 20
137.6401511275
 30
0.0
 10
73.9037486017
 20
137.8727875068
 30
0.0
 10
73.7928342841
 20
138.3503761195
 30
0.0
 10
73.5343324095
 20
138.9360659646
 30
0.0
 10
73.1563799832
 20
139.4528873766
 30
0.0
 10
72.798113098
 20
139.7878454385
 30
0.0
 10
72.6068802468
 20
139.9220615552
 30
0.0
 10
72.5101175198
 20
139.9779262778
 30
0.0
  0
SPLINE
  5
362
100
AcDbEntity
  8
0
100
AcDbSpline
 62
7
  6
BYLAYER
 70
0
 71
3
 72
13
 73
9
 74
0
 42
0.0000001
 43
0.0000001
 44
0.0000000001
 40
0.0
 40
0.0
 40
0.0
 40
0.0
 40
0.2167968714
 40
0.342472908
 40
0.4760305023
 40
0.6134654134
 40
0.749806005
 40
1.0
 40
1.0
 40
1.0
 40
1.0
 10
77.0117450816
 20
102.9359635659
 30
0.0
 10
77.0117450816
 20
103.2032837113
 30
0.0
 10
76.9140700369
 20
103.6289858906
 30
0.0
 10
76.6321195535
 20
104.1455900261
 30
0.0
 10
76.327306148
 20
104.5315730225
 30
0.0
 10
75.9510466404
 20
104.8678047459
 30
0.0
 10
75.4084959846
 20
105.2215686805
 30
0.0
 10
74.9526755528
 20
105.3902183283
 30
0.0
 10
74.6501996588
 20
105.4508875554
 30
0.0
  0
SPLINE
  5
363
100
AcDbEntity
  8
0
100
AcDbSpline
 62
7
  6
BYLAYER
 70
0
 71
3
 72
12
 73
8
 74
0
 42
0.0000001
 43
0.0000001
 44
0.0000000001
 40
0.0
 40
0.0
 40
0.0
 40
0.0
 40
0.2710599798
 40
0.5290049981
 40
0.770340884
 40
0.8860521379
 40
1.0
 40
1.0
 40
1.0
 40
1.0
 10
73.9243369695
 20
124.6277017319
 30
0.0
 10
74.0270450564
 20
124.6869999195
 30
0.0
 10
74.2193372204
 20
124.8181553356
 30
0.0
 10
74.4577096917
 20
125.0601874487
 30
0.0
 10
74.5924798568
 20
125.2981418082
 30
0.0
 10
74.6475822174
 20
125.4976596994
 30
0.0
 10
74.6563948738
 20
125.5984304154
 30
0.0
 10
74.6562769915
 20
125.6482858981
 30
0.0
  0
SPLINE
  5
364
100
AcDbEntity
  8
0
100
AcDbSpline
 62
7
  6
BYLAYER
 70
0
 71
3
 72
10
 73
6
 74
0
 42
0.0000001
 43
0.0000001
 44
0.0000000001
 40
0.0
 40
0.0
 40
0.0
 40
0.0
 40
0.2272232397
 40
0.5955906716
 40
1.0
 40
1.0
 40
1.0
 40
1.0
 10
77.0117450893
 20
102.9359635788
 30
0.0
 10
76.7324591457
 20
102.4718356381
 30
0.0
 10
75.9010096836
 20
101.3135321552
 30
0.0
 10
74.1824798799
 20
99.640273367
 30
0.0
 10
72.6556744637
 20
98.5944246865
 30
0.0
 10
71.8249575544
 20
98.1051947852
 30
0.0
  0
SPLINE
  5
365
100
AcDbEntity
  8
0
100
AcDbSpline
 62
7
  6
BYLAYER
 70
0
 71
3
 72
11
 73
7
 74
0
 42
0.0000001
 43
0.0000001
 44
0.0000000001
 40
0.0
 40
0.0
 40
0.0
 40
0.0
 40
0.2337045915
 40
0.479282488
 40
0.7353107897
 40
1.0
 40
1.0
 40
1.0
 40
1.0
 10
71.6678050902
 20
98.0135581057
 30
0.0
 10
71.0536123013
 20
97.6589558503
 30
0.0
 10
69.7570634187
 20
96.9944513849
 30
0.0
 10
67.687879421
 20
96.1527625613
 30
0.0
 10
65.4686380097
 20
95.4506253435
 30
0.0
 10
63.9294196039
 20
95.0862030872
 30
0.0
 10
63.1418713278
 20
94.9282360284
 30
0.0
  0
SPLINE
  5
366
100
AcDbEntity
  8
0
100
AcDbSpline
 62
7
  6
BYLAYER
 70
0
 71
3
 72
10
 73
6
 74
0
 42
0.0000001
 43
0.0000001
 44
0.0000000001
 40
0.0
 40
0.0
 40
0.0
 40
0.0
 40
0.2272234655
 40
0.5955910931
 40
1.0
 40
1.0
 40
1.0
 40
1.0
 10
74.6501996651
 20
105.4508875659
 30
0.0
 10
74.4019453035
 20
105.0383290821
 30
0.0
 10
73.6628741092
 20
104.0087285699
 30
0.0
 10
72.1352918844
 20
102.5213898056
 30
0.0
 10
70.7781359466
 20
101.5917413305
 30
0.0
 10
70.0397218567
 20
101.156870861
 30
0.0
  0
SPLINE
  5
367
100
AcDbEntity
  8
0
100
AcDbSpline
 62
7
  6
BYLAYER
 70
0
 71
3
 72
10
 73
6
 74
0
 42
0.0000001
 43
0.0000001
 44
0.0000000001
 40
0.0
 40
0.0
 40
0.0
 40
0.0
 40
0.2332962415
 40
0.4788353467
 40
1.0
 40
1.0
 40
1.0
 40
1.0
 10
70.0397218567
 20
101.156870861
 30
0.0
 10
69.4868501165
 20
100.8312709077
 30
0.0
 10
68.3169119307
 20
100.221276384
 30
0.0
 10
65.7717662895
 20
99.1727575407
 30
0.0
 10
63.7267686854
 20
98.6147928711
 30
0.0
 10
62.3214229891
 20
98.3329075218
 30
0.0
  0
SPLINE
  5
368
100
AcDbEntity
  8
0
100
AcDbSpline
 62
7
  6
BYLAYER
 70
0
 71
3
 72
21
 73
17
 74
0
 42
0.0000001
 43
0.0000001
 44
0.0000000001
 40
0.0
 40
0.0
 40
0.0
 40
0.0
 40
0.0620689422
 40
0.1279333054
 40
0.1968605123
 40
0.2680058453
 40
0.4128499888
 40
0.4841931915
 40
0.5532629366
 40
0.6190954332
 40
0.6812081249
 40
0.7943366505
 40
0.8468220015
 40
0.897881386
 40
0.9486134055
 40
1.0
 40
1.0
 40
1.0
 40
1.0
 10
73.9243374044
 20
124.6277019946
 30
0.0
 10
73.9243385883
 20
124.2187168671
 30
0.0
 10
73.9607454495
 20
123.375550346
 30
0.0
 10
74.1048703218
 20
122.0856442165
 30
0.0
 10
74.3331004309
 20
120.74742946
 30
0.0
 10
74.7249476716
 20
118.9110094047
 30
0.0
 10
75.1974207985
 20
117.0772869101
 30
0.0
 10
75.6491667662
 20
115.2527457421
 30
0.0
 10
75.9438420703
 20
113.9258778332
 30
0.0
 10
76.1671321516
 20
112.6461299348
 30
0.0
 10
76.3391071382
 20
111.0667214949
 30
0.0
 10
76.3090618097
 20
109.5528688194
 30
0.0
 10
76.0141615207
 20
108.1522696731
 30
0.0
 10
75.6777551239
 20
107.1899021974
 30
0.0
 10
75.2241584485
 20
106.2854132449
 30
0.0
 10
74.8517621029
 20
105.7229548588
 30
0.0
 10
74.6502002284
 20
105.4508874268
 30
0.0
  0
SPLINE
  5
369
100
AcDbEntity
  8
0
100
AcDbSpline
 62
7
  6
BYLAYER
 70
0
 71
3
 72
16
 73
12
 74
0
 42
0.0000001
 43
0.0000001
 44
0.0000000001
 40
0.0
 40
0.0
 40
0.0
 40
0.0
 40
0.1321903193
 40
0.2642200527
 40
0.3944865773
 40
0.5223362844
 40
0.6479586309
 40
0.7710060511
 40
0.8310618851
 40
0.8895548433
 40
1.0
 40
1.0
 40
1.0
 40
1.0
 10
62.3214230996
 20
98.3329073726
 30
0.0
 10
61.3631094543
 20
98.0962524341
 30
0.0
 10
59.4159120639
 20
97.7379606206
 30
0.0
 10
56.4564677749
 20
97.6566592568
 30
0.0
 10
53.5622837556
 20
98.1668724192
 30
0.0
 10
50.9223023233
 20
99.3707304362
 30
0.0
 10
48.7620276588
 20
101.2273130177
 30
0.0
 10
47.4623316659
 20
103.1636196307
 30
0.0
 10
46.7410722502
 20
104.8211192095
 30
0.0
 10
46.2422498081
 20
106.4590577128
 30
0.0
 10
46.0766596388
 20
107.7252044417
 30
0.0
 10
46.0766520813
 20
108.5499293484
 30
0.0
  0
SPLINE
  5
36A
100
AcDbEntity
  8
0
100
AcDbSpline
 62
7
  6
BYLAYER
 70
0
 71
3
 72
14
 73
10
 74
0
 42
0.0000001
 43
0.0000001
 44
0.0000000001
 40
0.0
 40
0.0
 40
0.0
 40
0.0
 40
0.1174362428
 40
0.2455916075
 40
0.3810774568
 40
0.5188775514
 40
0.6537654562
 40
0.781202175
 40
1.0
 40
1.0
 40
1.0
 40
1.0
 10
42.8777581793
 20
108.3870652522
 30
0.0
 10
42.9974812085
 20
108.3388078221
 30
0.0
 10
43.2545841259
 20
108.2541599902
 30
0.0
 10
43.6652657605
 20
108.1677899158
 30
0.0
 10
44.1052477121
 20
108.1246300013
 30
0.0
 10
44.554665019
 20
108.1260928314
 30
0.0
 10
44.9927645794
 20
108.174787282
 30
0.0
 10
45.5097185636
 20
108.2879793108
 30
0.0
 10
45.8683755789
 20
108.4296815715
 30
0.0
 10
46.0766522808
 20
108.5499294637
 30
0.0
  0
SPLINE
  5
36B
100
AcDbEntity
  8
0
100
AcDbSpline
 62
7
  6
BYLAYER
 70
0
 71
3
 72
15
 73
11
 74
0
 42
0.0000001
 43
0.0000001
 44
0.0000000001
 40
0.0
 40
0.0
 40
0.0
 40
0.0
 40
0.0904655073
 40
0.2017925958
 40
0.3315099993
 40
0.4730371105
 40
0.6185757766
 40
0.7596045427
 40
0.8882405222
 40
1.0
 40
1.0
 40
1.0
 40
1.0
 10
62.3214227143
 20
98.3329074667
 30
0.0
 10
62.3763635905
 20
98.2416070891
 30
0.0
 10
62.4858288455
 20
98.0300869052
 30
0.0
 10
62.6357807827
 20
97.6692076123
 30
0.0
 10
62.7787925829
 20
97.241538846
 30
0.0
 10
62.9074199239
 20
96.7675020157
 30
0.0
 10
63.011225865
 20
96.2738043555
 30
0.0
 10
63.086939435
 20
95.7903981374
 30
0.0
 10
63.1309804363
 20
95.3430592363
 30
0.0
 10
63.1418710094
 20
95.059873801
 30
0.0
 10
63.1418710088
 20
94.9282359644
 30
0.0
  0
SPLINE
  5
36C
100
AcDbEntity
  8
0
100
AcDbSpline
 62
7
  6
BYLAYER
 70
0
 71
3
 72
13
 73
9
 74
0
 42
0.0000001
 43
0.0000001
 44
0.0000000001
 40
0.0
 40
0.0
 40
0.0
 40
0.0
 40
0.1141749225
 40
0.2375434054
 40
0.4999147628
 40
0.7623656147
 40
0.8858027223
 40
1.0
 40
1.0
 40
1.0
 40
1.0
 10
44.6624328302
 20
123.9001539973
 30
0.0
 10
44.7591773617
 20
123.8442997797
 30
0.0
 10
44.9503520536
 20
123.7101539793
 30
0.0
 10
45.308499357
 20
123.3753087628
 30
0.0
 10
45.6864726878
 20
122.8585968474
 30
0.0
 10
45.9450798408
 20
122.2728703585
 30
0.0
 10
46.0560320955
 20
121.7951217624
 30
0.0
 10
46.0766522805
 20
121.5623998574
 30
0.0
 10
46.0766522805
 20
121.450667654
 30
0.0
  0
SPLINE
  5
36D
100
AcDbEntity
  8
0
100
AcDbSpline
 62
7
  6
BYLAYER
 70
0
 71
3
 72
11
 73
7
 74
0
 42
0.0000001
 43
0.0000001
 44
0.0000000001
 40
0.0
 40
0.0
 40
0.0
 40
0.0
 40
0.2326783315
 40
0.4899954814
 40
0.7526720321
 40
1.0
 40
1.0
 40
1.0
 40
1.0
 10
46.0766522808
 20
121.4506676542
 30
0.0
 10
45.8554188624
 20
121.3229392429
 30
0.0
 10
45.3465915012
 20
121.1272752573
 30
0.0
 10
44.5241374662
 20
121.005366216
 30
0.0
 10
43.6775814363
 20
121.0456612436
 30
0.0
 10
43.1296104526
 20
121.1862879402
 30
0.0
 10
42.8777581793
 20
121.2878034427
 30
0.0
  0
SPLINE
  5
36E
100
AcDbEntity
  8
0
100
AcDbSpline
 62
7
  6
BYLAYER
 70
0
 71
3
 72
13
 73
9
 74
0
 42
0.0000001
 43
0.0000001
 44
0.0000000001
 40
0.0
 40
0.0
 40
0.0
 40
0.0
 40
0.1165413304
 40
0.2431254524
 40
0.5111104909
 40
0.7731527721
 40
0.8926606245
 40
1.0
 40
1.0
 40
1.0
 40
1.0
 10
42.8777581793
 20
121.2878034427
 30
0.0
 10
42.8777581793
 20
121.4002215105
 30
0.0
 10
42.8945725879
 20
121.6348715543
 30
0.0
 10
42.9839829919
 20
122.1204662714
 30
0.0
 10
43.1902862673
 20
122.7232111313
 30
0.0
 10
43.4944304263
 20
123.2758353147
 30
0.0
 10
43.7863297001
 20
123.6473382693
 30
0.0
 10
43.942861202
 20
123.8015964039
 30
0.0
 10
44.02265401
 20
123.8675811551
 30
0.0
  0
ELLIPSE
  5
36F
100
AcDbEntity
  8
0
100
AcDbEllipse
 62
7
  6
BYLAYER
 10
59.4897967527
 20
19.0853311278
 30
0.0
 11
-0.3535563899
 21
0.612370704
 31
0.0
 40
0.5773470039
 41
1.5707920067
 42
2.9736924103
  0
ELLIPSE
  5
370
100
AcDbEntity
  8
0
100
AcDbEllipse
 62
7
  6
BYLAYER
 10
85.3697971947
 20
34.0270671595
 30
0.0
 11
-0.3535563899
 21
0.612370704
 31
0.0
 40
0.5773470039
 41
-2.9737010504
 42
-1.5666569894
  0
ENDSEC
  0
SECTION
  2
OBJECTS
  0
DICTIONARY
  5
C
100
AcDbDictionary
280
0
281
1
  3
ACAD_GROUP
350
D
  3
ACAD_MLINESTYLE
350
17
  3
ACAD_LAYOUT
350
1A
  3
ACAD_PLOTSETTINGS
350
19
  3
ACAD_PLOTSTYLENAME
350
E
  0
DICTIONARY
  5
D
102
{ACAD_REACTORS
330
C
102
}
100
AcDbDictionary
280
0
281
1
  0
ACDBDICTIONARYWDFLT
  5
E
102
{ACAD_REACTORS
330
C
102
}
100
AcDbDictionary
281
1
  3
Normal
350
F
100
AcDbDictionaryWithDefault
340
F
  0
DICTIONARY
  5
17
102
{ACAD_REACTORS
330
C
102
}
100
AcDbDictionary
280
0
281
1
  3
Standard
350
18
  0
DICTIONARY
  5
19
102
{ACAD_REACTORS
330
C
102
}
100
AcDbDictionary
281
1
  0
DICTIONARY
  5
1A
102
{ACAD_REACTORS
330
C
102
}
100
AcDbDictionary
281
1
  3
Model
350
371
  3
Layout1
350
372
  0
ACDBPLACEHOLDER
  5
F
102
{ACAD_REACTORS
330
E
102
}
  0
MLINESTYLE
  5
18
102
{ACAD_REACTORS
330
17
102
}
100
AcDbMlineStyle
  2
STANDARD
 70
0
  3

 62
256
 51
90.0
 52
90.0
 71
2
 49
0.5
 62
256
  6
BYLAYER
 49
-0.5
 62
256
  6
BYLAYER
  0
LAYOUT
  5
371
102
{ACAD_REACTORS
330
1A
102
}
100
AcDbPlotSettings
  1

  2
none_device
  4

  6

 40
0.0
 41
0.0
 42
0.0
 43
0.0
 44
210.0
 45
297.0
 46
0.0
 47
0.0
 48
0.0
 49
0.0
140
0.0
141
0.0
142
1.0
143
1.0
 70
1024
 72
1
 73
0
 74
0
  7

 75
0
147
1.0
148
0.0
149
0.0
100
AcDbLayout
  1
Model
 70
0
 71
0
 10
0.0
 20
0.0
 11
210.0
 21
297.0
 12
0.0
 22
0.0
 32
0.0
 14
0.0
 24
0.0
 34
0.0
 15
0.0
 25
0.0
 35
0.0
146
0.0
 13
0.0
 23
0.0
 33
0.0
 16
1.0
 26
0.0
 36
0.0
 17
0.0
 27
1.0
 37
0.0
 76
0
330
210
345
0
346
0
  0
LAYOUT
  5
372
102
{ACAD_REACTORS
330
1A
102
}
100
AcDbPlotSettings
  1

  2
none_device
  4

  6

 40
0.0
 41
0.0
 42
0.0
 43
0.0
 44
210.0
 45
297.0
 46
0.0
 47
0.0
 48
0.0
 49
0.0
140
0.0
141
0.0
142
1.0
143
1.0
 70
0
 72
1
 73
0
 74
0
  7

 75
0
147
1.0
148
0.0
149
0.0
100
AcDbLayout
  1
Layout1
 70
0
 71
1
 10
0.0
 20
0.0
 11
210.0
 21
297.0
 12
0.0
 22
0.0
 32
0.0
 14
0.0
 24
0.0
 34
0.0
 15
0.0
 25
0.0
 35
0.0
146
0.0
 13
0.0
 23
0.0
 33
0.0
 16
1.0
 26
0.0
 36
0.0
 17
0.0
 27
1.0
 37
0.0
 76
0
330
211
345
0
346
0
  0
ENDSEC
  0
EOF
