999
DXF file: C:\Users\sesa63760\Dev\_Creo\CAD\MCADID0005876_3D-CAD\mcadid0005876_3d-simplified_5.dxf
999
Pro/ENGINEER 2019471 by Parametric Technology Corporation
  0
SECTION
  2
HEADER
  9
$ACADVER
  1
AC1024
  9
$DWGCODEPAGE
  3
ANSI_1252
  9
$EXTMAX
 10
39.6444840562
 20
56.068627451
 30
0.0
  9
$EXTMIN
 10
0.0
 20
0.0
 30
0.0
  9
$LIMMIN
 10
0.0
 20
0.0
  9
$LIMMAX
 10
39.6444840562
 20
56.068627451
  9
$VIEWCTR
 10
19.8222420281
 20
28.0343137255
  9
$VIEWSIZE
 40
56.068627451
  9
$CLAYER
  8
0
  9
$LTSCALE
 40
3.6548438635
  9
$CELTYPE
  6
BYLAYER
  9
$DIMSCALE
 40
1.0
  9
$DIMASZ
 40
0.4719581435
  9
$DIMEXO
 40
1.0
  9
$DIMDLI
 40
2.5251648511
  9
$DIMEXE
 40
1.0
  9
$DIMCEN
 40
0.5980653595
  9
$DIMLFAC
 40
1.0
  9
$DIMBLK
  1
_FILLED
  9
$DIMALT
 70
0
  9
$DIMALTF
 40
0.0393700787
  9
$DIMTXT
 40
0.6607414009
  9
$DIMTOL
 70
1
  9
$DIMLIM
 70
0
  9
$DIMTFAC
 40
1.0
  9
$DIMTP
 40
0.01
  9
$DIMTM
 40
0.01
  9
$DIMGAP
 40
0.625
  9
$DIMDSEP
 70
46
  9
$AUNITS
 70
0
  9
$PDMODE
 70
3
  9
$PDSIZE
 40
0.3125
  9
$HANDSEED
  5
36C
  9
$TILEMODE
 70
1
  9
$MEASUREMENT
 70
1
  9
$INSUNITS
 70
4
  0
ENDSEC
  0
SECTION
  2
CLASSES
  0
CLASS
  1
ACDBDICTIONARYWDFLT
  2
AcDbDictionaryWithDefault
  3
AutoCAD 2000
 90
0
 91
1
280
0
281
0
  0
CLASS
  1
ACDBPLACEHOLDER
  2
AcDbPlaceHolder
  3
AutoCAD 2000
 90
0
 91
1
280
0
281
0
  0
CLASS
  1
LAYOUT
  2
AcDbLayout
  3
AutoCAD 2000
 90
0
 91
0
280
0
281
0
  0
ENDSEC
  0
SECTION
  2
TABLES
  0
TABLE
  2
VPORT
  5
8
100
AcDbSymbolTable
 70
2
  0
VPORT
  5
1F4
100
AcDbSymbolTableRecord
100
AcDbViewportTableRecord
  2
*ACTIVE
 70
0
 10
0.0
 20
0.0
 11
1.0
 21
1.0
 12
19.8222420281
 22
28.0343137255
 13
0.0
 23
0.0
 14
1.0
 24
1.0
 15
0.0
 25
0.0
 16
0.0
 26
0.0
 36
1.0
 17
0.0
 27
0.0
 37
0.0
 40
56.068627451
 41
0.7070707071
 42
50.0
 43
0.0
 44
0.0
 50
0.0
 51
0.0
 71
0
 72
100
 73
1
 74
1
 75
0
 76
0
 77
0
 78
0
  0
ENDTAB
  0
TABLE
  2
LTYPE
  5
5
100
AcDbSymbolTable
 70
6
  0
LTYPE
  5
14
100
AcDbSymbolTableRecord
100
AcDbLinetypeTableRecord
  2
BYBLOCK
 70
0
  3

 72
65
 73
0
 40
0.0
  0
LTYPE
  5
15
100
AcDbSymbolTableRecord
100
AcDbLinetypeTableRecord
  2
BYLAYER
 70
0
  3

 72
65
 73
0
 40
0.0
  0
LTYPE
  5
16
100
AcDbSymbolTableRecord
100
AcDbLinetypeTableRecord
  2
CONTINUOUS
 70
64
  3
Solid line
 72
65
 73
0
 40
0.0
  0
LTYPE
  5
1F5
100
AcDbSymbolTableRecord
100
AcDbLinetypeTableRecord
  2
CENTER
 70
64
  3
____ _ ____ _ ____ _ ____ _ ____ _ ____ _ ____
 72
65
 73
4
 40
0.6
 49
0.375
 74
0
 49
-0.075
 74
0
 49
0.075
 74
0
 49
-0.075
 74
0
  0
LTYPE
  5
1F6
100
AcDbSymbolTableRecord
100
AcDbLinetypeTableRecord
  2
HIDDEN
 70
64
  3
- - - - - - - - - - - - - - - - - - - -
 72
65
 73
2
 40
0.2
 49
0.1
 74
0
 49
-0.1
 74
0
  0
LTYPE
  5
1F7
100
AcDbSymbolTableRecord
100
AcDbLinetypeTableRecord
  2
PHANTOM
 70
64
  3
_____ _ _ _____ _ _ _____ _ _ _____
 72
65
 73
6
 40
0.8
 49
0.45
 74
0
 49
-0.05
 74
0
 49
0.1
 74
0
 49
-0.05
 74
0
 49
0.1
 74
0
 49
-0.05
 74
0
  0
LTYPE
  5
1F8
100
AcDbSymbolTableRecord
100
AcDbLinetypeTableRecord
  2
DOT
 70
64
  3
. . . . . . . . . . . . . . . . . . . .
 72
65
 73
2
 40
0.2
 49
0.1
 74
0
 49
-0.1
 74
0
  0
LTYPE
  5
1F9
100
AcDbSymbolTableRecord
100
AcDbLinetypeTableRecord
  2
DASHED
 70
64
  3
- - - - - - - - - - - - - - - - - - - -
 72
65
 73
2
 40
0.2
 49
0.1
 74
0
 49
-0.1
 74
0
  0
ENDTAB
  0
TABLE
  2
LAYER
  5
2
100
AcDbSymbolTable
 70
36
  0
LAYER
  5
10
100
AcDbSymbolTableRecord
100
AcDbLayerTableRecord
  2
0
 70
0
 62
7
  6
CONTINUOUS
370
-3
390
F
  0
LAYER
  5
1FA
100
AcDbSymbolTableRecord
100
AcDbLayerTableRecord
  2
DEFAULT_1
 70
0
 62
7
  6
CENTER
370
-3
390
F
  0
LAYER
  5
1FB
100
AcDbSymbolTableRecord
100
AcDbLayerTableRecord
  2
DEFAULT_2
 70
0
 62
7
  6
HIDDEN
370
-3
390
F
  0
LAYER
  5
1FC
100
AcDbSymbolTableRecord
100
AcDbLayerTableRecord
  2
DEFAULT_3
 70
0
 62
7
  6
PHANTOM
370
-3
390
F
  0
LAYER
  5
1FD
100
AcDbSymbolTableRecord
100
AcDbLayerTableRecord
  2
00_COMPONENTS
 70
0
 62
7
  6
CONTINUOUS
370
-3
390
F
  0
LAYER
  5
1FE
100
AcDbSymbolTableRecord
100
AcDbLayerTableRecord
  2
01_1_DEFAULT_DATUMS
 70
0
 62
7
  6
CONTINUOUS
370
-3
390
F
  0
LAYER
  5
1FF
100
AcDbSymbolTableRecord
100
AcDbLayerTableRecord
  2
01_PLANES
 70
0
 62
7
  6
CONTINUOUS
370
-3
390
F
  0
LAYER
  5
200
100
AcDbSymbolTableRecord
100
AcDbLayerTableRecord
  2
02_COORD_SYS
 70
0
 62
7
  6
CONTINUOUS
370
-3
390
F
  0
LAYER
  5
201
100
AcDbSymbolTableRecord
100
AcDbLayerTableRecord
  2
03_AXES
 70
0
 62
7
  6
CONTINUOUS
370
-3
390
F
  0
LAYER
  5
202
100
AcDbSymbolTableRecord
100
AcDbLayerTableRecord
  2
04_POINTS
 70
0
 62
7
  6
CONTINUOUS
370
-3
390
F
  0
LAYER
  5
203
100
AcDbSymbolTableRecord
100
AcDbLayerTableRecord
  2
05_CURVES
 70
0
 62
7
  6
CONTINUOUS
370
-3
390
F
  0
LAYER
  5
204
100
AcDbSymbolTableRecord
100
AcDbLayerTableRecord
  2
06_SURFS
 70
0
 62
7
  6
CONTINUOUS
370
-3
390
F
  0
LAYER
  5
205
100
AcDbSymbolTableRecord
100
AcDbLayerTableRecord
  2
07_COSMETICS
 70
0
 62
7
  6
CONTINUOUS
370
-3
390
F
  0
LAYER
  5
206
100
AcDbSymbolTableRecord
100
AcDbLayerTableRecord
  2
10_NOTES
 70
0
 62
7
  6
CONTINUOUS
370
-3
390
F
  0
LAYER
  5
207
100
AcDbSymbolTableRecord
100
AcDbLayerTableRecord
  2
11_NOTES_PUB
 70
0
 62
7
  6
CONTINUOUS
370
-3
390
F
  0
LAYER
  5
208
100
AcDbSymbolTableRecord
100
AcDbLayerTableRecord
  2
13157
 70
0
 62
7
  6
CONTINUOUS
370
-3
390
F
  0
LAYER
  5
209
100
AcDbSymbolTableRecord
100
AcDbLayerTableRecord
  2
13_REF_GTOL
 70
0
 62
7
  6
CONTINUOUS
370
-3
390
F
  0
LAYER
  5
20A
100
AcDbSymbolTableRecord
100
AcDbLayerTableRecord
  2
16_MISC
 70
0
 62
7
  6
CONTINUOUS
370
-3
390
F
  0
LAYER
  5
20B
100
AcDbSymbolTableRecord
100
AcDbLayerTableRecord
  2
17_NO_PRINT
 70
0
 62
7
  6
CONTINUOUS
370
-3
390
F
  0
LAYER
  5
20C
100
AcDbSymbolTableRecord
100
AcDbLayerTableRecord
  2
18_DATUM_CAMS_JOINTS
 70
0
 62
7
  6
CONTINUOUS
370
-3
390
F
  0
LAYER
  5
20D
100
AcDbSymbolTableRecord
100
AcDbLayerTableRecord
  2
19_DATUM_FUNCTIONAL
 70
0
 62
7
  6
CONTINUOUS
370
-3
390
F
  0
LAYER
  5
20E
100
AcDbSymbolTableRecord
100
AcDbLayerTableRecord
  2
20_DATUM_KINEMATIC_SCHEME
 70
0
 62
7
  6
CONTINUOUS
370
-3
390
F
  0
ENDTAB
  0
TABLE
  2
STYLE
  5
3
100
AcDbSymbolTable
 70
1
  0
STYLE
  5
11
100
AcDbSymbolTableRecord
100
AcDbTextStyleTableRecord
  2
STANDARD
 70
0
 40
0.0
 41
1.0
 50
0.0
 71
0
 42
0.2
  3
ARIAL.TTF
  4

  0
STYLE
  5
20F
100
AcDbSymbolTableRecord
100
AcDbTextStyleTableRecord
  2
TEXTSTYLE_1
 70
0
 40
0.0
 41
0.8
 50
0.0
 71
0
 42
0.2
  3
gdt
  4

  0
ENDTAB
  0
TABLE
  2
VIEW
  5
6
100
AcDbSymbolTable
 70
0
  0
ENDTAB
  0
TABLE
  2
UCS
  5
7
100
AcDbSymbolTable
 70
0
  0
ENDTAB
  0
TABLE
  2
APPID
  5
9
100
AcDbSymbolTable
 70
1
  0
APPID
  5
210
100
AcDbSymbolTableRecord
100
AcDbRegAppTableRecord
  2
ACAD
 70
0
  0
ENDTAB
  0
TABLE
  2
BLOCK_RECORD
  5
1
100
AcDbSymbolTable
 70
0
  0
BLOCK_RECORD
  5
211
100
AcDbSymbolTableRecord
100
AcDbBlockTableRecord
  2
*Model_Space
  0
BLOCK_RECORD
  5
212
100
AcDbSymbolTableRecord
100
AcDbBlockTableRecord
  2
*Paper_Space
  0
BLOCK_RECORD
  5
213
100
AcDbSymbolTableRecord
100
AcDbBlockTableRecord
  2
_FILLED
  0
ENDTAB
  0
TABLE
  2
DIMSTYLE
  5
A
100
AcDbSymbolTable
 70
1
100
AcDbDimStyleTable
 71
0
  0
DIMSTYLE
105
214
100
AcDbSymbolTableRecord
100
AcDbDimStyleTableRecord
  2
STANDARD
 70
0
  3

  4

 40
1.0
 41
0.4719581435
 42
1.0
 43
0.38
 44
1.0
 45
0.0
 46
0.0
 47
0.01
 48
0.01
140
0.6607414009
141
0.09
142
0.0
143
25.4
144
1.0
145
0.0
146
1.0
147
0.625
 71
1
 72
0
 73
0
 74
0
 75
0
 76
0
 77
1
 78
8
 79
2
170
0
171
1
172
0
173
0
174
0
175
0
176
0
177
0
178
0
270
2
179
2
271
2
272
2
273
2
274
2
275
0
280
0
281
0
282
0
283
1
284
8
285
0
286
0
287
3
288
0
340
11
278
46
341
213
342
213
343
213
344
213
  0
ENDTAB
  0
ENDSEC
  0
SECTION
  2
BLOCKS
  0
BLOCK
  5
20
100
AcDbEntity
  8
0
100
AcDbBlockBegin
  2
*Model_Space
 70
0
 10
0.0
 20
0.0
 30
0.0
  3
*Model_Space
  1

  0
ENDBLK
  5
21
100
AcDbEntity
  8
0
100
AcDbBlockEnd
  0
BLOCK
  5
1C
100
AcDbEntity
  8
0
100
AcDbBlockBegin
  2
*Paper_Space
 70
0
 10
0.0
 20
0.0
 30
0.0
  3
*Paper_Space
  1

  0
ENDBLK
  5
1D
100
AcDbEntity
  8
0
100
AcDbBlockEnd
  0
BLOCK
  5
215
100
AcDbEntity
  8
0
100
AcDbBlockBegin
  2
_FILLED
 70
64
 10
0.0
 20
0.0
  3
_FILLED
  1

  0
SOLID
  5
216
100
AcDbEntity
  8
0
  6
BYBLOCK
 62
0
100
AcDbTrace
 10
0.0
 20
0.0
 11
-1.0
 21
0.25
 12
-1.0
 22
-0.25
 13
-1.0
 23
-0.25
  0
ENDBLK
  5
217
100
AcDbEntity
  8
0
  6
BYBLOCK
 62
0
100
AcDbBlockEnd
  0
ENDSEC
  0
SECTION
  2
ENTITIES
  0
LINE
  5
218
100
AcDbEntity
  8
0
100
AcDbLine
 62
7
  6
BYLAYER
 10
4.621261636
 20
18.7806073719
 11
4.621261636
 21
37.4250609258
  0
LINE
  5
219
100
AcDbEntity
  8
0
100
AcDbLine
 62
7
  6
BYLAYER
 10
7.2086060557
 20
41.1362430478
 11
7.035432916
 21
40.2709528355
  0
LINE
  5
21A
100
AcDbEntity
  8
0
100
AcDbLine
 62
7
  6
BYLAYER
 10
33.2432536726
 20
13.4857059178
 11
27.521261636
 21
13.2528341488
  0
LINE
  5
21B
100
AcDbEntity
  8
0
100
AcDbLine
 62
7
  6
BYLAYER
 10
21.271261636
 20
13.2528341488
 11
23.021261636
 21
13.2528341488
  0
LINE
  5
21C
100
AcDbEntity
  8
0
100
AcDbLine
 62
7
  6
BYLAYER
 10
27.521261636
 20
13.2628268134
 11
23.021261636
 21
13.2628268134
  0
LINE
  5
21D
100
AcDbEntity
  8
0
100
AcDbLine
 62
7
  6
BYLAYER
 10
23.021261636
 20
13.2771701218
 11
27.521261636
 21
13.2771701218
  0
LINE
  5
21E
100
AcDbEntity
  8
0
100
AcDbLine
 62
7
  6
BYLAYER
 10
27.521261636
 20
13.2871867891
 11
23.021261636
 21
13.2871867891
  0
LINE
  5
21F
100
AcDbEntity
  8
0
100
AcDbLine
 62
7
  6
BYLAYER
 10
23.021261636
 20
13.43864261
 11
27.521261636
 21
13.43864261
  0
LINE
  5
220
100
AcDbEntity
  8
0
100
AcDbLine
 62
7
  6
BYLAYER
 10
23.021261636
 20
13.4472165548
 11
27.521261636
 21
13.4472165548
  0
LINE
  5
221
100
AcDbEntity
  8
0
100
AcDbLine
 62
7
  6
BYLAYER
 10
27.521261636
 20
13.4738700976
 11
23.021261636
 21
13.4738700976
  0
LINE
  5
222
100
AcDbEntity
  8
0
100
AcDbLine
 62
7
  6
BYLAYER
 10
6.7649115096
 20
13.5963515021
 11
13.271261636
 21
13.5963515021
  0
LINE
  5
223
100
AcDbEntity
  8
0
100
AcDbLine
 62
7
  6
BYLAYER
 10
23.021261636
 20
13.6261601796
 11
27.521261636
 21
13.6261601796
  0
LINE
  5
224
100
AcDbEntity
  8
0
100
AcDbLine
 62
7
  6
BYLAYER
 10
6.7649115096
 20
13.6316885647
 11
13.271261636
 21
13.6316885647
  0
LINE
  5
225
100
AcDbEntity
  8
0
100
AcDbLine
 62
7
  6
BYLAYER
 10
6.7649115096
 20
13.737527594
 11
13.271261636
 21
13.737527594
  0
LINE
  5
226
100
AcDbEntity
  8
0
100
AcDbLine
 62
7
  6
BYLAYER
 10
23.021261636
 20
13.7778330012
 11
27.521261636
 21
13.7778330012
  0
LINE
  5
227
100
AcDbEntity
  8
0
100
AcDbLine
 62
7
  6
BYLAYER
 10
27.521261636
 20
13.8208313976
 11
23.021261636
 21
13.8208313976
  0
LINE
  5
228
100
AcDbEntity
  8
0
100
AcDbLine
 62
7
  6
BYLAYER
 10
7.035432916
 20
15.9347154622
 11
7.2086060557
 21
15.0694252498
  0
LINE
  5
229
100
AcDbEntity
  8
0
100
AcDbLine
 62
7
  6
BYLAYER
 10
6.7655490762
 20
28.5582725808
 11
6.7649115096
 21
28.6091030921
  0
LINE
  5
22A
100
AcDbEntity
  8
0
100
AcDbLine
 62
7
  6
BYLAYER
 10
6.7655490762
 20
29.4669305945
 11
6.7649115096
 21
29.6191744873
  0
LINE
  5
22B
100
AcDbEntity
  8
0
100
AcDbLine
 62
7
  6
BYLAYER
 10
6.7655490762
 20
30.3689428674
 11
6.7649115096
 21
30.6218584248
  0
LINE
  5
22C
100
AcDbEntity
  8
0
100
AcDbLine
 62
7
  6
BYLAYER
 10
6.7655490762
 20
31.2599148864
 11
6.7649115096
 21
31.6122699292
  0
LINE
  5
22D
100
AcDbEntity
  8
0
100
AcDbLine
 62
7
  6
BYLAYER
 10
6.7655490762
 20
32.1355059254
 11
6.7649115095
 21
32.5855838153
  0
LINE
  5
22E
100
AcDbEntity
  8
0
100
AcDbLine
 62
7
  6
BYLAYER
 10
6.7655490762
 20
32.9914501929
 11
6.7649115096
 21
33.5370581956
  0
LINE
  5
22F
100
AcDbEntity
  8
0
100
AcDbLine
 62
7
  6
BYLAYER
 10
6.7655490762
 20
34.6278341488
 11
6.7649115095
 21
35.3560754722
  0
LINE
  5
230
100
AcDbEntity
  8
0
100
AcDbLine
 62
7
  6
BYLAYER
 10
6.7655490762
 20
33.8235776144
 11
6.7649115096
 21
34.4620575826
  0
LINE
  5
231
100
AcDbEntity
  8
0
100
AcDbLine
 62
7
  6
BYLAYER
 10
6.7655490762
 20
35.4003015391
 11
6.7653855734
 21
40.3658227718
  0
LINE
  5
232
100
AcDbEntity
  8
0
100
AcDbLine
 62
7
  6
BYLAYER
 10
6.7655490762
 20
40.3658228501
 11
6.7649115096
 21
42.6093167956
  0
LINE
  5
233
100
AcDbEntity
  8
0
100
AcDbLine
 62
7
  6
BYLAYER
 10
6.7649115096
 20
13.5963515021
 11
6.7652986676
 21
17.6677435969
  0
LINE
  5
234
100
AcDbEntity
  8
0
100
AcDbLine
 62
7
  6
BYLAYER
 10
6.7649115096
 20
17.6677438181
 11
6.7655490762
 21
20.8053667586
  0
LINE
  5
235
100
AcDbEntity
  8
0
100
AcDbLine
 62
7
  6
BYLAYER
 10
6.7649115095
 20
20.8495928255
 11
6.7655490762
 21
21.5778341488
  0
LINE
  5
236
100
AcDbEntity
  8
0
100
AcDbLine
 62
7
  6
BYLAYER
 10
6.7649115096
 20
21.7436107151
 11
6.7655490762
 21
22.3820906832
  0
LINE
  5
237
100
AcDbEntity
  8
0
100
AcDbLine
 62
7
  6
BYLAYER
 10
6.7649115096
 20
22.6686101021
 11
6.7655490762
 21
23.2142181048
  0
LINE
  5
238
100
AcDbEntity
  8
0
100
AcDbLine
 62
7
  6
BYLAYER
 10
6.7649115095
 20
23.6200844824
 11
6.7655490762
 21
24.0701623723
  0
LINE
  5
239
100
AcDbEntity
  8
0
100
AcDbLine
 62
7
  6
BYLAYER
 10
6.7649115096
 20
24.5933983685
 11
6.7655490762
 21
24.9457534113
  0
LINE
  5
23A
100
AcDbEntity
  8
0
100
AcDbLine
 62
7
  6
BYLAYER
 10
6.7649115096
 20
25.5838098729
 11
6.7655490762
 21
25.8367254303
  0
LINE
  5
23B
100
AcDbEntity
  8
0
100
AcDbLine
 62
7
  6
BYLAYER
 10
6.7649115096
 20
26.5864938104
 11
6.7655490762
 21
26.7387377032
  0
LINE
  5
23C
100
AcDbEntity
  8
0
100
AcDbLine
 62
7
  6
BYLAYER
 10
6.7649115096
 20
27.5965652055
 11
6.7655490762
 21
27.6473957169
  0
LINE
  5
23D
100
AcDbEntity
  8
0
100
AcDbLine
 62
7
  6
BYLAYER
 10
6.7649115096
 20
13.9133529528
 11
13.271261636
 21
13.9133529528
  0
LINE
  5
23E
100
AcDbEntity
  8
0
100
AcDbLine
 62
7
  6
BYLAYER
 10
23.021261636
 20
13.9722872186
 11
27.521261636
 21
13.9722872186
  0
LINE
  5
23F
100
AcDbEntity
  8
0
100
AcDbLine
 62
7
  6
BYLAYER
 10
6.7649115096
 20
14.1583080377
 11
13.271261636
 21
14.1583080377
  0
LINE
  5
240
100
AcDbEntity
  8
0
100
AcDbLine
 62
7
  6
BYLAYER
 10
23.021261636
 20
14.2653971577
 11
27.521261636
 21
14.2653971577
  0
LINE
  5
241
100
AcDbEntity
  8
0
100
AcDbLine
 62
7
  6
BYLAYER
 10
27.521261636
 20
14.3242693084
 11
23.021261636
 21
14.3242693084
  0
LINE
  5
242
100
AcDbEntity
  8
0
100
AcDbLine
 62
7
  6
BYLAYER
 10
6.7649115096
 20
14.4711994521
 11
13.271261636
 21
14.4711994521
  0
LINE
  5
243
100
AcDbEntity
  8
0
100
AcDbLine
 62
7
  6
BYLAYER
 10
23.021261636
 20
14.4732314867
 11
27.521261636
 21
14.4732314867
  0
LINE
  5
244
100
AcDbEntity
  8
0
100
AcDbLine
 62
7
  6
BYLAYER
 10
23.021261636
 20
14.9045671697
 11
27.521261636
 21
14.9045671697
  0
LINE
  5
245
100
AcDbEntity
  8
0
100
AcDbLine
 62
7
  6
BYLAYER
 10
27.521261636
 20
14.978668059
 11
23.021261636
 21
14.978668059
  0
LINE
  5
246
100
AcDbEntity
  8
0
100
AcDbLine
 62
7
  6
BYLAYER
 10
13.271261636
 20
15.0694252498
 11
7.2086060557
 21
15.0694252498
  0
LINE
  5
247
100
AcDbEntity
  8
0
100
AcDbLine
 62
7
  6
BYLAYER
 10
23.021261636
 20
15.1235045338
 11
27.521261636
 21
15.1235045338
  0
LINE
  5
248
100
AcDbEntity
  8
0
100
AcDbLine
 62
7
  6
BYLAYER
 10
8.071261636
 20
16.5779864363
 11
8.071261636
 21
16.9902237281
  0
LINE
  5
249
100
AcDbEntity
  8
0
100
AcDbLine
 62
7
  6
BYLAYER
 10
8.071261636
 20
39.2154445696
 11
8.071261636
 21
39.6276818614
  0
LINE
  5
24A
100
AcDbEntity
  8
0
100
AcDbLine
 62
7
  6
BYLAYER
 10
8.271261636
 20
15.9347154622
 11
8.271261636
 21
16.9902237281
  0
LINE
  5
24B
100
AcDbEntity
  8
0
100
AcDbLine
 62
7
  6
BYLAYER
 10
8.271261636
 20
39.2154445696
 11
8.271261636
 21
40.2709528355
  0
LINE
  5
24C
100
AcDbEntity
  8
0
100
AcDbLine
 62
7
  6
BYLAYER
 10
13.271261636
 20
15.4528341488
 11
13.771261636
 21
15.4528341488
  0
LINE
  5
24D
100
AcDbEntity
  8
0
100
AcDbLine
 62
7
  6
BYLAYER
 10
23.021261636
 20
15.6883401565
 11
27.521261636
 21
15.6883401565
  0
LINE
  5
24E
100
AcDbEntity
  8
0
100
AcDbLine
 62
7
  6
BYLAYER
 10
27.521261636
 20
15.7768579197
 11
23.021261636
 21
15.7768579197
  0
LINE
  5
24F
100
AcDbEntity
  8
0
100
AcDbLine
 62
7
  6
BYLAYER
 10
23.021261636
 20
15.9159818323
 11
27.521261636
 21
15.9159818323
  0
LINE
  5
250
100
AcDbEntity
  8
0
100
AcDbLine
 62
7
  6
BYLAYER
 10
7.035432916
 20
15.9347154622
 11
8.271261636
 21
15.9347154622
  0
LINE
  5
251
100
AcDbEntity
  8
0
100
AcDbLine
 62
7
  6
BYLAYER
 10
8.271261636
 20
16.1977034756
 11
13.271261636
 21
16.1977034756
  0
LINE
  5
252
100
AcDbEntity
  8
0
100
AcDbLine
 62
7
  6
BYLAYER
 10
21.271261636
 20
16.5028341488
 11
19.771261636
 21
16.5028341488
  0
LINE
  5
253
100
AcDbEntity
  8
0
100
AcDbLine
 62
7
  6
BYLAYER
 10
8.071261636
 20
16.5778341488
 11
8.271261636
 21
16.5778341488
  0
LINE
  5
254
100
AcDbEntity
  8
0
100
AcDbLine
 62
7
  6
BYLAYER
 10
23.021261636
 20
16.6081289375
 11
27.521261636
 21
16.6081289375
  0
LINE
  5
255
100
AcDbEntity
  8
0
100
AcDbLine
 62
7
  6
BYLAYER
 10
27.521261636
 20
16.7100937553
 11
23.021261636
 21
16.7100937553
  0
LINE
  5
256
100
AcDbEntity
  8
0
100
AcDbLine
 62
7
  6
BYLAYER
 10
7.2537229031
 20
30.0500574373
 11
6.7649115096
 21
29.6191744873
  0
LINE
  5
257
100
AcDbEntity
  8
0
100
AcDbLine
 62
7
  6
BYLAYER
 10
7.2537229031
 20
31.011804945
 11
6.7649115096
 21
30.6218584248
  0
LINE
  5
258
100
AcDbEntity
  8
0
100
AcDbLine
 62
7
  6
BYLAYER
 10
7.2537229031
 20
31.9593802394
 11
6.7649115096
 21
31.6122699292
  0
LINE
  5
259
100
AcDbEntity
  8
0
100
AcDbLine
 62
7
  6
BYLAYER
 10
7.2537229031
 20
32.8881668289
 11
6.7649115096
 21
32.5855838153
  0
LINE
  5
25A
100
AcDbEntity
  8
0
100
AcDbLine
 62
7
  6
BYLAYER
 10
7.2537229031
 20
33.7936397586
 11
6.7649115095
 21
33.5370581956
  0
LINE
  5
25B
100
AcDbEntity
  8
0
100
AcDbLine
 62
7
  6
BYLAYER
 10
7.2537229031
 20
34.6713876554
 11
6.7649115096
 21
34.4620575826
  0
LINE
  5
25C
100
AcDbEntity
  8
0
100
AcDbLine
 62
7
  6
BYLAYER
 10
7.2537229031
 20
35.5171342198
 11
6.7649115096
 21
35.3560754722
  0
LINE
  5
25D
100
AcDbEntity
  8
0
100
AcDbLine
 62
7
  6
BYLAYER
 10
23.021261636
 20
16.841980835
 11
27.521261636
 21
16.841980835
  0
LINE
  5
25E
100
AcDbEntity
  8
0
100
AcDbLine
 62
7
  6
BYLAYER
 10
6.7649115096
 20
16.9902237281
 11
13.271261636
 21
16.9902237281
  0
LINE
  5
25F
100
AcDbEntity
  8
0
100
AcDbLine
 62
7
  6
BYLAYER
 10
23.021261636
 20
17.6538561141
 11
27.521261636
 21
17.6538561141
  0
LINE
  5
260
100
AcDbEntity
  8
0
100
AcDbLine
 62
7
  6
BYLAYER
 10
6.7649115095
 20
17.6677438181
 11
13.271261636
 21
17.6677438181
  0
LINE
  5
261
100
AcDbEntity
  8
0
100
AcDbLine
 62
7
  6
BYLAYER
 10
27.521261636
 20
17.7681508387
 11
23.021261636
 21
17.7681508387
  0
LINE
  5
262
100
AcDbEntity
  8
0
100
AcDbLine
 62
7
  6
BYLAYER
 10
23.021261636
 20
17.8913561031
 11
27.521261636
 21
17.8913561031
  0
LINE
  5
263
100
AcDbEntity
  8
0
100
AcDbLine
 62
7
  6
BYLAYER
 10
13.771261636
 20
17.9028341488
 11
19.771261636
 21
17.9028341488
  0
LINE
  5
264
100
AcDbEntity
  8
0
100
AcDbLine
 62
7
  6
BYLAYER
 10
6.7649115096
 20
18.3961026193
 11
7.2537229031
 21
18.3836071779
  0
LINE
  5
265
100
AcDbEntity
  8
0
100
AcDbLine
 62
7
  6
BYLAYER
 10
6.7649115095
 20
19.1717516408
 11
7.2537229031
 21
19.1093505339
  0
LINE
  5
266
100
AcDbEntity
  8
0
100
AcDbLine
 62
7
  6
BYLAYER
 10
6.7649115096
 20
19.9909119985
 11
7.2537229031
 21
19.8789092382
  0
LINE
  5
267
100
AcDbEntity
  8
0
100
AcDbLine
 62
7
  6
BYLAYER
 10
6.7649115095
 20
20.8495928255
 11
7.2537229031
 21
20.6885340779
  0
LINE
  5
268
100
AcDbEntity
  8
0
100
AcDbLine
 62
7
  6
BYLAYER
 10
6.7649115096
 20
21.7436107151
 11
7.2537229031
 21
21.5342806423
  0
LINE
  5
269
100
AcDbEntity
  8
0
100
AcDbLine
 62
7
  6
BYLAYER
 10
6.7649115096
 20
22.6686101021
 11
7.2537229031
 21
22.4120285391
  0
LINE
  5
26A
100
AcDbEntity
  8
0
100
AcDbLine
 62
7
  6
BYLAYER
 10
6.7649115096
 20
23.6200844824
 11
7.2537229031
 21
23.3175014688
  0
LINE
  5
26B
100
AcDbEntity
  8
0
100
AcDbLine
 62
7
  6
BYLAYER
 10
6.7649115095
 20
24.5933983685
 11
7.2537229031
 21
24.2462880583
  0
LINE
  5
26C
100
AcDbEntity
  8
0
100
AcDbLine
 62
7
  6
BYLAYER
 10
6.7649115095
 20
25.5838098729
 11
7.2537229031
 21
25.1938633527
  0
LINE
  5
26D
100
AcDbEntity
  8
0
100
AcDbLine
 62
7
  6
BYLAYER
 10
6.7649115095
 20
26.5864938104
 11
7.2537229031
 21
26.1556108604
  0
LINE
  5
26E
100
AcDbEntity
  8
0
100
AcDbLine
 62
7
  6
BYLAYER
 10
7.2537229031
 20
26.1556108604
 11
6.7649115096
 21
25.5838098729
  0
LINE
  5
26F
100
AcDbEntity
  8
0
100
AcDbLine
 62
7
  6
BYLAYER
 10
7.2537229031
 20
27.1268450442
 11
6.7649115096
 21
26.5864938104
  0
LINE
  5
270
100
AcDbEntity
  8
0
100
AcDbLine
 62
7
  6
BYLAYER
 10
7.2537229031
 20
28.1028341488
 11
6.7649115096
 21
27.5965652056
  0
LINE
  5
271
100
AcDbEntity
  8
0
100
AcDbLine
 62
7
  6
BYLAYER
 10
7.2537229031
 20
29.0788232535
 11
6.7649115095
 21
28.6091030921
  0
LINE
  5
272
100
AcDbEntity
  8
0
100
AcDbLine
 62
7
  6
BYLAYER
 10
13.271261636
 20
18.3836071779
 11
7.2537229031
 21
18.3836071779
  0
LINE
  5
273
100
AcDbEntity
  8
0
100
AcDbLine
 62
7
  6
BYLAYER
 10
6.7649115096
 20
18.3961026193
 11
13.271261636
 21
18.3961026193
  0
LINE
  5
274
100
AcDbEntity
  8
0
100
AcDbLine
 62
7
  6
BYLAYER
 10
4.621261636
 20
18.7806073719
 11
6.7651630519
 21
18.7806073719
  0
LINE
  5
275
100
AcDbEntity
  8
0
100
AcDbLine
 62
7
  6
BYLAYER
 10
23.021261636
 20
18.8140644807
 11
27.521261636
 21
18.8140644807
  0
LINE
  5
276
100
AcDbEntity
  8
0
100
AcDbLine
 62
7
  6
BYLAYER
 10
27.521261636
 20
18.9394368752
 11
23.021261636
 21
18.9394368752
  0
LINE
  5
277
100
AcDbEntity
  8
0
100
AcDbLine
 62
7
  6
BYLAYER
 10
23.021261636
 20
19.0526104616
 11
27.521261636
 21
19.0526104616
  0
LINE
  5
278
100
AcDbEntity
  8
0
100
AcDbLine
 62
7
  6
BYLAYER
 10
13.271261636
 20
19.1093505339
 11
7.2537229031
 21
19.1093505339
  0
LINE
  5
279
100
AcDbEntity
  8
0
100
AcDbLine
 62
7
  6
BYLAYER
 10
6.7649115096
 20
19.1717516408
 11
13.271261636
 21
19.1717516408
  0
LINE
  5
27A
100
AcDbEntity
  8
0
100
AcDbLine
 62
7
  6
BYLAYER
 10
6.7649115096
 20
27.5965652056
 11
7.2537229031
 21
27.1268450442
  0
LINE
  5
27B
100
AcDbEntity
  8
0
100
AcDbLine
 62
7
  6
BYLAYER
 10
6.7649115096
 20
28.6091030921
 11
7.2537229031
 21
28.1028341488
  0
LINE
  5
27C
100
AcDbEntity
  8
0
100
AcDbLine
 62
7
  6
BYLAYER
 10
6.7649115095
 20
29.6191744873
 11
7.2537229031
 21
29.0788232535
  0
LINE
  5
27D
100
AcDbEntity
  8
0
100
AcDbLine
 62
7
  6
BYLAYER
 10
6.7649115096
 20
30.6218584248
 11
7.2537229031
 21
30.0500574373
  0
LINE
  5
27E
100
AcDbEntity
  8
0
100
AcDbLine
 62
7
  6
BYLAYER
 10
13.271261636
 20
42.6093167956
 11
13.271261636
 21
13.5963515021
  0
LINE
  5
27F
100
AcDbEntity
  8
0
100
AcDbLine
 62
7
  6
BYLAYER
 10
7.2537229031
 20
22.4120285391
 11
6.7649115096
 21
21.7436107151
  0
LINE
  5
280
100
AcDbEntity
  8
0
100
AcDbLine
 62
7
  6
BYLAYER
 10
7.2537229031
 20
23.3175014688
 11
6.7649115095
 21
22.6686101021
  0
LINE
  5
281
100
AcDbEntity
  8
0
100
AcDbLine
 62
7
  6
BYLAYER
 10
7.2537229031
 20
24.2462880583
 11
6.7649115096
 21
23.6200844824
  0
LINE
  5
282
100
AcDbEntity
  8
0
100
AcDbLine
 62
7
  6
BYLAYER
 10
7.2537229031
 20
25.1938633527
 11
6.7649115096
 21
24.5933983685
  0
LINE
  5
283
100
AcDbEntity
  8
0
100
AcDbLine
 62
7
  6
BYLAYER
 10
13.271261636
 20
19.8789092382
 11
7.2537229031
 21
19.8789092382
  0
LINE
  5
284
100
AcDbEntity
  8
0
100
AcDbLine
 62
7
  6
BYLAYER
 10
6.7649115096
 20
19.9909119985
 11
13.271261636
 21
19.9909119985
  0
LINE
  5
285
100
AcDbEntity
  8
0
100
AcDbLine
 62
7
  6
BYLAYER
 10
23.021261636
 20
20.0760425516
 11
27.521261636
 21
20.0760425516
  0
LINE
  5
286
100
AcDbEntity
  8
0
100
AcDbLine
 62
7
  6
BYLAYER
 10
27.521261636
 20
20.2111190097
 11
23.021261636
 21
20.2111190097
  0
LINE
  5
287
100
AcDbEntity
  8
0
100
AcDbLine
 62
7
  6
BYLAYER
 10
23.021261636
 20
20.3130209646
 11
27.521261636
 21
20.3130209646
  0
LINE
  5
288
100
AcDbEntity
  8
0
100
AcDbLine
 62
7
  6
BYLAYER
 10
13.271261636
 20
20.6885340779
 11
7.2537229031
 21
20.6885340779
  0
LINE
  5
289
100
AcDbEntity
  8
0
100
AcDbLine
 62
7
  6
BYLAYER
 10
6.7649115096
 20
20.8495928255
 11
13.271261636
 21
20.8495928255
  0
LINE
  5
28A
100
AcDbEntity
  8
0
100
AcDbLine
 62
7
  6
BYLAYER
 10
6.7649115096
 20
31.6122699292
 11
7.2537229031
 21
31.011804945
  0
LINE
  5
28B
100
AcDbEntity
  8
0
100
AcDbLine
 62
7
  6
BYLAYER
 10
6.7649115095
 20
32.5855838153
 11
7.2537229031
 21
31.9593802394
  0
LINE
  5
28C
100
AcDbEntity
  8
0
100
AcDbLine
 62
7
  6
BYLAYER
 10
6.7649115095
 20
33.5370581956
 11
7.2537229031
 21
32.8881668289
  0
LINE
  5
28D
100
AcDbEntity
  8
0
100
AcDbLine
 62
7
  6
BYLAYER
 10
6.7649115096
 20
34.4620575826
 11
7.2537229031
 21
33.7936397586
  0
LINE
  5
28E
100
AcDbEntity
  8
0
100
AcDbLine
 62
7
  6
BYLAYER
 10
13.771261636
 20
40.7526715306
 11
13.771261636
 21
15.4529967671
  0
LINE
  5
28F
100
AcDbEntity
  8
0
100
AcDbLine
 62
7
  6
BYLAYER
 10
7.2537229031
 20
19.1093505339
 11
6.7649115096
 21
18.3961026193
  0
LINE
  5
290
100
AcDbEntity
  8
0
100
AcDbLine
 62
7
  6
BYLAYER
 10
7.2537229031
 20
19.8789092382
 11
6.7649115096
 21
19.1717516408
  0
LINE
  5
291
100
AcDbEntity
  8
0
100
AcDbLine
 62
7
  6
BYLAYER
 10
7.2537229031
 20
20.6885340779
 11
6.7649115096
 21
19.9909119985
  0
LINE
  5
292
100
AcDbEntity
  8
0
100
AcDbLine
 62
7
  6
BYLAYER
 10
7.2537229031
 20
21.5342806423
 11
6.7649115096
 21
20.8495928255
  0
LINE
  5
293
100
AcDbEntity
  8
0
100
AcDbLine
 62
7
  6
BYLAYER
 10
23.021261636
 20
21.425963831
 11
27.521261636
 21
21.425963831
  0
LINE
  5
294
100
AcDbEntity
  8
0
100
AcDbLine
 62
7
  6
BYLAYER
 10
13.271261636
 20
21.5342806423
 11
7.2537229031
 21
21.5342806423
  0
LINE
  5
295
100
AcDbEntity
  8
0
100
AcDbLine
 62
7
  6
BYLAYER
 10
27.521261636
 20
21.5692644268
 11
23.021261636
 21
21.5692644268
  0
LINE
  5
296
100
AcDbEntity
  8
0
100
AcDbLine
 62
7
  6
BYLAYER
 10
23.021261636
 20
21.658778291
 11
27.521261636
 21
21.658778291
  0
LINE
  5
297
100
AcDbEntity
  8
0
100
AcDbLine
 62
7
  6
BYLAYER
 10
6.7649115096
 20
21.7436107151
 11
13.271261636
 21
21.7436107151
  0
LINE
  5
298
100
AcDbEntity
  8
0
100
AcDbLine
 62
7
  6
BYLAYER
 10
13.271261636
 20
22.4120285391
 11
7.2537229031
 21
22.4120285391
  0
LINE
  5
299
100
AcDbEntity
  8
0
100
AcDbLine
 62
7
  6
BYLAYER
 10
6.7649115096
 20
35.3560754722
 11
7.2537229031
 21
34.6713876554
  0
LINE
  5
29A
100
AcDbEntity
  8
0
100
AcDbLine
 62
7
  6
BYLAYER
 10
6.7649115096
 20
36.2147562992
 11
7.2537229031
 21
35.5171342198
  0
LINE
  5
29B
100
AcDbEntity
  8
0
100
AcDbLine
 62
7
  6
BYLAYER
 10
6.7649115096
 20
37.0339166569
 11
7.2537229031
 21
36.3267590595
  0
LINE
  5
29C
100
AcDbEntity
  8
0
100
AcDbLine
 62
7
  6
BYLAYER
 10
6.7649115096
 20
37.8095656784
 11
7.2537229031
 21
37.0963177638
  0
LINE
  5
29D
100
AcDbEntity
  8
0
100
AcDbLine
 62
7
  6
BYLAYER
 10
7.2537229031
 20
18.3836071779
 11
6.7649115095
 21
17.6677438181
  0
LINE
  5
29E
100
AcDbEntity
  8
0
100
AcDbLine
 62
7
  6
BYLAYER
 10
7.2281053835
 20
17.6677438181
 11
6.7649115096
 21
16.9902237281
  0
LINE
  5
29F
100
AcDbEntity
  8
0
100
AcDbLine
 62
7
  6
BYLAYER
 10
6.7649115095
 20
22.6686101021
 11
13.271261636
 21
22.6686101021
  0
LINE
  5
2A0
100
AcDbEntity
  8
0
100
AcDbLine
 62
7
  6
BYLAYER
 10
23.021261636
 20
22.8490382987
 11
27.521261636
 21
22.8490382987
  0
LINE
  5
2A1
100
AcDbEntity
  8
0
100
AcDbLine
 62
7
  6
BYLAYER
 10
27.521261636
 20
22.998993001
 11
23.021261636
 21
22.998993001
  0
LINE
  5
2A2
100
AcDbEntity
  8
0
100
AcDbLine
 62
7
  6
BYLAYER
 10
23.021261636
 20
23.075138042
 11
27.521261636
 21
23.075138042
  0
LINE
  5
2A3
100
AcDbEntity
  8
0
100
AcDbLine
 62
7
  6
BYLAYER
 10
13.271261636
 20
23.3175014688
 11
7.2537229031
 21
23.3175014688
  0
LINE
  5
2A4
100
AcDbEntity
  8
0
100
AcDbLine
 62
7
  6
BYLAYER
 10
6.7649115096
 20
23.6200844824
 11
13.271261636
 21
23.6200844824
  0
LINE
  5
2A5
100
AcDbEntity
  8
0
100
AcDbLine
 62
7
  6
BYLAYER
 10
6.7649115096
 20
39.2154445696
 11
7.2281053835
 21
38.5379244796
  0
LINE
  5
2A6
100
AcDbEntity
  8
0
100
AcDbLine
 62
7
  6
BYLAYER
 10
6.7649115096
 20
38.5379244796
 11
7.2537229031
 21
37.8220611198
  0
LINE
  5
2A7
100
AcDbEntity
  8
0
100
AcDbLine
 62
7
  6
BYLAYER
 10
7.2086060557
 20
15.0694252498
 11
6.7649115096
 21
14.4711994521
  0
LINE
  5
2A8
100
AcDbEntity
  8
0
100
AcDbLine
 62
7
  6
BYLAYER
 10
13.271261636
 20
24.2462880583
 11
7.2537229031
 21
24.2462880583
  0
LINE
  5
2A9
100
AcDbEntity
  8
0
100
AcDbLine
 62
7
  6
BYLAYER
 10
23.021261636
 20
24.3296744533
 11
27.521261636
 21
24.3296744533
  0
LINE
  5
2AA
100
AcDbEntity
  8
0
100
AcDbLine
 62
7
  6
BYLAYER
 10
27.521261636
 20
24.4846403268
 11
23.021261636
 21
24.4846403268
  0
LINE
  5
2AB
100
AcDbEntity
  8
0
100
AcDbLine
 62
7
  6
BYLAYER
 10
23.021261636
 20
24.5465822835
 11
27.521261636
 21
24.5465822835
  0
LINE
  5
2AC
100
AcDbEntity
  8
0
100
AcDbLine
 62
7
  6
BYLAYER
 10
6.7649115096
 20
24.5933983685
 11
13.271261636
 21
24.5933983685
  0
LINE
  5
2AD
100
AcDbEntity
  8
0
100
AcDbLine
 62
7
  6
BYLAYER
 10
13.271261636
 20
25.1938633527
 11
7.2537229031
 21
25.1938633527
  0
LINE
  5
2AE
100
AcDbEntity
  8
0
100
AcDbLine
 62
7
  6
BYLAYER
 10
6.7649115096
 20
41.7344688456
 11
7.2086060557
 21
41.1362430478
  0
LINE
  5
2AF
100
AcDbEntity
  8
0
100
AcDbLine
 62
7
  6
BYLAYER
 10
7.0046610581
 20
14.4711994521
 11
6.7649115096
 21
14.1583080377
  0
LINE
  5
2B0
100
AcDbEntity
  8
0
100
AcDbLine
 62
7
  6
BYLAYER
 10
6.9600153866
 20
14.1583080377
 11
6.7649115096
 21
13.9133529528
  0
LINE
  5
2B1
100
AcDbEntity
  8
0
100
AcDbLine
 62
7
  6
BYLAYER
 10
6.9114534806
 20
13.9133529528
 11
6.7649115096
 21
13.737527594
  0
LINE
  5
2B2
100
AcDbEntity
  8
0
100
AcDbLine
 62
7
  6
BYLAYER
 10
6.7649115096
 20
25.5838098729
 11
13.271261636
 21
25.5838098729
  0
LINE
  5
2B3
100
AcDbEntity
  8
0
100
AcDbLine
 62
7
  6
BYLAYER
 10
23.021261636
 20
25.851650135
 11
27.521261636
 21
25.851650135
  0
LINE
  5
2B4
100
AcDbEntity
  8
0
100
AcDbLine
 62
7
  6
BYLAYER
 10
27.521261636
 20
26.0099293413
 11
23.021261636
 21
26.0099293413
  0
LINE
  5
2B5
100
AcDbEntity
  8
0
100
AcDbLine
 62
7
  6
BYLAYER
 10
19.771261636
 20
26.0278341488
 11
13.771261636
 21
26.0278341488
  0
LINE
  5
2B6
100
AcDbEntity
  8
0
100
AcDbLine
 62
7
  6
BYLAYER
 10
23.021261636
 20
26.0569895647
 11
27.521261636
 21
26.0569895647
  0
LINE
  5
2B7
100
AcDbEntity
  8
0
100
AcDbLine
 62
7
  6
BYLAYER
 10
7.0102393197
 20
26.0779884757
 11
4.621261636
 21
26.0779884757
  0
LINE
  5
2B8
100
AcDbEntity
  8
0
100
AcDbLine
 62
7
  6
BYLAYER
 10
13.271261636
 20
26.1556108604
 11
7.2537229031
 21
26.1556108604
  0
LINE
  5
2B9
100
AcDbEntity
  8
0
100
AcDbLine
 62
7
  6
BYLAYER
 10
6.7649115096
 20
26.5864938104
 11
13.271261636
 21
26.5864938104
  0
LINE
  5
2BA
100
AcDbEntity
  8
0
100
AcDbLine
 62
7
  6
BYLAYER
 10
6.7649115096
 20
42.4681407037
 11
6.9114534806
 21
42.2923153449
  0
LINE
  5
2BB
100
AcDbEntity
  8
0
100
AcDbLine
 62
7
  6
BYLAYER
 10
6.7649115096
 20
42.2923153449
 11
6.9600153866
 21
42.04736026
  0
LINE
  5
2BC
100
AcDbEntity
  8
0
100
AcDbLine
 62
7
  6
BYLAYER
 10
6.7649115096
 20
42.04736026
 11
7.0046610581
 21
41.7344688456
  0
LINE
  5
2BD
100
AcDbEntity
  8
0
100
AcDbLine
 62
7
  6
BYLAYER
 10
19.771261636
 20
16.5029870916
 11
19.771261636
 21
39.7026812061
  0
LINE
  5
2BE
100
AcDbEntity
  8
0
100
AcDbLine
 62
7
  6
BYLAYER
 10
6.8578912414
 20
13.737527594
 11
6.7649115096
 21
13.6316885647
  0
LINE
  5
2BF
100
AcDbEntity
  8
0
100
AcDbLine
 62
7
  6
BYLAYER
 10
6.7978989043
 20
13.6316885647
 11
6.7649115096
 21
13.5963515021
  0
LINE
  5
2C0
100
AcDbEntity
  8
0
100
AcDbLine
 62
7
  6
BYLAYER
 10
13.271261636
 20
27.1268450442
 11
7.2537229031
 21
27.1268450442
  0
LINE
  5
2C1
100
AcDbEntity
  8
0
100
AcDbLine
 62
7
  6
BYLAYER
 10
27.521261636
 20
27.3792596745
 11
23.021261636
 21
27.3792596745
  0
LINE
  5
2C2
100
AcDbEntity
  8
0
100
AcDbLine
 62
7
  6
BYLAYER
 10
23.021261636
 20
27.3982902599
 11
27.521261636
 21
27.3982902599
  0
LINE
  5
2C3
100
AcDbEntity
  8
0
100
AcDbLine
 62
7
  6
BYLAYER
 10
27.521261636
 20
27.5581486589
 11
23.021261636
 21
27.5581486589
  0
LINE
  5
2C4
100
AcDbEntity
  8
0
100
AcDbLine
 62
7
  6
BYLAYER
 10
23.021261636
 20
27.5898115473
 11
27.521261636
 21
27.5898115473
  0
LINE
  5
2C5
100
AcDbEntity
  8
0
100
AcDbLine
 62
7
  6
BYLAYER
 10
6.7649115096
 20
27.5965652056
 11
13.271261636
 21
27.5965652056
  0
LINE
  5
2C6
100
AcDbEntity
  8
0
100
AcDbLine
 62
7
  6
BYLAYER
 10
7.221261636
 20
28.1028341488
 11
13.271261636
 21
28.1028341488
  0
LINE
  5
2C7
100
AcDbEntity
  8
0
100
AcDbLine
 62
7
  6
BYLAYER
 10
6.7649115096
 20
42.6093167956
 11
6.7978989043
 21
42.573979733
  0
LINE
  5
2C8
100
AcDbEntity
  8
0
100
AcDbLine
 62
7
  6
BYLAYER
 10
6.7649115095
 20
42.573979733
 11
6.8578912414
 21
42.4681407037
  0
LINE
  5
2C9
100
AcDbEntity
  8
0
100
AcDbLine
 62
7
  6
BYLAYER
 10
21.271261636
 20
13.2529002056
 11
21.271261636
 21
42.9528259501
  0
LINE
  5
2CA
100
AcDbEntity
  8
0
100
AcDbLine
 62
7
  6
BYLAYER
 10
6.7649115095
 20
28.6091030921
 11
13.271261636
 21
28.6091030921
  0
LINE
  5
2CB
100
AcDbEntity
  8
0
100
AcDbLine
 62
7
  6
BYLAYER
 10
27.521261636
 20
28.9179293123
 11
23.021261636
 21
28.9179293123
  0
LINE
  5
2CC
100
AcDbEntity
  8
0
100
AcDbLine
 62
7
  6
BYLAYER
 10
23.021261636
 20
28.952649515
 11
27.521261636
 21
28.952649515
  0
LINE
  5
2CD
100
AcDbEntity
  8
0
100
AcDbLine
 62
7
  6
BYLAYER
 10
13.271261636
 20
29.0788232535
 11
7.2537229031
 21
29.0788232535
  0
LINE
  5
2CE
100
AcDbEntity
  8
0
100
AcDbLine
 62
7
  6
BYLAYER
 10
27.521261636
 20
29.1123356646
 11
23.021261636
 21
29.1123356646
  0
LINE
  5
2CF
100
AcDbEntity
  8
0
100
AcDbLine
 62
7
  6
BYLAYER
 10
23.021261636
 20
29.1282543129
 11
27.521261636
 21
29.1282543129
  0
LINE
  5
2D0
100
AcDbEntity
  8
0
100
AcDbLine
 62
7
  6
BYLAYER
 10
6.7649115096
 20
29.6191744873
 11
13.271261636
 21
29.6191744873
  0
LINE
  5
2D1
100
AcDbEntity
  8
0
100
AcDbLine
 62
7
  6
BYLAYER
 10
23.021261636
 20
42.9528340273
 11
23.021261636
 21
42.9428414843
  0
LINE
  5
2D2
100
AcDbEntity
  8
0
100
AcDbLine
 62
7
  6
BYLAYER
 10
23.021261636
 20
42.9361115314
 11
23.021261636
 21
42.8046112342
  0
LINE
  5
2D3
100
AcDbEntity
  8
0
100
AcDbLine
 62
7
  6
BYLAYER
 10
23.021261636
 20
42.7812083959
 11
23.021261636
 21
42.5053052377
  0
LINE
  5
2D4
100
AcDbEntity
  8
0
100
AcDbLine
 62
7
  6
BYLAYER
 10
23.021261636
 20
42.4654859204
 11
23.021261636
 21
42.0482027541
  0
LINE
  5
2D5
100
AcDbEntity
  8
0
100
AcDbLine
 62
7
  6
BYLAYER
 10
23.021261636
 20
41.9924032266
 11
23.021261636
 21
41.4383118938
  0
LINE
  5
2D6
100
AcDbEntity
  8
0
100
AcDbLine
 62
7
  6
BYLAYER
 10
23.021261636
 20
41.3671435074
 11
23.021261636
 21
40.6823147487
  0
LINE
  5
2D7
100
AcDbEntity
  8
0
100
AcDbLine
 62
7
  6
BYLAYER
 10
23.021261636
 20
40.5965874435
 11
23.021261636
 21
39.7884941818
  0
LINE
  5
2D8
100
AcDbEntity
  8
0
100
AcDbLine
 62
7
  6
BYLAYER
 10
23.021261636
 20
39.6890871261
 11
23.021261636
 21
38.7666430781
  0
LINE
  5
2D9
100
AcDbEntity
  8
0
100
AcDbLine
 62
7
  6
BYLAYER
 10
23.021261636
 20
38.6546756009
 11
23.021261636
 21
37.6279570522
  0
LINE
  5
2DA
100
AcDbEntity
  8
0
100
AcDbLine
 62
7
  6
BYLAYER
 10
23.021261636
 20
37.5046558927
 11
23.021261636
 21
36.3849117866
  0
LINE
  5
2DB
100
AcDbEntity
  8
0
100
AcDbLine
 62
7
  6
BYLAYER
 10
23.021261636
 20
36.251627858
 11
23.021261636
 21
35.0511263452
  0
LINE
  5
2DC
100
AcDbEntity
  8
0
100
AcDbLine
 62
7
  6
BYLAYER
 10
23.021261636
 20
34.9093199342
 11
23.021261636
 21
33.6412139605
  0
LINE
  5
2DD
100
AcDbEntity
  8
0
100
AcDbLine
 62
7
  6
BYLAYER
 10
23.021261636
 20
33.4924387278
 11
23.021261636
 21
32.1706219276
  0
LINE
  5
2DE
100
AcDbEntity
  8
0
100
AcDbLine
 62
7
  6
BYLAYER
 10
23.021261636
 20
32.0165078857
 11
23.021261636
 21
30.6554623605
  0
LINE
  5
2DF
100
AcDbEntity
  8
0
100
AcDbLine
 62
7
  6
BYLAYER
 10
23.021261636
 20
30.4976980152
 11
23.021261636
 21
29.1123356646
  0
LINE
  5
2E0
100
AcDbEntity
  8
0
100
AcDbLine
 62
7
  6
BYLAYER
 10
23.021261636
 20
28.952649515
 11
23.021261636
 21
27.5581486589
  0
LINE
  5
2E1
100
AcDbEntity
  8
0
100
AcDbLine
 62
7
  6
BYLAYER
 10
23.021261636
 20
27.3982902599
 11
23.021261636
 21
26.0099293413
  0
LINE
  5
2E2
100
AcDbEntity
  8
0
100
AcDbLine
 62
7
  6
BYLAYER
 10
23.021261636
 20
25.851650135
 11
23.021261636
 21
24.4846403268
  0
LINE
  5
2E3
100
AcDbEntity
  8
0
100
AcDbLine
 62
7
  6
BYLAYER
 10
23.021261636
 20
24.3296744533
 11
23.021261636
 21
22.998993001
  0
LINE
  5
2E4
100
AcDbEntity
  8
0
100
AcDbLine
 62
7
  6
BYLAYER
 10
23.021261636
 20
22.8490382987
 11
23.021261636
 21
21.5692644268
  0
LINE
  5
2E5
100
AcDbEntity
  8
0
100
AcDbLine
 62
7
  6
BYLAYER
 10
23.021261636
 20
21.425963831
 11
23.021261636
 21
20.2111190097
  0
LINE
  5
2E6
100
AcDbEntity
  8
0
100
AcDbLine
 62
7
  6
BYLAYER
 10
23.021261636
 20
20.0760298416
 11
23.021261636
 21
18.9394368752
  0
LINE
  5
2E7
100
AcDbEntity
  8
0
100
AcDbLine
 62
7
  6
BYLAYER
 10
23.021261636
 20
18.8140644807
 11
23.021261636
 21
17.7681508387
  0
LINE
  5
2E8
100
AcDbEntity
  8
0
100
AcDbLine
 62
7
  6
BYLAYER
 10
23.021261636
 20
17.6538561141
 11
23.021261636
 21
16.7100937553
  0
LINE
  5
2E9
100
AcDbEntity
  8
0
100
AcDbLine
 62
7
  6
BYLAYER
 10
23.021261636
 20
16.6081289375
 11
23.021261636
 21
15.7768579197
  0
LINE
  5
2EA
100
AcDbEntity
  8
0
100
AcDbLine
 62
7
  6
BYLAYER
 10
23.021261636
 20
15.6883401565
 11
23.021261636
 21
14.978668059
  0
LINE
  5
2EB
100
AcDbEntity
  8
0
100
AcDbLine
 62
7
  6
BYLAYER
 10
23.021261636
 20
14.9045671697
 11
23.021261636
 21
14.3242693084
  0
LINE
  5
2EC
100
AcDbEntity
  8
0
100
AcDbLine
 62
7
  6
BYLAYER
 10
23.021261636
 20
14.2653971577
 11
23.021261636
 21
13.8208313976
  0
LINE
  5
2ED
100
AcDbEntity
  8
0
100
AcDbLine
 62
7
  6
BYLAYER
 10
23.021261636
 20
13.7778330012
 11
23.021261636
 21
13.4738700976
  0
LINE
  5
2EE
100
AcDbEntity
  8
0
100
AcDbLine
 62
7
  6
BYLAYER
 10
23.021261636
 20
13.4472165548
 11
23.021261636
 21
13.2871867891
  0
LINE
  5
2EF
100
AcDbEntity
  8
0
100
AcDbLine
 62
7
  6
BYLAYER
 10
23.021261636
 20
13.2771701218
 11
23.021261636
 21
13.2528342704
  0
LINE
  5
2F0
100
AcDbEntity
  8
0
100
AcDbLine
 62
7
  6
BYLAYER
 10
13.271261636
 20
30.0500574373
 11
7.2537229031
 21
30.0500574373
  0
LINE
  5
2F1
100
AcDbEntity
  8
0
100
AcDbLine
 62
7
  6
BYLAYER
 10
4.621261636
 20
30.127679822
 11
7.0102393197
 21
30.127679822
  0
LINE
  5
2F2
100
AcDbEntity
  8
0
100
AcDbLine
 62
7
  6
BYLAYER
 10
13.771261636
 20
30.1778341488
 11
19.771261636
 21
30.1778341488
  0
LINE
  5
2F3
100
AcDbEntity
  8
0
100
AcDbLine
 62
7
  6
BYLAYER
 10
27.521261636
 20
30.4476685969
 11
23.021261636
 21
30.4476685969
  0
LINE
  5
2F4
100
AcDbEntity
  8
0
100
AcDbLine
 62
7
  6
BYLAYER
 10
23.021261636
 20
30.4976980152
 11
27.521261636
 21
30.4976980152
  0
LINE
  5
2F5
100
AcDbEntity
  8
0
100
AcDbLine
 62
7
  6
BYLAYER
 10
6.7649115096
 20
30.6218584248
 11
13.271261636
 21
30.6218584248
  0
LINE
  5
2F6
100
AcDbEntity
  8
0
100
AcDbLine
 62
7
  6
BYLAYER
 10
27.521261636
 20
30.6554623605
 11
23.021261636
 21
30.6554623605
  0
LINE
  5
2F7
100
AcDbEntity
  8
0
100
AcDbLine
 62
7
  6
BYLAYER
 10
13.271261636
 20
31.011804945
 11
7.2537229031
 21
31.011804945
  0
LINE
  5
2F8
100
AcDbEntity
  8
0
100
AcDbLine
 62
7
  6
BYLAYER
 10
6.7649115096
 20
31.6122699292
 11
13.271261636
 21
31.6122699292
  0
LINE
  5
2F9
100
AcDbEntity
  8
0
100
AcDbLine
 62
7
  6
BYLAYER
 10
27.521261636
 20
31.9517173846
 11
23.021261636
 21
31.9517173846
  0
LINE
  5
2FA
100
AcDbEntity
  8
0
100
AcDbLine
 62
7
  6
BYLAYER
 10
13.271261636
 20
31.9593802394
 11
7.2537229031
 21
31.9593802394
  0
LINE
  5
2FB
100
AcDbEntity
  8
0
100
AcDbLine
 62
7
  6
BYLAYER
 10
23.021261636
 20
32.0165078857
 11
27.521261636
 21
32.0165078857
  0
LINE
  5
2FC
100
AcDbEntity
  8
0
100
AcDbLine
 62
7
  6
BYLAYER
 10
27.521261636
 20
32.1706219276
 11
23.021261636
 21
32.1706219276
  0
LINE
  5
2FD
100
AcDbEntity
  8
0
100
AcDbLine
 62
7
  6
BYLAYER
 10
6.7649115096
 20
32.5855838153
 11
13.271261636
 21
32.5855838153
  0
LINE
  5
2FE
100
AcDbEntity
  8
0
100
AcDbLine
 62
7
  6
BYLAYER
 10
13.271261636
 20
32.8881668289
 11
7.2537229031
 21
32.8881668289
  0
LINE
  5
2FF
100
AcDbEntity
  8
0
100
AcDbLine
 62
7
  6
BYLAYER
 10
27.521261636
 20
33.4135970022
 11
23.021261636
 21
33.4135970022
  0
LINE
  5
300
100
AcDbEntity
  8
0
100
AcDbLine
 62
7
  6
BYLAYER
 10
23.021261636
 20
33.4924387278
 11
27.521261636
 21
33.4924387278
  0
LINE
  5
301
100
AcDbEntity
  8
0
100
AcDbLine
 62
7
  6
BYLAYER
 10
6.7649115095
 20
33.5370581956
 11
13.271261636
 21
33.5370581956
  0
LINE
  5
302
100
AcDbEntity
  8
0
100
AcDbLine
 62
7
  6
BYLAYER
 10
27.521261636
 20
33.6412139605
 11
23.021261636
 21
33.6412139605
  0
LINE
  5
303
100
AcDbEntity
  8
0
100
AcDbLine
 62
7
  6
BYLAYER
 10
13.271261636
 20
33.7936397586
 11
7.2537229031
 21
33.7936397586
  0
LINE
  5
304
100
AcDbEntity
  8
0
100
AcDbLine
 62
7
  6
BYLAYER
 10
27.521261636
 20
13.2528342704
 11
27.521261636
 21
13.2771701218
  0
LINE
  5
305
100
AcDbEntity
  8
0
100
AcDbLine
 62
7
  6
BYLAYER
 10
27.521261636
 20
13.2871867891
 11
27.521261636
 21
42.9361115314
  0
LINE
  5
306
100
AcDbEntity
  8
0
100
AcDbLine
 62
7
  6
BYLAYER
 10
27.521261636
 20
42.9428414843
 11
27.521261636
 21
42.9526198415
  0
LINE
  5
307
100
AcDbEntity
  8
0
100
AcDbLine
 62
7
  6
BYLAYER
 10
6.7649115096
 20
34.4620575826
 11
13.271261636
 21
34.4620575826
  0
LINE
  5
308
100
AcDbEntity
  8
0
100
AcDbLine
 62
7
  6
BYLAYER
 10
13.271261636
 20
34.6713876554
 11
7.2537229031
 21
34.6713876554
  0
LINE
  5
309
100
AcDbEntity
  8
0
100
AcDbLine
 62
7
  6
BYLAYER
 10
27.521261636
 20
34.8172907906
 11
23.021261636
 21
34.8172907906
  0
LINE
  5
30A
100
AcDbEntity
  8
0
100
AcDbLine
 62
7
  6
BYLAYER
 10
23.021261636
 20
34.9093199342
 11
27.521261636
 21
34.9093199342
  0
LINE
  5
30B
100
AcDbEntity
  8
0
100
AcDbLine
 62
7
  6
BYLAYER
 10
27.521261636
 20
35.0511263452
 11
23.021261636
 21
35.0511263452
  0
LINE
  5
30C
100
AcDbEntity
  8
0
100
AcDbLine
 62
7
  6
BYLAYER
 10
6.7649115096
 20
35.3560754722
 11
13.271261636
 21
35.3560754722
  0
LINE
  5
30D
100
AcDbEntity
  8
0
100
AcDbLine
 62
7
  6
BYLAYER
 10
13.271261636
 20
35.5171342198
 11
7.2537229031
 21
35.5171342198
  0
LINE
  5
30E
100
AcDbEntity
  8
0
100
AcDbLine
 62
7
  6
BYLAYER
 10
27.521261636
 20
36.1474195869
 11
23.021261636
 21
36.1474195869
  0
LINE
  5
30F
100
AcDbEntity
  8
0
100
AcDbLine
 62
7
  6
BYLAYER
 10
6.7649115096
 20
36.2147562992
 11
13.271261636
 21
36.2147562992
  0
LINE
  5
310
100
AcDbEntity
  8
0
100
AcDbLine
 62
7
  6
BYLAYER
 10
23.021261636
 20
36.251627858
 11
27.521261636
 21
36.251627858
  0
LINE
  5
311
100
AcDbEntity
  8
0
100
AcDbLine
 62
7
  6
BYLAYER
 10
13.271261636
 20
36.3267590595
 11
7.2537229031
 21
36.3267590595
  0
LINE
  5
312
100
AcDbEntity
  8
0
100
AcDbLine
 62
7
  6
BYLAYER
 10
27.521261636
 20
36.3849117866
 11
23.021261636
 21
36.3849117866
  0
LINE
  5
313
100
AcDbEntity
  8
0
100
AcDbLine
 62
7
  6
BYLAYER
 10
7.2537229031
 20
37.8220611198
 11
6.7649115096
 21
37.8095656784
  0
LINE
  5
314
100
AcDbEntity
  8
0
100
AcDbLine
 62
7
  6
BYLAYER
 10
6.7649115095
 20
37.0339166569
 11
13.271261636
 21
37.0339166569
  0
LINE
  5
315
100
AcDbEntity
  8
0
100
AcDbLine
 62
7
  6
BYLAYER
 10
13.271261636
 20
37.0963177638
 11
7.2537229031
 21
37.0963177638
  0
LINE
  5
316
100
AcDbEntity
  8
0
100
AcDbLine
 62
7
  6
BYLAYER
 10
27.521261636
 20
37.3894102218
 11
23.021261636
 21
37.3894102218
  0
LINE
  5
317
100
AcDbEntity
  8
0
100
AcDbLine
 62
7
  6
BYLAYER
 10
6.7651630519
 20
37.4250609258
 11
4.621261636
 21
37.4250609258
  0
LINE
  5
318
100
AcDbEntity
  8
0
100
AcDbLine
 62
7
  6
BYLAYER
 10
23.021261636
 20
37.5046558927
 11
27.521261636
 21
37.5046558927
  0
LINE
  5
319
100
AcDbEntity
  8
0
100
AcDbLine
 62
7
  6
BYLAYER
 10
27.521261636
 20
37.6279570522
 11
23.021261636
 21
37.6279570522
  0
LINE
  5
31A
100
AcDbEntity
  8
0
100
AcDbLine
 62
7
  6
BYLAYER
 10
6.7649115096
 20
37.8095656784
 11
13.271261636
 21
37.8095656784
  0
LINE
  5
31B
100
AcDbEntity
  8
0
100
AcDbLine
 62
7
  6
BYLAYER
 10
13.271261636
 20
37.8220611198
 11
7.2537229031
 21
37.8220611198
  0
LINE
  5
31C
100
AcDbEntity
  8
0
100
AcDbLine
 62
7
  6
BYLAYER
 10
19.771261636
 20
38.3028341488
 11
13.771261636
 21
38.3028341488
  0
LINE
  5
31D
100
AcDbEntity
  8
0
100
AcDbLine
 62
7
  6
BYLAYER
 10
7.2537229031
 20
36.3267590595
 11
6.7649115096
 21
36.2147562992
  0
LINE
  5
31E
100
AcDbEntity
  8
0
100
AcDbLine
 62
7
  6
BYLAYER
 10
7.2537229031
 20
37.0963177638
 11
6.7649115095
 21
37.0339166569
  0
LINE
  5
31F
100
AcDbEntity
  8
0
100
AcDbLine
 62
7
  6
BYLAYER
 10
27.521261636
 20
38.5296551858
 11
23.021261636
 21
38.5296551858
  0
LINE
  5
320
100
AcDbEntity
  8
0
100
AcDbLine
 62
7
  6
BYLAYER
 10
6.7649115095
 20
38.5379244796
 11
13.271261636
 21
38.5379244796
  0
LINE
  5
321
100
AcDbEntity
  8
0
100
AcDbLine
 62
7
  6
BYLAYER
 10
23.021261636
 20
38.6546756009
 11
27.521261636
 21
38.6546756009
  0
LINE
  5
322
100
AcDbEntity
  8
0
100
AcDbLine
 62
7
  6
BYLAYER
 10
27.521261636
 20
38.7666430781
 11
23.021261636
 21
38.7666430781
  0
LINE
  5
323
100
AcDbEntity
  8
0
100
AcDbLine
 62
7
  6
BYLAYER
 10
6.7649115096
 20
39.2154445696
 11
13.271261636
 21
39.2154445696
  0
LINE
  5
324
100
AcDbEntity
  8
0
100
AcDbLine
 62
7
  6
BYLAYER
 10
27.521261636
 20
39.5556617167
 11
23.021261636
 21
39.5556617167
  0
LINE
  5
325
100
AcDbEntity
  8
0
100
AcDbLine
 62
7
  6
BYLAYER
 10
8.071261636
 20
39.6278341488
 11
8.271261636
 21
39.6278341488
  0
LINE
  5
326
100
AcDbEntity
  8
0
100
AcDbLine
 62
7
  6
BYLAYER
 10
23.021261636
 20
39.6890871261
 11
27.521261636
 21
39.6890871261
  0
LINE
  5
327
100
AcDbEntity
  8
0
100
AcDbLine
 62
7
  6
BYLAYER
 10
21.271261636
 20
39.7028341488
 11
19.771261636
 21
39.7028341488
  0
LINE
  5
328
100
AcDbEntity
  8
0
100
AcDbLine
 62
7
  6
BYLAYER
 10
27.521261636
 20
39.7884941818
 11
23.021261636
 21
39.7884941818
  0
LINE
  5
329
100
AcDbEntity
  8
0
100
AcDbLine
 62
7
  6
BYLAYER
 10
33.2432536726
 20
42.7199623799
 11
33.2432536726
 21
13.4857059178
  0
LINE
  5
32A
100
AcDbEntity
  8
0
100
AcDbLine
 62
7
  6
BYLAYER
 10
13.271261636
 20
40.0079648221
 11
8.271261636
 21
40.0079648221
  0
LINE
  5
32B
100
AcDbEntity
  8
0
100
AcDbLine
 62
7
  6
BYLAYER
 10
8.271261636
 20
40.2709528355
 11
7.035432916
 21
40.2709528355
  0
LINE
  5
32C
100
AcDbEntity
  8
0
100
AcDbLine
 62
7
  6
BYLAYER
 10
27.521261636
 20
40.456188672
 11
23.021261636
 21
40.456188672
  0
LINE
  5
32D
100
AcDbEntity
  8
0
100
AcDbLine
 62
7
  6
BYLAYER
 10
23.021261636
 20
40.5965572391
 11
27.521261636
 21
40.5965572391
  0
LINE
  5
32E
100
AcDbEntity
  8
0
100
AcDbLine
 62
7
  6
BYLAYER
 10
27.521261636
 20
40.6823147487
 11
23.021261636
 21
40.6823147487
  0
LINE
  5
32F
100
AcDbEntity
  8
0
100
AcDbLine
 62
7
  6
BYLAYER
 10
13.271261636
 20
40.7528341488
 11
13.771261636
 21
40.7528341488
  0
LINE
  5
330
100
AcDbEntity
  8
0
100
AcDbLine
 62
7
  6
BYLAYER
 10
13.271261636
 20
41.1362430478
 11
7.2086060557
 21
41.1362430478
  0
LINE
  5
331
100
AcDbEntity
  8
0
100
AcDbLine
 62
7
  6
BYLAYER
 10
27.521261636
 20
41.22136969
 11
23.021261636
 21
41.22136969
  0
LINE
  5
332
100
AcDbEntity
  8
0
100
AcDbLine
 62
7
  6
BYLAYER
 10
23.021261636
 20
41.3671435074
 11
27.521261636
 21
41.3671435074
  0
LINE
  5
333
100
AcDbEntity
  8
0
100
AcDbLine
 62
7
  6
BYLAYER
 10
27.521261636
 20
41.4383118938
 11
23.021261636
 21
41.4383118938
  0
LINE
  5
334
100
AcDbEntity
  8
0
100
AcDbLine
 62
7
  6
BYLAYER
 10
6.7649115095
 20
41.7344688456
 11
13.271261636
 21
41.7344688456
  0
LINE
  5
335
100
AcDbEntity
  8
0
100
AcDbLine
 62
7
  6
BYLAYER
 10
27.521261636
 20
41.8428212875
 11
23.021261636
 21
41.8428212875
  0
LINE
  5
336
100
AcDbEntity
  8
0
100
AcDbLine
 62
7
  6
BYLAYER
 10
23.021261636
 20
41.9924032266
 11
27.521261636
 21
41.9924032266
  0
LINE
  5
337
100
AcDbEntity
  8
0
100
AcDbLine
 62
7
  6
BYLAYER
 10
6.7649115096
 20
42.04736026
 11
13.271261636
 21
42.04736026
  0
LINE
  5
338
100
AcDbEntity
  8
0
100
AcDbLine
 62
7
  6
BYLAYER
 10
27.521261636
 20
42.0482027541
 11
23.021261636
 21
42.0482027541
  0
LINE
  5
339
100
AcDbEntity
  8
0
100
AcDbLine
 62
7
  6
BYLAYER
 10
13.271261636
 20
42.2923153449
 11
6.7649115096
 21
42.2923153449
  0
LINE
  5
33A
100
AcDbEntity
  8
0
100
AcDbLine
 62
7
  6
BYLAYER
 10
27.521261636
 20
42.3137347106
 11
23.021261636
 21
42.3137347106
  0
LINE
  5
33B
100
AcDbEntity
  8
0
100
AcDbLine
 62
7
  6
BYLAYER
 10
23.021261636
 20
42.4654859204
 11
27.521261636
 21
42.4654859204
  0
LINE
  5
33C
100
AcDbEntity
  8
0
100
AcDbLine
 62
7
  6
BYLAYER
 10
13.271261636
 20
42.4681407037
 11
6.7649115096
 21
42.4681407037
  0
LINE
  5
33D
100
AcDbEntity
  8
0
100
AcDbLine
 62
7
  6
BYLAYER
 10
27.521261636
 20
42.5053052377
 11
23.021261636
 21
42.5053052377
  0
LINE
  5
33E
100
AcDbEntity
  8
0
100
AcDbLine
 62
7
  6
BYLAYER
 10
13.271261636
 20
42.573979733
 11
6.7649115095
 21
42.573979733
  0
LINE
  5
33F
100
AcDbEntity
  8
0
100
AcDbLine
 62
7
  6
BYLAYER
 10
6.7649115096
 20
42.6093167956
 11
13.271261636
 21
42.6093167956
  0
LINE
  5
340
100
AcDbEntity
  8
0
100
AcDbLine
 62
7
  6
BYLAYER
 10
27.521261636
 20
42.6289505332
 11
23.021261636
 21
42.6289505332
  0
LINE
  5
341
100
AcDbEntity
  8
0
100
AcDbLine
 62
7
  6
BYLAYER
 10
36.121261636
 20
39.7222914516
 11
36.121261636
 21
16.4833767032
  0
LINE
  5
342
100
AcDbEntity
  8
0
100
AcDbLine
 62
7
  6
BYLAYER
 10
23.021261636
 20
42.7812083959
 11
27.521261636
 21
42.7812083959
  0
LINE
  5
343
100
AcDbEntity
  8
0
100
AcDbLine
 62
7
  6
BYLAYER
 10
27.521261636
 20
42.8046112342
 11
23.021261636
 21
42.8046112342
  0
LINE
  5
344
100
AcDbEntity
  8
0
100
AcDbLine
 62
7
  6
BYLAYER
 10
23.021261636
 20
42.9361115314
 11
27.521261636
 21
42.9361115314
  0
LINE
  5
345
100
AcDbEntity
  8
0
100
AcDbLine
 62
7
  6
BYLAYER
 10
27.521261636
 20
42.9428414843
 11
23.021261636
 21
42.9428414843
  0
LINE
  5
346
100
AcDbEntity
  8
0
100
AcDbLine
 62
7
  6
BYLAYER
 10
21.271261636
 20
42.9528341488
 11
23.021261636
 21
42.9528341488
  0
LINE
  5
347
100
AcDbEntity
  8
0
100
AcDbLine
 62
7
  6
BYLAYER
 10
33.2432536726
 20
42.7199623799
 11
27.521261636
 21
42.9528341488
  0
ARC
  5
348
100
AcDbEntity
  8
0
100
AcDbCircle
 62
7
  6
BYLAYER
 10
33.121261636
 20
16.4832245487
 40
3.0
100
AcDbArc
 50
272.330518868
 51
359.9999996616
  0
ARC
  5
349
100
AcDbEntity
  8
0
100
AcDbCircle
 62
7
  6
BYLAYER
 10
33.121261636
 20
39.7224437489
 40
3.0
100
AcDbArc
 50
0.0000003384
 51
87.669481132
  0
ELLIPSE
  5
34A
100
AcDbEntity
  8
0
100
AcDbEllipse
 62
7
  6
BYLAYER
 10
6.771261636
 20
28.1028341488
 30
0.0
 11
12.4887927725
 21
-12.4798478105
 31
0.0
 40
0.3054914443
 41
1.8646181181
 42
1.867520842
  0
ELLIPSE
  5
34B
100
AcDbEntity
  8
0
100
AcDbEllipse
 62
7
  6
BYLAYER
 10
6.771261636
 20
28.1028341488
 30
0.0
 11
12.6141414555
 21
-12.6054920867
 31
0.0
 40
0.2677147046
 41
1.8228680166
 42
1.8326431057
  0
ELLIPSE
  5
34C
100
AcDbEntity
  8
0
100
AcDbEllipse
 62
7
  6
BYLAYER
 10
6.771261636
 20
28.1028341488
 30
0.0
 11
12.7241536997
 21
-12.715746555
 31
0.0
 40
0.2306377565
 41
1.7824032579
 42
1.7977631327
  0
ELLIPSE
  5
34D
100
AcDbEntity
  8
0
100
AcDbEllipse
 62
7
  6
BYLAYER
 10
6.771261636
 20
28.1028341488
 30
0.0
 11
12.8186915098
 21
-12.8104808525
 31
0.0
 40
0.1941532749
 41
1.7428418575
 42
1.7628814061
  0
ELLIPSE
  5
34E
100
AcDbEntity
  8
0
100
AcDbEllipse
 62
7
  6
BYLAYER
 10
6.771261636
 20
28.1028341488
 30
0.0
 11
12.8976367341
 21
-12.8895825339
 31
0.0
 40
0.1581601894
 41
1.7039411465
 42
1.7279983153
  0
ELLIPSE
  5
34F
100
AcDbEntity
  8
0
100
AcDbEllipse
 62
7
  6
BYLAYER
 10
6.771261636
 20
28.1028341488
 30
0.0
 11
12.9608909729
 21
-12.9529574443
 31
0.0
 40
0.1225625048
 41
1.6655402469
 42
1.693114182
  0
ELLIPSE
  5
350
100
AcDbEntity
  8
0
100
AcDbEllipse
 62
7
  6
BYLAYER
 10
6.771261636
 20
28.1028341488
 30
0.0
 11
13.0083755386
 21
-13.0005299942
 31
0.0
 40
0.0872682358
 41
1.6275166028
 42
1.6582292807
  0
ELLIPSE
  5
351
100
AcDbEntity
  8
0
100
AcDbEllipse
 62
7
  6
BYLAYER
 10
6.771261636
 20
28.1028341488
 30
0.0
 11
13.0400314429
 21
-13.0322433598
 31
0.0
 40
0.0521884297
 41
1.5897055854
 42
1.6233438525
  0
ELLIPSE
  5
352
100
AcDbEntity
  8
0
100
AcDbEllipse
 62
7
  6
BYLAYER
 10
6.771261636
 20
28.1028341488
 30
0.0
 11
10.7040253985
 21
10.6854681835
 31
0.0
 40
0.6998812382
 41
-2.1577929626
 42
-2.1461585884
  0
ELLIPSE
  5
353
100
AcDbEntity
  8
0
100
AcDbEllipse
 62
7
  6
BYLAYER
 10
6.771261636
 20
28.1028341488
 30
0.0
 11
10.9574471499
 21
10.9414674531
 31
0.0
 40
0.6490963638
 41
-2.1463072355
 42
-2.1114006504
  0
ELLIPSE
  5
354
100
AcDbEntity
  8
0
100
AcDbEllipse
 62
7
  6
BYLAYER
 10
6.771261636
 20
28.1028341488
 30
0.0
 11
11.1979031616
 21
11.1837513661
 31
0.0
 40
0.6005627173
 41
-2.1115089841
 42
-2.0766023991
  0
ELLIPSE
  5
355
100
AcDbEntity
  8
0
100
AcDbEllipse
 62
7
  6
BYLAYER
 10
6.771261636
 20
28.1028341488
 30
0.0
 11
10.7040253985
 21
-10.6854681835
 31
0.0
 40
0.6998812382
 41
2.1461585884
 42
2.1577929627
  0
ELLIPSE
  5
356
100
AcDbEntity
  8
0
100
AcDbEllipse
 62
7
  6
BYLAYER
 10
6.771261636
 20
28.1028341488
 30
0.0
 11
10.9574471499
 21
-10.9414674531
 31
0.0
 40
0.6490963638
 41
2.1114006504
 42
2.1463072355
  0
ELLIPSE
  5
357
100
AcDbEntity
  8
0
100
AcDbEllipse
 62
7
  6
BYLAYER
 10
6.771261636
 20
28.1028341488
 30
0.0
 11
11.1979031616
 21
-11.1837513661
 31
0.0
 40
0.6005627173
 41
2.0766023991
 42
2.1115089841
  0
ELLIPSE
  5
358
100
AcDbEntity
  8
0
100
AcDbEllipse
 62
7
  6
BYLAYER
 10
6.771261636
 20
28.1028341488
 30
0.0
 11
10.7040253985
 21
10.6854681835
 31
0.0
 40
0.6998812382
 41
-2.1810651734
 42
-2.1603953235
  0
ELLIPSE
  5
359
100
AcDbEntity
  8
0
100
AcDbEllipse
 62
7
  6
BYLAYER
 10
6.771261636
 20
28.1028341488
 30
0.0
 11
12.4887927725
 21
12.4798478105
 31
0.0
 40
0.3054914443
 41
-1.867520842
 42
-1.8646181181
  0
ELLIPSE
  5
35A
100
AcDbEntity
  8
0
100
AcDbEllipse
 62
7
  6
BYLAYER
 10
6.771261636
 20
28.1028341488
 30
0.0
 11
12.6141414555
 21
12.6054920867
 31
0.0
 40
0.2677147046
 41
-1.8326431057
 42
-1.8228680166
  0
ELLIPSE
  5
35B
100
AcDbEntity
  8
0
100
AcDbEllipse
 62
7
  6
BYLAYER
 10
6.771261636
 20
28.1028341488
 30
0.0
 11
12.7241536997
 21
12.715746555
 31
0.0
 40
0.2306377565
 41
-1.7977631327
 42
-1.7824032579
  0
ELLIPSE
  5
35C
100
AcDbEntity
  8
0
100
AcDbEllipse
 62
7
  6
BYLAYER
 10
6.771261636
 20
28.1028341488
 30
0.0
 11
12.8186915098
 21
12.8104808525
 31
0.0
 40
0.1941532749
 41
-1.7628814061
 42
-1.7428418575
  0
ELLIPSE
  5
35D
100
AcDbEntity
  8
0
100
AcDbEllipse
 62
7
  6
BYLAYER
 10
6.771261636
 20
28.1028341488
 30
0.0
 11
12.8976367341
 21
12.8895825339
 31
0.0
 40
0.1581601894
 41
-1.7279983153
 42
-1.7039411465
  0
ELLIPSE
  5
35E
100
AcDbEntity
  8
0
100
AcDbEllipse
 62
7
  6
BYLAYER
 10
6.771261636
 20
28.1028341488
 30
0.0
 11
12.9608909729
 21
12.9529574443
 31
0.0
 40
0.1225625048
 41
-1.693114182
 42
-1.6655402469
  0
ELLIPSE
  5
35F
100
AcDbEntity
  8
0
100
AcDbEllipse
 62
7
  6
BYLAYER
 10
6.771261636
 20
28.1028341488
 30
0.0
 11
13.0083755386
 21
13.0005299942
 31
0.0
 40
0.0872682358
 41
-1.6582292807
 42
-1.6275166028
  0
ELLIPSE
  5
360
100
AcDbEntity
  8
0
100
AcDbEllipse
 62
7
  6
BYLAYER
 10
6.771261636
 20
28.1028341488
 30
0.0
 11
13.0400314429
 21
13.0322433598
 31
0.0
 40
0.0521884297
 41
-1.6233438525
 42
-1.5897055854
  0
ELLIPSE
  5
361
100
AcDbEntity
  8
0
100
AcDbEllipse
 62
7
  6
BYLAYER
 10
6.771261636
 20
28.1028341488
 30
0.0
 11
13.0558193974
 21
-13.0480596243
 31
0.0
 40
0.017236254
 41
1.5535515319
 42
1.5884581169
  0
ELLIPSE
  5
362
100
AcDbEntity
  8
0
100
AcDbEllipse
 62
7
  6
BYLAYER
 10
6.771261636
 20
28.1028341488
 30
0.0
 11
13.0558193974
 21
13.0480596243
 31
0.0
 40
0.017236254
 41
-1.5884581169
 42
-1.5535515319
  0
ELLIPSE
  5
363
100
AcDbEntity
  8
0
100
AcDbEllipse
 62
7
  6
BYLAYER
 10
6.771261636
 20
28.1028341488
 30
0.0
 11
10.7040253985
 21
-10.6854681835
 31
0.0
 40
0.6998812382
 41
2.1603953235
 42
2.1810651734
  0
ELLIPSE
  5
364
100
AcDbEntity
  8
0
100
AcDbEllipse
 62
7
  6
BYLAYER
 10
6.771261636
 20
28.1028341488
 30
0.0
 11
10.9543502274
 21
10.9383436445
 31
0.0
 40
0.6497183473
 41
0.9608178884
 42
0.9957244734
  0
ELLIPSE
  5
365
100
AcDbEntity
  8
0
100
AcDbEllipse
 62
7
  6
BYLAYER
 10
6.771261636
 20
28.1028341488
 30
0.0
 11
11.1949716365
 21
11.1808002597
 31
0.0
 40
0.6011581472
 41
0.9956157479
 42
1.0305223329
  0
ELLIPSE
  5
366
100
AcDbEntity
  8
0
100
AcDbEllipse
 62
7
  6
BYLAYER
 10
6.771261636
 20
28.1028341488
 30
0.0
 11
11.422198598
 21
11.4093895619
 31
0.0
 40
0.5545948536
 41
1.0304389048
 42
1.0586919873
  0
ELLIPSE
  5
367
100
AcDbEntity
  8
0
100
AcDbEllipse
 62
7
  6
BYLAYER
 10
6.771261636
 20
28.1028341488
 30
0.0
 11
10.9543502274
 21
-10.9383436445
 31
0.0
 40
0.6497183473
 41
-0.9957244734
 42
-0.9608178884
  0
ELLIPSE
  5
368
100
AcDbEntity
  8
0
100
AcDbEllipse
 62
7
  6
BYLAYER
 10
6.771261636
 20
28.1028341488
 30
0.0
 11
11.1949716365
 21
-11.1808002597
 31
0.0
 40
0.6011581472
 41
-1.0305223329
 42
-0.9956157479
  0
ELLIPSE
  5
369
100
AcDbEntity
  8
0
100
AcDbEllipse
 62
7
  6
BYLAYER
 10
6.771261636
 20
28.1028341488
 30
0.0
 11
11.422198598
 21
-11.4093895619
 31
0.0
 40
0.5545948536
 41
-1.0586919873
 42
-1.0304389048
  0
ENDSEC
  0
SECTION
  2
OBJECTS
  0
DICTIONARY
  5
C
100
AcDbDictionary
280
0
281
1
  3
ACAD_GROUP
350
D
  3
ACAD_MLINESTYLE
350
17
  3
ACAD_LAYOUT
350
1A
  3
ACAD_PLOTSETTINGS
350
19
  3
ACAD_PLOTSTYLENAME
350
E
  0
DICTIONARY
  5
D
102
{ACAD_REACTORS
330
C
102
}
100
AcDbDictionary
280
0
281
1
  0
ACDBDICTIONARYWDFLT
  5
E
102
{ACAD_REACTORS
330
C
102
}
100
AcDbDictionary
281
1
  3
Normal
350
F
100
AcDbDictionaryWithDefault
340
F
  0
DICTIONARY
  5
17
102
{ACAD_REACTORS
330
C
102
}
100
AcDbDictionary
280
0
281
1
  3
Standard
350
18
  0
DICTIONARY
  5
19
102
{ACAD_REACTORS
330
C
102
}
100
AcDbDictionary
281
1
  0
DICTIONARY
  5
1A
102
{ACAD_REACTORS
330
C
102
}
100
AcDbDictionary
281
1
  3
Model
350
36A
  3
Layout1
350
36B
  0
ACDBPLACEHOLDER
  5
F
102
{ACAD_REACTORS
330
E
102
}
  0
MLINESTYLE
  5
18
102
{ACAD_REACTORS
330
17
102
}
100
AcDbMlineStyle
  2
STANDARD
 70
0
  3

 62
256
 51
90.0
 52
90.0
 71
2
 49
0.5
 62
256
  6
BYLAYER
 49
-0.5
 62
256
  6
BYLAYER
  0
LAYOUT
  5
36A
102
{ACAD_REACTORS
330
1A
102
}
100
AcDbPlotSettings
  1

  2
none_device
  4

  6

 40
0.0
 41
0.0
 42
0.0
 43
0.0
 44
210.0
 45
297.0
 46
0.0
 47
0.0
 48
0.0
 49
0.0
140
0.0
141
0.0
142
1.0
143
1.0
 70
1024
 72
1
 73
0
 74
0
  7

 75
0
147
1.0
148
0.0
149
0.0
100
AcDbLayout
  1
Model
 70
0
 71
0
 10
0.0
 20
0.0
 11
210.0
 21
297.0
 12
0.0
 22
0.0
 32
0.0
 14
0.0
 24
0.0
 34
0.0
 15
0.0
 25
0.0
 35
0.0
146
0.0
 13
0.0
 23
0.0
 33
0.0
 16
1.0
 26
0.0
 36
0.0
 17
0.0
 27
1.0
 37
0.0
 76
0
330
211
345
0
346
0
  0
LAYOUT
  5
36B
102
{ACAD_REACTORS
330
1A
102
}
100
AcDbPlotSettings
  1

  2
none_device
  4

  6

 40
0.0
 41
0.0
 42
0.0
 43
0.0
 44
210.0
 45
297.0
 46
0.0
 47
0.0
 48
0.0
 49
0.0
140
0.0
141
0.0
142
1.0
143
1.0
 70
0
 72
1
 73
0
 74
0
  7

 75
0
147
1.0
148
0.0
149
0.0
100
AcDbLayout
  1
Layout1
 70
0
 71
1
 10
0.0
 20
0.0
 11
210.0
 21
297.0
 12
0.0
 22
0.0
 32
0.0
 14
0.0
 24
0.0
 34
0.0
 15
0.0
 25
0.0
 35
0.0
146
0.0
 13
0.0
 23
0.0
 33
0.0
 16
1.0
 26
0.0
 36
0.0
 17
0.0
 27
1.0
 37
0.0
 76
0
330
212
345
0
346
0
  0
ENDSEC
  0
EOF
