999
DXF file: C:\Users\sesa63760\Dev\_Creo\CAD\MCADID0001233_3D-CAD\drw0001_4.dxf
999
Pro/ENGINEER 2019471 by Parametric Technology Corporation
  0
SECTION
  2
HEADER
  9
$ACADVER
  1
AC1024
  9
$DWGCODEPAGE
  3
ANSI_1252
  9
$EXTMAX
 10
90.1770896397
 20
127.5361696333
 30
0.0
  9
$EXTMIN
 10
0.0
 20
0.0
 30
0.0
  9
$LIMMIN
 10
0.0
 20
0.0
  9
$LIMMAX
 10
90.1770896397
 20
127.5361696333
  9
$VIEWCTR
 10
45.0885448199
 20
63.7680848167
  9
$VIEWSIZE
 40
127.5361696333
  9
$CLAYER
  8
0
  9
$LTSCALE
 40
8.3134688354
  9
$CELTYPE
  6
BYLAYER
  9
$DIMSCALE
 40
1.0
  9
$DIMASZ
 40
1.0735367814
  9
$DIMEXO
 40
1.0
  9
$DIMDLI
 40
5.7438511953
  9
$DIMEXE
 40
1.0
  9
$DIMCEN
 40
1.3603858094
  9
$DIMLFAC
 40
1.0
  9
$DIMBLK
  1
_FILLED
  9
$DIMALT
 70
0
  9
$DIMALTF
 40
0.0393700787
  9
$DIMTXT
 40
1.502951494
  9
$DIMTOL
 70
1
  9
$DIMLIM
 70
0
  9
$DIMTFAC
 40
1.0
  9
$DIMTP
 40
0.01
  9
$DIMTM
 40
0.01
  9
$DIMGAP
 40
0.625
  9
$DIMDSEP
 70
46
  9
$AUNITS
 70
0
  9
$PDMODE
 70
3
  9
$PDSIZE
 40
0.3125
  9
$HANDSEED
  5
295
  9
$TILEMODE
 70
1
  9
$MEASUREMENT
 70
1
  9
$INSUNITS
 70
4
  0
ENDSEC
  0
SECTION
  2
CLASSES
  0
CLASS
  1
ACDBDICTIONARYWDFLT
  2
AcDbDictionaryWithDefault
  3
AutoCAD 2000
 90
0
 91
1
280
0
281
0
  0
CLASS
  1
ACDBPLACEHOLDER
  2
AcDbPlaceHolder
  3
AutoCAD 2000
 90
0
 91
1
280
0
281
0
  0
CLASS
  1
LAYOUT
  2
AcDbLayout
  3
AutoCAD 2000
 90
0
 91
0
280
0
281
0
  0
ENDSEC
  0
SECTION
  2
TABLES
  0
TABLE
  2
VPORT
  5
8
100
AcDbSymbolTable
 70
2
  0
VPORT
  5
1F4
100
AcDbSymbolTableRecord
100
AcDbViewportTableRecord
  2
*ACTIVE
 70
0
 10
0.0
 20
0.0
 11
1.0
 21
1.0
 12
45.0885448199
 22
63.7680848167
 13
0.0
 23
0.0
 14
1.0
 24
1.0
 15
0.0
 25
0.0
 16
0.0
 26
0.0
 36
1.0
 17
0.0
 27
0.0
 37
0.0
 40
127.5361696333
 41
0.7070707071
 42
50.0
 43
0.0
 44
0.0
 50
0.0
 51
0.0
 71
0
 72
100
 73
1
 74
1
 75
0
 76
0
 77
0
 78
0
  0
ENDTAB
  0
TABLE
  2
LTYPE
  5
5
100
AcDbSymbolTable
 70
6
  0
LTYPE
  5
14
100
AcDbSymbolTableRecord
100
AcDbLinetypeTableRecord
  2
BYBLOCK
 70
0
  3

 72
65
 73
0
 40
0.0
  0
LTYPE
  5
15
100
AcDbSymbolTableRecord
100
AcDbLinetypeTableRecord
  2
BYLAYER
 70
0
  3

 72
65
 73
0
 40
0.0
  0
LTYPE
  5
16
100
AcDbSymbolTableRecord
100
AcDbLinetypeTableRecord
  2
CONTINUOUS
 70
64
  3
Solid line
 72
65
 73
0
 40
0.0
  0
LTYPE
  5
1F5
100
AcDbSymbolTableRecord
100
AcDbLinetypeTableRecord
  2
CENTER
 70
64
  3
____ _ ____ _ ____ _ ____ _ ____ _ ____ _ ____
 72
65
 73
4
 40
0.6
 49
0.375
 74
0
 49
-0.075
 74
0
 49
0.075
 74
0
 49
-0.075
 74
0
  0
LTYPE
  5
1F6
100
AcDbSymbolTableRecord
100
AcDbLinetypeTableRecord
  2
HIDDEN
 70
64
  3
- - - - - - - - - - - - - - - - - - - -
 72
65
 73
2
 40
0.2
 49
0.1
 74
0
 49
-0.1
 74
0
  0
LTYPE
  5
1F7
100
AcDbSymbolTableRecord
100
AcDbLinetypeTableRecord
  2
PHANTOM
 70
64
  3
_____ _ _ _____ _ _ _____ _ _ _____
 72
65
 73
6
 40
0.8
 49
0.45
 74
0
 49
-0.05
 74
0
 49
0.1
 74
0
 49
-0.05
 74
0
 49
0.1
 74
0
 49
-0.05
 74
0
  0
LTYPE
  5
1F8
100
AcDbSymbolTableRecord
100
AcDbLinetypeTableRecord
  2
DOT
 70
64
  3
. . . . . . . . . . . . . . . . . . . .
 72
65
 73
2
 40
0.2
 49
0.1
 74
0
 49
-0.1
 74
0
  0
LTYPE
  5
1F9
100
AcDbSymbolTableRecord
100
AcDbLinetypeTableRecord
  2
DASHED
 70
64
  3
- - - - - - - - - - - - - - - - - - - -
 72
65
 73
2
 40
0.2
 49
0.1
 74
0
 49
-0.1
 74
0
  0
ENDTAB
  0
TABLE
  2
LAYER
  5
2
100
AcDbSymbolTable
 70
36
  0
LAYER
  5
10
100
AcDbSymbolTableRecord
100
AcDbLayerTableRecord
  2
0
 70
0
 62
7
  6
CONTINUOUS
370
-3
390
F
  0
LAYER
  5
1FA
100
AcDbSymbolTableRecord
100
AcDbLayerTableRecord
  2
DEFAULT_1
 70
0
 62
7
  6
CENTER
370
-3
390
F
  0
LAYER
  5
1FB
100
AcDbSymbolTableRecord
100
AcDbLayerTableRecord
  2
DEFAULT_2
 70
0
 62
8
  6
HIDDEN
370
-3
390
F
  0
LAYER
  5
1FC
100
AcDbSymbolTableRecord
100
AcDbLayerTableRecord
  2
DEFAULT_3
 70
0
 62
7
  6
PHANTOM
370
-3
390
F
  0
LAYER
  5
1FD
100
AcDbSymbolTableRecord
100
AcDbLayerTableRecord
  2
00_COMPONENTS
 70
0
 62
7
  6
CONTINUOUS
370
-3
390
F
  0
LAYER
  5
1FE
100
AcDbSymbolTableRecord
100
AcDbLayerTableRecord
  2
01_1_DEFAULT_DATUMS
 70
0
 62
7
  6
CONTINUOUS
370
-3
390
F
  0
LAYER
  5
1FF
100
AcDbSymbolTableRecord
100
AcDbLayerTableRecord
  2
01_PLANES
 70
0
 62
7
  6
CONTINUOUS
370
-3
390
F
  0
LAYER
  5
200
100
AcDbSymbolTableRecord
100
AcDbLayerTableRecord
  2
02_COORD_SYS
 70
0
 62
7
  6
CONTINUOUS
370
-3
390
F
  0
LAYER
  5
201
100
AcDbSymbolTableRecord
100
AcDbLayerTableRecord
  2
03_AXES
 70
0
 62
7
  6
CONTINUOUS
370
-3
390
F
  0
LAYER
  5
202
100
AcDbSymbolTableRecord
100
AcDbLayerTableRecord
  2
04_POINTS
 70
0
 62
7
  6
CONTINUOUS
370
-3
390
F
  0
LAYER
  5
203
100
AcDbSymbolTableRecord
100
AcDbLayerTableRecord
  2
05_CURVES
 70
0
 62
7
  6
CONTINUOUS
370
-3
390
F
  0
LAYER
  5
204
100
AcDbSymbolTableRecord
100
AcDbLayerTableRecord
  2
06_SURFS
 70
0
 62
7
  6
CONTINUOUS
370
-3
390
F
  0
LAYER
  5
205
100
AcDbSymbolTableRecord
100
AcDbLayerTableRecord
  2
07_COSMETICS
 70
0
 62
7
  6
CONTINUOUS
370
-3
390
F
  0
LAYER
  5
206
100
AcDbSymbolTableRecord
100
AcDbLayerTableRecord
  2
10_NOTES
 70
0
 62
7
  6
CONTINUOUS
370
-3
390
F
  0
LAYER
  5
207
100
AcDbSymbolTableRecord
100
AcDbLayerTableRecord
  2
11_NOTES_PUB
 70
0
 62
7
  6
CONTINUOUS
370
-3
390
F
  0
LAYER
  5
208
100
AcDbSymbolTableRecord
100
AcDbLayerTableRecord
  2
13_REF_GTOL
 70
0
 62
7
  6
CONTINUOUS
370
-3
390
F
  0
LAYER
  5
209
100
AcDbSymbolTableRecord
100
AcDbLayerTableRecord
  2
16_MISC
 70
0
 62
7
  6
CONTINUOUS
370
-3
390
F
  0
LAYER
  5
20A
100
AcDbSymbolTableRecord
100
AcDbLayerTableRecord
  2
17_NO_PRINT
 70
0
 62
7
  6
CONTINUOUS
370
-3
390
F
  0
LAYER
  5
20B
100
AcDbSymbolTableRecord
100
AcDbLayerTableRecord
  2
18_DATUM_CAMS_JOINTS
 70
0
 62
7
  6
CONTINUOUS
370
-3
390
F
  0
LAYER
  5
20C
100
AcDbSymbolTableRecord
100
AcDbLayerTableRecord
  2
19_DATUM_FUNCTIONAL
 70
0
 62
7
  6
CONTINUOUS
370
-3
390
F
  0
LAYER
  5
20D
100
AcDbSymbolTableRecord
100
AcDbLayerTableRecord
  2
20_DATUM_KINEMATIC_SCHEME
 70
0
 62
7
  6
CONTINUOUS
370
-3
390
F
  0
ENDTAB
  0
TABLE
  2
STYLE
  5
3
100
AcDbSymbolTable
 70
1
  0
STYLE
  5
11
100
AcDbSymbolTableRecord
100
AcDbTextStyleTableRecord
  2
STANDARD
 70
0
 40
0.0
 41
0.8
 50
0.0
 71
0
 42
0.2
  3
txt
  4

  0
STYLE
  5
20E
100
AcDbSymbolTableRecord
100
AcDbTextStyleTableRecord
  2
TEXTSTYLE_1
 70
0
 40
0.0
 41
0.8
 50
0.0
 71
0
 42
0.2
  3
gdt
  4

  0
ENDTAB
  0
TABLE
  2
VIEW
  5
6
100
AcDbSymbolTable
 70
0
  0
ENDTAB
  0
TABLE
  2
UCS
  5
7
100
AcDbSymbolTable
 70
0
  0
ENDTAB
  0
TABLE
  2
APPID
  5
9
100
AcDbSymbolTable
 70
1
  0
APPID
  5
20F
100
AcDbSymbolTableRecord
100
AcDbRegAppTableRecord
  2
ACAD
 70
0
  0
ENDTAB
  0
TABLE
  2
BLOCK_RECORD
  5
1
100
AcDbSymbolTable
 70
0
  0
BLOCK_RECORD
  5
210
100
AcDbSymbolTableRecord
100
AcDbBlockTableRecord
  2
*Model_Space
  0
BLOCK_RECORD
  5
211
100
AcDbSymbolTableRecord
100
AcDbBlockTableRecord
  2
*Paper_Space
  0
BLOCK_RECORD
  5
212
100
AcDbSymbolTableRecord
100
AcDbBlockTableRecord
  2
_FILLED
  0
ENDTAB
  0
TABLE
  2
DIMSTYLE
  5
A
100
AcDbSymbolTable
 70
1
100
AcDbDimStyleTable
 71
0
  0
DIMSTYLE
105
213
100
AcDbSymbolTableRecord
100
AcDbDimStyleTableRecord
  2
STANDARD
 70
0
  3

  4

 40
1.0
 41
1.0735367814
 42
1.0
 43
0.38
 44
1.0
 45
0.0
 46
0.0
 47
0.01
 48
0.01
140
1.502951494
141
0.09
142
0.0
143
25.4
144
1.0
145
0.0
146
1.0
147
0.625
 71
1
 72
0
 73
0
 74
0
 75
0
 76
0
 77
1
 78
8
 79
2
170
0
171
1
172
0
173
0
174
0
175
0
176
0
177
0
178
0
270
2
179
2
271
2
272
2
273
2
274
2
275
0
280
0
281
0
282
0
283
1
284
8
285
0
286
0
287
3
288
0
340
11
278
46
341
212
342
212
343
212
344
212
  0
ENDTAB
  0
ENDSEC
  0
SECTION
  2
BLOCKS
  0
BLOCK
  5
20
100
AcDbEntity
  8
0
100
AcDbBlockBegin
  2
*Model_Space
 70
0
 10
0.0
 20
0.0
 30
0.0
  3
*Model_Space
  1

  0
ENDBLK
  5
21
100
AcDbEntity
  8
0
100
AcDbBlockEnd
  0
BLOCK
  5
1C
100
AcDbEntity
  8
0
100
AcDbBlockBegin
  2
*Paper_Space
 70
0
 10
0.0
 20
0.0
 30
0.0
  3
*Paper_Space
  1

  0
ENDBLK
  5
1D
100
AcDbEntity
  8
0
100
AcDbBlockEnd
  0
BLOCK
  5
214
100
AcDbEntity
  8
0
100
AcDbBlockBegin
  2
_FILLED
 70
64
 10
0.0
 20
0.0
  3
_FILLED
  1

  0
SOLID
  5
215
100
AcDbEntity
  8
0
  6
BYBLOCK
 62
0
100
AcDbTrace
 10
0.0
 20
0.0
 11
-1.0
 21
0.25
 12
-1.0
 22
-0.25
 13
-1.0
 23
-0.25
  0
ENDBLK
  5
216
100
AcDbEntity
  8
0
  6
BYBLOCK
 62
0
100
AcDbBlockEnd
  0
ENDSEC
  0
SECTION
  2
ENTITIES
  0
LINE
  5
217
100
AcDbEntity
  8
0
100
AcDbLine
 62
7
  6
CONTINUOUS
 10
56.2537371338
 20
9.1320268343
 11
36.2648978481
 21
9.1320268343
  0
LINE
  5
218
100
AcDbEntity
  8
0
100
AcDbLine
 62
7
  6
CONTINUOUS
 10
35.0093237671
 20
13.6568451166
 11
57.5093112148
 21
13.6568451166
  0
LINE
  5
219
100
AcDbEntity
  8
0
100
AcDbLine
 62
7
  6
CONTINUOUS
 10
47.6536379589
 20
114.3830622825
 11
46.9518227971
 21
113.8633279741
  0
LINE
  5
21A
100
AcDbEntity
  8
0
100
AcDbLine
 62
7
  6
CONTINUOUS
 10
52.6227304974
 20
114.3830622825
 11
51.9209153356
 21
113.8633279741
  0
LINE
  5
21B
100
AcDbEntity
  8
0
100
AcDbLine
 62
7
  6
CONTINUOUS
 10
35.0093237671
 20
25.0072915462
 11
57.5093112148
 21
25.0072915462
  0
LINE
  5
21C
100
AcDbEntity
  8
0
100
AcDbLine
 62
7
  6
CONTINUOUS
 10
35.0093237671
 20
13.6568451166
 11
35.0093237671
 21
113.0988094082
  0
LINE
  5
21D
100
AcDbEntity
  8
0
100
AcDbLine
 62
7
  6
CONTINUOUS
 10
36.2648978481
 20
9.1320268343
 11
36.2648978481
 21
13.6568451166
  0
LINE
  5
21E
100
AcDbEntity
  8
0
100
AcDbLine
 62
7
  6
CONTINUOUS
 10
36.2648978481
 20
113.0988094082
 11
36.2648978481
 21
117.6236276855
  0
LINE
  5
21F
100
AcDbEntity
  8
0
100
AcDbLine
 62
7
  6
CONTINUOUS
 10
37.6970776076
 20
12.3725922368
 11
37.6970776076
 21
12.9167375441
  0
LINE
  5
220
100
AcDbEntity
  8
0
100
AcDbLine
 62
7
  6
CONTINUOUS
 10
37.7154528817
 20
113.8389169751
 11
37.7154528817
 21
114.3830622824
  0
LINE
  5
221
100
AcDbEntity
  8
0
100
AcDbLine
 62
7
  6
CONTINUOUS
 10
42.6705816076
 20
12.3725922368
 11
42.6705816076
 21
12.9167375441
  0
LINE
  5
222
100
AcDbEntity
  8
0
100
AcDbLine
 62
7
  6
CONTINUOUS
 10
42.6845454206
 20
113.8389169749
 11
42.6845454206
 21
114.3830622822
  0
LINE
  5
223
100
AcDbEntity
  8
0
100
AcDbLine
 62
7
  6
CONTINUOUS
 10
47.6440856076
 20
12.3725922368
 11
47.6440856076
 21
12.9167375441
  0
LINE
  5
224
100
AcDbEntity
  8
0
100
AcDbLine
 62
7
  6
CONTINUOUS
 10
47.6536379589
 20
113.8389169751
 11
47.6536379589
 21
114.3830622822
  0
LINE
  5
225
100
AcDbEntity
  8
0
100
AcDbLine
 62
7
  6
CONTINUOUS
 10
52.6175896078
 20
12.3725922367
 11
52.6175896078
 21
12.916737544
  0
LINE
  5
226
100
AcDbEntity
  8
0
100
AcDbLine
 62
7
  6
CONTINUOUS
 10
52.6227304974
 20
113.8389169751
 11
52.6227304974
 21
114.3830622824
  0
LINE
  5
227
100
AcDbEntity
  8
0
100
AcDbLine
 62
7
  6
CONTINUOUS
 10
56.2537371338
 20
117.6236276855
 11
56.2537371338
 21
113.0988094082
  0
LINE
  5
228
100
AcDbEntity
  8
0
100
AcDbLine
 62
7
  6
CONTINUOUS
 10
56.2537371338
 20
13.6568451166
 11
56.2537371338
 21
9.1320268343
  0
LINE
  5
229
100
AcDbEntity
  8
0
100
AcDbLine
 62
7
  6
CONTINUOUS
 10
57.5093112148
 20
13.6568451166
 11
57.5093112148
 21
113.0988094082
  0
LINE
  5
22A
100
AcDbEntity
  8
0
100
AcDbLine
 62
7
  6
CONTINUOUS
 10
37.8063563953
 20
13.6568451166
 11
36.9952624459
 21
12.8923265449
  0
LINE
  5
22B
100
AcDbEntity
  8
0
100
AcDbLine
 62
7
  6
CONTINUOUS
 10
37.6970776077
 20
12.9167375441
 11
38.4822734109
 21
13.6568451166
  0
LINE
  5
22C
100
AcDbEntity
  8
0
100
AcDbLine
 62
7
  6
CONTINUOUS
 10
39.0595686954
 20
13.6568451166
 11
37.6970776077
 21
12.3725922367
  0
LINE
  5
22D
100
AcDbEntity
  8
0
100
AcDbLine
 62
7
  6
CONTINUOUS
 10
37.8247316637
 20
113.0988094082
 11
37.0136377202
 21
113.8633279743
  0
LINE
  5
22E
100
AcDbEntity
  8
0
100
AcDbLine
 62
7
  6
CONTINUOUS
 10
38.5006486792
 20
113.0988094082
 11
37.7154528818
 21
113.8389169752
  0
LINE
  5
22F
100
AcDbEntity
  8
0
100
AcDbLine
 62
7
  6
CONTINUOUS
 10
37.7154528819
 20
114.3830622824
 11
39.0779439636
 21
113.0988094082
  0
LINE
  5
230
100
AcDbEntity
  8
0
100
AcDbLine
 62
7
  6
CONTINUOUS
 10
42.7798603953
 20
13.6568451166
 11
41.9687664459
 21
12.8923265449
  0
LINE
  5
231
100
AcDbEntity
  8
0
100
AcDbLine
 62
7
  6
CONTINUOUS
 10
42.6705816077
 20
12.9167375441
 11
43.4557774109
 21
13.6568451166
  0
LINE
  5
232
100
AcDbEntity
  8
0
100
AcDbLine
 62
7
  6
CONTINUOUS
 10
44.0330726954
 20
13.6568451166
 11
42.6705816077
 21
12.3725922367
  0
LINE
  5
233
100
AcDbEntity
  8
0
100
AcDbLine
 62
7
  6
CONTINUOUS
 10
47.7533643953
 20
13.6568451166
 11
46.9422704459
 21
12.8923265449
  0
LINE
  5
234
100
AcDbEntity
  8
0
100
AcDbLine
 62
7
  6
CONTINUOUS
 10
42.7938242023
 20
113.0988094082
 11
41.9851488835
 21
113.8610482341
  0
LINE
  5
235
100
AcDbEntity
  8
0
100
AcDbLine
 62
7
  6
CONTINUOUS
 10
43.4697412178
 20
113.0988094082
 11
42.6845454204
 21
113.8389169753
  0
LINE
  5
236
100
AcDbEntity
  8
0
100
AcDbLine
 62
7
  6
CONTINUOUS
 10
42.686012196
 20
114.3816797336
 11
44.0470365025
 21
113.0988094082
  0
LINE
  5
237
100
AcDbEntity
  8
0
100
AcDbLine
 62
7
  6
CONTINUOUS
 10
47.7629167408
 20
113.0988094082
 11
46.9465303479
 21
113.8683165158
  0
LINE
  5
238
100
AcDbEntity
  8
0
100
AcDbLine
 62
7
  6
CONTINUOUS
 10
47.6440856077
 20
12.9167375441
 11
48.4292814109
 21
13.6568451166
  0
LINE
  5
239
100
AcDbEntity
  8
0
100
AcDbLine
 62
7
  6
CONTINUOUS
 10
49.0065766954
 20
13.6568451166
 11
47.6440856077
 21
12.3725922367
  0
LINE
  5
23A
100
AcDbEntity
  8
0
100
AcDbLine
 62
7
  6
CONTINUOUS
 10
52.7268683953
 20
13.6568451166
 11
51.9157744459
 21
12.8923265449
  0
LINE
  5
23B
100
AcDbEntity
  8
0
100
AcDbLine
 62
7
  6
CONTINUOUS
 10
52.6175896078
 20
12.916737544
 11
53.4027854111
 21
13.6568451166
  0
LINE
  5
23C
100
AcDbEntity
  8
0
100
AcDbLine
 62
7
  6
CONTINUOUS
 10
35.0093237671
 20
101.7483629732
 11
57.5093112148
 21
101.7483629732
  0
LINE
  5
23D
100
AcDbEntity
  8
0
100
AcDbLine
 62
7
  6
CONTINUOUS
 10
48.4388337563
 20
113.0988094082
 11
47.6536379589
 21
113.8389169753
  0
LINE
  5
23E
100
AcDbEntity
  8
0
100
AcDbLine
 62
7
  6
CONTINUOUS
 10
47.6505462061
 20
114.3859764978
 11
49.0161290407
 21
113.0988094082
  0
LINE
  5
23F
100
AcDbEntity
  8
0
100
AcDbLine
 62
7
  6
CONTINUOUS
 10
52.732009279
 20
113.0988094082
 11
51.9180869209
 21
113.8659939731
  0
LINE
  5
240
100
AcDbEntity
  8
0
100
AcDbLine
 62
7
  6
CONTINUOUS
 10
53.4079262947
 20
113.0988094082
 11
52.6227304973
 21
113.8389169752
  0
LINE
  5
241
100
AcDbEntity
  8
0
100
AcDbLine
 62
7
  6
CONTINUOUS
 10
53.9800806956
 20
13.6568451166
 11
52.6175896078
 21
12.3725922367
  0
LINE
  5
242
100
AcDbEntity
  8
0
100
AcDbLine
 62
7
  6
CONTINUOUS
 10
52.6211419962
 20
114.3845595679
 11
53.9852215798
 21
113.0988094082
  0
LINE
  5
243
100
AcDbEntity
  8
0
100
AcDbLine
 62
7
  6
CONTINUOUS
 10
35.0093237671
 20
113.0988094082
 11
57.5093112148
 21
113.0988094082
  0
LINE
  5
244
100
AcDbEntity
  8
0
100
AcDbLine
 62
7
  6
CONTINUOUS
 10
56.2537371338
 20
117.6236276852
 11
36.2648978481
 21
117.6236276852
  0
ARC
  5
245
100
AcDbEntity
  8
0
100
AcDbCircle
 62
7
  6
CONTINUOUS
 10
44.3895885723
 20
112.7668202208
 40
1.5879581315
100
AcDbArc
 50
12.1982146174
 51
13.7348663473
  0
ARC
  5
246
100
AcDbEntity
  8
0
100
AcDbCircle
 62
7
  6
CONTINUOUS
 10
39.4161119846
 20
112.7668274266
 40
1.587930263
100
AcDbArc
 50
12.1979246557
 51
13.7351914469
  0
ARC
  5
247
100
AcDbEntity
  8
0
100
AcDbCircle
 62
7
  6
CONTINUOUS
 10
39.3977367118
 20
13.9888270931
 40
1.5879302628
100
AcDbArc
 50
346.2648085464
 51
347.8020755343
  0
ARC
  5
248
100
AcDbEntity
  8
0
100
AcDbCircle
 62
7
  6
CONTINUOUS
 10
44.3712407119
 20
13.9888270931
 40
1.5879302628
100
AcDbArc
 50
346.2648085464
 51
347.8020755344
  0
ARC
  5
249
100
AcDbEntity
  8
0
100
AcDbCircle
 62
7
  6
CONTINUOUS
 10
49.3447447117
 20
13.9888270931
 40
1.5879302629
100
AcDbArc
 50
346.2648085465
 51
347.8020755343
  0
ARC
  5
24A
100
AcDbEntity
  8
0
100
AcDbCircle
 62
7
  6
CONTINUOUS
 10
54.3182487117
 20
13.9888270931
 40
1.5879302629
100
AcDbArc
 50
346.2648085463
 51
347.8020755341
  0
ARC
  5
24B
100
AcDbEntity
  8
0
100
AcDbCircle
 62
7
  6
CONTINUOUS
 10
54.3239048701
 20
112.7682019481
 40
1.5821654965
100
AcDbArc
 50
12.4446154767
 51
13.1545663517
  0
ARC
  5
24C
100
AcDbEntity
  8
0
100
AcDbCircle
 62
7
  6
CONTINUOUS
 10
49.3504287015
 20
112.7682081882
 40
1.5821373041
100
AcDbArc
 50
12.4440966412
 51
13.1561516895
  0
ARC
  5
24D
100
AcDbEntity
  8
0
100
AcDbCircle
 62
7
  6
CONTINUOUS
 10
38.1457027654
 20
13.9863349748
 40
1.5766545664
100
AcDbArc
 50
192.0980746208
 51
194.3362911767
  0
ARC
  5
24E
100
AcDbEntity
  8
0
100
AcDbCircle
 62
7
  6
CONTINUOUS
 10
43.1192067654
 20
13.9863349748
 40
1.5766545663
100
AcDbArc
 50
192.0980746208
 51
194.3362911767
  0
ARC
  5
24F
100
AcDbEntity
  8
0
100
AcDbCircle
 62
7
  6
CONTINUOUS
 10
48.0927107654
 20
13.9863349748
 40
1.5766545664
100
AcDbArc
 50
192.0980746208
 51
194.3362911767
  0
ARC
  5
250
100
AcDbEntity
  8
0
100
AcDbCircle
 62
7
  6
CONTINUOUS
 10
53.0662147653
 20
13.9863349748
 40
1.5766545662
100
AcDbArc
 50
192.0980746208
 51
194.3362911769
  0
ARC
  5
251
100
AcDbEntity
  8
0
100
AcDbCircle
 62
7
  6
CONTINUOUS
 10
53.0657825879
 20
112.7694422927
 40
1.5762074528
100
AcDbArc
 50
166.1597419148
 51
167.9014658534
  0
ARC
  5
252
100
AcDbEntity
  8
0
100
AcDbCircle
 62
7
  6
CONTINUOUS
 10
48.0920939116
 20
112.7694753574
 40
1.5760201504
100
AcDbArc
 50
166.15957062
 51
167.9008150449
  0
ARC
  5
253
100
AcDbEntity
  8
0
100
AcDbCircle
 62
7
  6
CONTINUOUS
 10
38.1634421881
 20
112.7694643436
 40
1.5760024888
100
AcDbArc
 50
166.1577696972
 51
167.9022275677
  0
ARC
  5
254
100
AcDbEntity
  8
0
100
AcDbCircle
 62
7
  6
CONTINUOUS
 10
43.1368584532
 20
112.7694812846
 40
1.5759135677
100
AcDbArc
 50
166.1572672266
 51
167.9027040986
  0
ARC
  5
255
100
AcDbEntity
  8
0
100
AcDbCircle
 62
7
  6
CONTINUOUS
 10
39.4126538999
 20
13.9857502737
 40
1.5726997592
100
AcDbArc
 50
347.7968116283
 51
353.0152597109
  0
ARC
  5
256
100
AcDbEntity
  8
0
100
AcDbCircle
 62
7
  6
CONTINUOUS
 10
44.3861578999
 20
13.9857502737
 40
1.5726997592
100
AcDbArc
 50
347.7968116283
 51
353.0152597109
  0
ARC
  5
257
100
AcDbEntity
  8
0
100
AcDbCircle
 62
7
  6
CONTINUOUS
 10
49.3596618999
 20
13.9857502737
 40
1.5726997592
100
AcDbArc
 50
347.7968116283
 51
353.0152597109
  0
ARC
  5
258
100
AcDbEntity
  8
0
100
AcDbCircle
 62
7
  6
CONTINUOUS
 10
54.3331659
 20
13.9857502737
 40
1.5726997591
100
AcDbArc
 50
347.7968116281
 51
353.0152597109
  0
ARC
  5
259
100
AcDbEntity
  8
0
100
AcDbCircle
 62
7
  6
CONTINUOUS
 10
44.404561142
 20
112.769907815
 40
1.5726712208
100
AcDbArc
 50
6.9669059875
 51
12.203524064
  0
ARC
  5
25A
100
AcDbEntity
  8
0
100
AcDbCircle
 62
7
  6
CONTINUOUS
 10
39.4310631989
 20
112.7699106915
 40
1.5726651396
100
AcDbArc
 50
6.9694157286
 51
12.2032210799
  0
ARC
  5
25B
100
AcDbEntity
  8
0
100
AcDbCircle
 62
7
  6
CONTINUOUS
 10
38.0954643232
 20
13.6034256656
 40
1.5260575783
100
AcDbArc
 50
177.9863311696
 51
179.9986467351
  0
ARC
  5
25C
100
AcDbEntity
  8
0
100
AcDbCircle
 62
7
  6
CONTINUOUS
 10
43.0689683233
 20
13.6034256656
 40
1.5260575783
100
AcDbArc
 50
177.9863311696
 51
179.9986467351
  0
ARC
  5
25D
100
AcDbEntity
  8
0
100
AcDbCircle
 62
7
  6
CONTINUOUS
 10
48.0424723233
 20
13.6034256656
 40
1.5260575783
100
AcDbArc
 50
177.9863311696
 51
179.9986467351
  0
ARC
  5
25E
100
AcDbEntity
  8
0
100
AcDbCircle
 62
7
  6
CONTINUOUS
 10
53.0159763233
 20
13.6034256656
 40
1.5260575783
100
AcDbArc
 50
177.9863311696
 51
179.9986467351
  0
ARC
  5
25F
100
AcDbEntity
  8
0
100
AcDbCircle
 62
7
  6
CONTINUOUS
 10
44.4509446669
 20
113.1522288539
 40
1.5260575772
100
AcDbArc
 50
357.9863313691
 51
359.9986467353
  0
ARC
  5
260
100
AcDbEntity
  8
0
100
AcDbCircle
 62
7
  6
CONTINUOUS
 10
49.4060735757
 20
113.1522288539
 40
1.5260575772
100
AcDbArc
 50
357.9863313691
 51
359.9986467353
  0
ARC
  5
261
100
AcDbEntity
  8
0
100
AcDbCircle
 62
7
  6
CONTINUOUS
 10
54.3795774845
 20
113.1522288539
 40
1.5260575772
100
AcDbArc
 50
357.9863313691
 51
359.9986467353
  0
ARC
  5
262
100
AcDbEntity
  8
0
100
AcDbCircle
 62
7
  6
CONTINUOUS
 10
39.4774407602
 20
113.1522288537
 40
1.5260575751
100
AcDbArc
 50
357.9863313744
 51
359.9986467433
  0
ARC
  5
263
100
AcDbEntity
  8
0
100
AcDbCircle
 62
7
  6
CONTINUOUS
 10
39.4591380903
 20
13.6034256524
 40
1.525984972
100
AcDbArc
 50
0.0013538248
 51
2.013802498
  0
ARC
  5
264
100
AcDbEntity
  8
0
100
AcDbCircle
 62
7
  6
CONTINUOUS
 10
44.4326420903
 20
13.6034256524
 40
1.525984972
100
AcDbArc
 50
0.0013538248
 51
2.013802498
  0
ARC
  5
265
100
AcDbEntity
  8
0
100
AcDbCircle
 62
7
  6
CONTINUOUS
 10
49.4061460904
 20
13.6034256524
 40
1.525984972
100
AcDbArc
 50
0.0013538248
 51
2.0138024981
  0
ARC
  5
266
100
AcDbEntity
  8
0
100
AcDbCircle
 62
7
  6
CONTINUOUS
 10
54.3796500903
 20
13.6034256524
 40
1.5259849721
100
AcDbArc
 50
0.0013538254
 51
2.0138024985
  0
ARC
  5
267
100
AcDbEntity
  8
0
100
AcDbCircle
 62
7
  6
CONTINUOUS
 10
38.1137669904
 20
113.1522288671
 40
1.5259849709
100
AcDbArc
 50
180.0013538246
 51
182.0138022986
  0
ARC
  5
268
100
AcDbEntity
  8
0
100
AcDbCircle
 62
7
  6
CONTINUOUS
 10
43.0872708991
 20
113.1522288671
 40
1.5259849709
100
AcDbArc
 50
180.0013538246
 51
182.0138022986
  0
ARC
  5
269
100
AcDbEntity
  8
0
100
AcDbCircle
 62
7
  6
CONTINUOUS
 10
48.042399808
 20
113.1522288671
 40
1.5259849709
100
AcDbArc
 50
180.0013538246
 51
182.0138022986
  0
ARC
  5
26A
100
AcDbEntity
  8
0
100
AcDbCircle
 62
7
  6
CONTINUOUS
 10
53.0159037168
 20
113.1522288671
 40
1.5259849708
100
AcDbArc
 50
180.0013538246
 51
182.0138022986
  0
SPLINE
  5
26B
100
AcDbEntity
  8
0
100
AcDbSpline
 62
7
  6
CONTINUOUS
 70
0
 71
3
 72
13
 73
9
 74
0
 42
0.0000001
 43
0.0000001
 44
0.0000000001
 40
0.0
 40
0.0
 40
0.0
 40
0.0
 40
0.1129686568
 40
0.229939857
 40
0.3519562675
 40
0.478771785
 40
0.7400997393
 40
1.0
 40
1.0
 40
1.0
 40
1.0
 10
40.9586329509
 20
113.1438573838
 30
0.0
 10
40.9236556598
 20
113.2869634379
 30
0.0
 10
40.8107155814
 20
113.5694614181
 30
0.0
 10
40.5325745997
 20
113.94028968
 30
0.0
 10
40.1604954514
 20
114.2457573769
 30
0.0
 10
39.5622251552
 20
114.5468903624
 30
0.0
 10
38.7050918386
 20
114.6844510787
 30
0.0
 10
38.0223455796
 20
114.526896857
 30
0.0
 10
37.7154528819
 20
114.3830622824
 30
0.0
  0
SPLINE
  5
26C
100
AcDbEntity
  8
0
100
AcDbSpline
 62
7
  6
CONTINUOUS
 70
0
 71
3
 72
9
 73
5
 74
0
 42
0.0000001
 43
0.0000001
 44
0.0000000001
 40
0.0
 40
0.0
 40
0.0
 40
0.0
 40
0.5080057761
 40
1.0
 40
1.0
 40
1.0
 40
1.0
 10
46.9465303479
 20
113.8683165158
 30
0.0
 10
46.8543164568
 20
113.763621297
 30
0.0
 10
46.6947639915
 20
113.5367223449
 30
0.0
 10
46.5941542985
 20
113.2776838193
 30
0.0
 10
46.5618323671
 20
113.1464887788
 30
0.0
  0
SPLINE
  5
26D
100
AcDbEntity
  8
0
100
AcDbSpline
 62
7
  6
CONTINUOUS
 70
0
 71
3
 72
9
 73
5
 74
0
 42
0.0000001
 43
0.0000001
 44
0.0000000001
 40
0.0
 40
0.0
 40
0.0
 40
0.0
 40
0.2534932003
 40
1.0
 40
1.0
 40
1.0
 40
1.0
 10
52.6227304973
 20
113.8389169752
 30
0.0
 10
52.5858691999
 20
113.8216408098
 30
0.0
 10
52.4422524517
 20
113.749740839
 30
0.0
 10
52.3061086618
 20
113.6627466982
 30
0.0
 10
52.2109352025
 20
113.5898498406
 30
0.0
  0
SPLINE
  5
26E
100
AcDbEntity
  8
0
100
AcDbSpline
 62
7
  6
CONTINUOUS
 70
0
 71
3
 72
9
 73
5
 74
0
 42
0.0000001
 43
0.0000001
 44
0.0000000001
 40
0.0
 40
0.0
 40
0.0
 40
0.0
 40
0.2534932003
 40
1.0
 40
1.0
 40
1.0
 40
1.0
 10
37.7154528818
 20
113.8389169752
 30
0.0
 10
37.6785915844
 20
113.8216408098
 30
0.0
 10
37.5349748363
 20
113.749740839
 30
0.0
 10
37.3988310464
 20
113.6627466983
 30
0.0
 10
37.3036575871
 20
113.5898498407
 30
0.0
  0
SPLINE
  5
26F
100
AcDbEntity
  8
0
100
AcDbSpline
 62
7
  6
CONTINUOUS
 70
0
 71
3
 72
14
 73
10
 74
0
 42
0.0000001
 43
0.0000001
 44
0.0000000001
 40
0.0
 40
0.0
 40
0.0
 40
0.0
 40
0.1127350183
 40
0.2294827717
 40
0.3512654875
 40
0.47788111
 40
0.7389574909
 40
0.8707225263
 40
1.0
 40
1.0
 40
1.0
 40
1.0
 10
55.8645538241
 20
113.1282692458
 30
0.0
 10
55.8309498065
 20
113.2720544905
 30
0.0
 10
55.7203550926
 20
113.5563095369
 30
0.0
 10
55.4445191787
 20
113.930311725
 30
0.0
 10
55.0732528092
 20
114.2389083215
 30
0.0
 10
54.4752071133
 20
114.544174276
 30
0.0
 10
53.7820423937
 20
114.6567082624
 30
0.0
 10
53.1009694171
 20
114.5678632339
 30
0.0
 10
52.7745922105
 20
114.456146496
 30
0.0
 10
52.6211419962
 20
114.3845595679
 30
0.0
  0
SPLINE
  5
270
100
AcDbEntity
  8
0
100
AcDbSpline
 62
7
  6
CONTINUOUS
 70
0
 71
3
 72
9
 73
5
 74
0
 42
0.0000001
 43
0.0000001
 44
0.0000000001
 40
0.0
 40
0.0
 40
0.0
 40
0.0
 40
0.5079741826
 40
1.0
 40
1.0
 40
1.0
 40
1.0
 10
51.9180869209
 20
113.8659939731
 30
0.0
 10
51.8263464591
 20
113.7615760544
 30
0.0
 10
51.6676456522
 20
113.5353343554
 30
0.0
 10
51.5675429749
 20
113.2772177683
 30
0.0
 10
51.5353380519
 20
113.1464959449
 30
0.0
  0
SPLINE
  5
271
100
AcDbEntity
  8
0
100
AcDbSpline
 62
7
  6
CONTINUOUS
 70
0
 71
3
 72
9
 73
5
 74
0
 42
0.0000001
 43
0.0000001
 44
0.0000000001
 40
0.0
 40
0.0
 40
0.0
 40
0.0
 40
0.5079295628
 40
1.0
 40
1.0
 40
1.0
 40
1.0
 10
37.0136377202
 20
113.8633279743
 30
0.0
 10
36.9224811224
 20
113.759210393
 30
0.0
 10
36.7648068077
 20
113.533723785
 30
0.0
 10
36.6652832513
 20
113.2766911625
 30
0.0
 10
36.6332096433
 20
113.1465216386
 30
0.0
  0
SPLINE
  5
272
100
AcDbEntity
  8
0
100
AcDbSpline
 62
7
  6
CONTINUOUS
 70
0
 71
3
 72
9
 73
5
 74
0
 42
0.0000001
 43
0.0000001
 44
0.0000000001
 40
0.0
 40
0.0
 40
0.0
 40
0.0
 40
0.4943602003
 40
1.0
 40
1.0
 40
1.0
 40
1.0
 10
36.58778202
 20
113.1521928101
 30
0.0
 10
36.58778202
 20
113.2961221154
 30
0.0
 10
36.6293502074
 20
113.5886504881
 30
0.0
 10
36.7489856946
 20
113.8583292809
 30
0.0
 10
36.8251833698
 20
113.9842882553
 30
0.0
  0
SPLINE
  5
273
100
AcDbEntity
  8
0
100
AcDbSpline
 62
7
  6
CONTINUOUS
 70
0
 71
3
 72
17
 73
13
 74
0
 42
0.0000001
 43
0.0000001
 44
0.0000000001
 40
0.0
 40
0.0
 40
0.0
 40
0.0
 40
0.1200969171
 40
0.2473798365
 40
0.3798900989
 40
0.5137266084
 40
0.6445355684
 40
0.7690374839
 40
0.8287605848
 40
0.8868719658
 40
0.9438143838
 40
1.0
 40
1.0
 40
1.0
 40
1.0
 10
36.8251833698
 20
113.9842882553
 30
0.0
 10
36.9388111489
 20
114.1721212629
 30
0.0
 10
37.2485443466
 20
114.5163495885
 30
0.0
 10
37.8629159335
 20
114.8614708026
 30
0.0
 10
38.5743432031
 20
115.0216298387
 30
0.0
 10
39.3085157268
 20
114.9810799062
 30
0.0
 10
39.9895567363
 20
114.744490829
 30
0.0
 10
40.4609937228
 20
114.3947408412
 30
0.0
 10
40.7383189875
 20
114.0466777637
 30
0.0
 10
40.8898873703
 20
113.7632309621
 30
0.0
 10
40.9824577706
 20
113.4622432769
 30
0.0
 10
41.0034983349
 20
113.2548957951
 30
0.0
 10
41.0034983349
 20
113.1521928101
 30
0.0
  0
SPLINE
  5
274
100
AcDbEntity
  8
0
100
AcDbSpline
 62
7
  6
CONTINUOUS
 70
0
 71
3
 72
9
 73
5
 74
0
 42
0.0000001
 43
0.0000001
 44
0.0000000001
 40
0.0
 40
0.0
 40
0.0
 40
0.0
 40
0.4943919087
 40
1.0
 40
1.0
 40
1.0
 40
1.0
 10
41.5612859287
 20
113.1521928101
 30
0.0
 10
41.5612859287
 20
113.2956313553
 30
0.0
 10
41.6025655827
 20
113.5871341059
 30
0.0
 10
41.7213967363
 20
113.8560220614
 30
0.0
 10
41.7971054155
 20
113.9816681801
 30
0.0
  0
SPLINE
  5
275
100
AcDbEntity
  8
0
100
AcDbSpline
 62
7
  6
CONTINUOUS
 70
0
 71
3
 72
17
 73
13
 74
0
 42
0.0000001
 43
0.0000001
 44
0.0000000001
 40
0.0
 40
0.0
 40
0.0
 40
0.0
 40
0.1200692496
 40
0.247331325
 40
0.3798352106
 40
0.5136792238
 40
0.6445035265
 40
0.7690209354
 40
0.8287502561
 40
0.8868661998
 40
0.9438118489
 40
1.0
 40
1.0
 40
1.0
 40
1.0
 10
41.7971054155
 20
113.9816681801
 30
0.0
 10
41.9104410009
 20
114.1697599094
 30
0.0
 10
42.2197712586
 20
114.5146044025
 30
0.0
 10
42.8340070125
 20
114.8605952285
 30
0.0
 10
43.5456584194
 20
115.0214887813
 30
0.0
 10
44.2803062108
 20
114.9814554291
 30
0.0
 10
44.9619412097
 20
114.7451237018
 30
0.0
 10
45.4338713847
 20
114.3953637134
 30
0.0
 10
45.7115105206
 20
114.047172618
 30
0.0
 10
45.8632552228
 20
113.7635875935
 30
0.0
 10
45.9559364456
 20
113.4624301606
 30
0.0
 10
45.9770022436
 20
113.2549570702
 30
0.0
 10
45.9770022436
 20
113.1521928101
 30
0.0
  0
SPLINE
  5
276
100
AcDbEntity
  8
0
100
AcDbSpline
 62
7
  6
CONTINUOUS
 70
0
 71
3
 72
13
 73
9
 74
0
 42
0.0000001
 43
0.0000001
 44
0.0000000001
 40
0.0
 40
0.0
 40
0.0
 40
0.0
 40
0.2599002607
 40
0.521228215
 40
0.6480437325
 40
0.770060143
 40
0.8870313432
 40
1.0
 40
1.0
 40
1.0
 40
1.0
 10
37.6970776077
 20
12.3725922367
 30
0.0
 10
38.0039703055
 20
12.2287576621
 30
0.0
 10
38.6867165647
 20
12.0712034403
 30
0.0
 10
39.5438498816
 20
12.2087641567
 30
0.0
 10
40.1421201781
 20
12.5098971422
 30
0.0
 10
40.5141993264
 20
12.8153648392
 30
0.0
 10
40.7923403083
 20
13.1861931012
 30
0.0
 10
40.9052803868
 20
13.4686910815
 30
0.0
 10
40.9402576779
 20
13.6117971357
 30
0.0
  0
SPLINE
  5
277
100
AcDbEntity
  8
0
100
AcDbSpline
 62
7
  6
CONTINUOUS
 70
0
 71
3
 72
9
 73
5
 74
0
 42
0.0000001
 43
0.0000001
 44
0.0000000001
 40
0.0
 40
0.0
 40
0.0
 40
0.0
 40
0.4942910776
 40
1.0
 40
1.0
 40
1.0
 40
1.0
 10
46.5164148376
 20
113.1521928101
 30
0.0
 10
46.5164148376
 20
113.2971866053
 30
0.0
 10
46.5586126621
 20
113.591940568
 30
0.0
 10
46.6800015294
 20
113.8633302092
 30
0.0
 10
46.7572643854
 20
113.9899640021
 30
0.0
  0
SPLINE
  5
278
100
AcDbEntity
  8
0
100
AcDbSpline
 62
7
  6
CONTINUOUS
 70
0
 71
3
 72
17
 73
13
 74
0
 42
0.0000001
 43
0.0000001
 44
0.0000000001
 40
0.0
 40
0.0
 40
0.0
 40
0.0
 40
0.1201570406
 40
0.2474851043
 40
0.3800090896
 40
0.5138292596
 40
0.644604938
 40
0.7690732864
 40
0.8287829218
 40
0.8868844308
 40
0.943819862
 40
1.0
 40
1.0
 40
1.0
 40
1.0
 10
46.7572643854
 20
113.9899640021
 30
0.0
 10
46.8715234337
 20
114.1772345407
 30
0.0
 10
47.1821252953
 20
114.5201257282
 30
0.0
 10
47.7967863885
 20
114.8633618265
 30
0.0
 10
48.5077240272
 20
115.0219297642
 30
0.0
 10
49.2408639389
 20
114.9802615721
 30
0.0
 10
49.9206161581
 20
114.7431162325
 30
0.0
 10
50.390983803
 20
114.3933890808
 30
0.0
 10
50.66762875
 20
114.0456041713
 30
0.0
 10
50.8188150142
 20
113.7624573692
 30
0.0
 10
50.9111452669
 20
113.4618379339
 30
0.0
 10
50.9321311525
 20
113.2547628881
 30
0.0
 10
50.9321311525
 20
113.1521928101
 30
0.0
  0
SPLINE
  5
279
100
AcDbEntity
  8
0
100
AcDbSpline
 62
7
  6
CONTINUOUS
 70
0
 71
3
 72
9
 73
5
 74
0
 42
0.0000001
 43
0.0000001
 44
0.0000000001
 40
0.0
 40
0.0
 40
0.0
 40
0.0
 40
0.2466598348
 40
1.0
 40
1.0
 40
1.0
 40
1.0
 10
37.2852823129
 20
13.1658046787
 30
0.0
 10
37.3167300805
 20
13.1417176752
 30
0.0
 10
37.4469464906
 20
13.0476541461
 30
0.0
 10
37.5875295393
 20
12.9680805703
 30
0.0
 10
37.6970776077
 20
12.9167375441
 30
0.0
  0
SPLINE
  5
27A
100
AcDbEntity
  8
0
100
AcDbSpline
 62
7
  6
CONTINUOUS
 70
0
 71
3
 72
9
 73
5
 74
0
 42
0.0000001
 43
0.0000001
 44
0.0000000001
 40
0.0
 40
0.0
 40
0.0
 40
0.0
 40
0.4943230933
 40
1.0
 40
1.0
 40
1.0
 40
1.0
 10
51.4899187464
 20
113.1521928101
 30
0.0
 10
51.4899187464
 20
113.2966944662
 30
0.0
 10
51.5318248292
 20
113.5904193235
 30
0.0
 10
51.6524015829
 20
113.8610187707
 30
0.0
 10
51.7291712128
 20
113.987341224
 30
0.0
  0
SPLINE
  5
27B
100
AcDbEntity
  8
0
100
AcDbSpline
 62
7
  6
CONTINUOUS
 70
0
 71
3
 72
17
 73
13
 74
0
 42
0.0000001
 43
0.0000001
 44
0.0000000001
 40
0.0
 40
0.0
 40
0.0
 40
0.0
 40
0.1201292254
 40
0.2474364293
 40
0.3799540887
 40
0.5137818236
 40
0.6445728893
 40
0.7690567498
 40
0.8287726062
 40
0.8868786751
 40
0.9438173327
 40
1.0
 40
1.0
 40
1.0
 40
1.0
 10
51.7291712128
 20
113.987341224
 30
0.0
 10
51.8431388386
 20
114.1748720237
 30
0.0
 10
52.1533400043
 20
114.5183815084
 30
0.0
 10
52.7678681232
 20
114.8624889486
 30
0.0
 10
53.4790327189
 20
115.0217921285
 30
0.0
 10
54.2126503252
 20
114.9806405542
 30
0.0
 10
54.8929984489
 20
114.7437520568
 30
0.0
 10
55.3638604052
 20
114.3940141529
 30
0.0
 10
55.6408197961
 20
114.0461005565
 30
0.0
 10
55.7921826668
 20
113.762815026
 30
0.0
 10
55.8846239057
 20
113.4620253304
 30
0.0
 10
55.9056350613
 20
113.2548243337
 30
0.0
 10
55.9056350613
 20
113.1521928101
 30
0.0
  0
SPLINE
  5
27C
100
AcDbEntity
  8
0
100
AcDbSpline
 62
7
  6
CONTINUOUS
 70
0
 71
3
 72
9
 73
5
 74
0
 42
0.0000001
 43
0.0000001
 44
0.0000000001
 40
0.0
 40
0.0
 40
0.0
 40
0.0
 40
0.2534932003
 40
1.0
 40
1.0
 40
1.0
 40
1.0
 10
42.6845454204
 20
113.8389169753
 30
0.0
 10
42.647684123
 20
113.8216408098
 30
0.0
 10
42.5040673748
 20
113.7497408391
 30
0.0
 10
42.367923585
 20
113.6627466983
 30
0.0
 10
42.2727501257
 20
113.5898498407
 30
0.0
  0
SPLINE
  5
27D
100
AcDbEntity
  8
0
100
AcDbSpline
 62
7
  6
CONTINUOUS
 70
0
 71
3
 72
9
 73
5
 74
0
 42
0.0000001
 43
0.0000001
 44
0.0000000001
 40
0.0
 40
0.0
 40
0.0
 40
0.0
 40
0.4921599645
 40
1.0
 40
1.0
 40
1.0
 40
1.0
 10
36.6181466606
 20
13.5959352204
 30
0.0
 10
36.6507984885
 20
13.4681701359
 30
0.0
 10
36.7502135477
 20
13.2161094942
 30
0.0
 10
36.9056279996
 20
12.9947055495
 30
0.0
 10
36.9952624459
 20
12.8923265449
 30
0.0
  0
SPLINE
  5
27E
100
AcDbEntity
  8
0
100
AcDbSpline
 62
7
  6
CONTINUOUS
 70
0
 71
3
 72
13
 73
9
 74
0
 42
0.0000001
 43
0.0000001
 44
0.0000000001
 40
0.0
 40
0.0
 40
0.0
 40
0.0
 40
0.2599002607
 40
0.521228215
 40
0.6480437325
 40
0.770060143
 40
0.8870313432
 40
1.0
 40
1.0
 40
1.0
 40
1.0
 10
42.6705816077
 20
12.3725922367
 30
0.0
 10
42.9774743055
 20
12.2287576621
 30
0.0
 10
43.6602205647
 20
12.0712034403
 30
0.0
 10
44.5173538816
 20
12.2087641567
 30
0.0
 10
45.1156241781
 20
12.5098971422
 30
0.0
 10
45.4877033264
 20
12.8153648392
 30
0.0
 10
45.7658443083
 20
13.1861931012
 30
0.0
 10
45.8787843868
 20
13.4686910815
 30
0.0
 10
45.9137616779
 20
13.6117971357
 30
0.0
  0
SPLINE
  5
27F
100
AcDbEntity
  8
0
100
AcDbSpline
 62
7
  6
CONTINUOUS
 70
0
 71
3
 72
9
 73
5
 74
0
 42
0.0000001
 43
0.0000001
 44
0.0000000001
 40
0.0
 40
0.0
 40
0.0
 40
0.0
 40
0.2466598348
 40
1.0
 40
1.0
 40
1.0
 40
1.0
 10
42.2587863129
 20
13.1658046787
 30
0.0
 10
42.2902340805
 20
13.1417176752
 30
0.0
 10
42.4204504906
 20
13.0476541461
 30
0.0
 10
42.5610335393
 20
12.9680805703
 30
0.0
 10
42.6705816077
 20
12.9167375441
 30
0.0
  0
SPLINE
  5
280
100
AcDbEntity
  8
0
100
AcDbSpline
 62
7
  6
CONTINUOUS
 70
0
 71
3
 72
9
 73
5
 74
0
 42
0.0000001
 43
0.0000001
 44
0.0000000001
 40
0.0
 40
0.0
 40
0.0
 40
0.0
 40
0.4921599645
 40
1.0
 40
1.0
 40
1.0
 40
1.0
 10
41.5916506606
 20
13.5959352204
 30
0.0
 10
41.6243024885
 20
13.4681701359
 30
0.0
 10
41.7237175477
 20
13.2161094942
 30
0.0
 10
41.8791319996
 20
12.9947055495
 30
0.0
 10
41.9687664459
 20
12.8923265449
 30
0.0
  0
SPLINE
  5
281
100
AcDbEntity
  8
0
100
AcDbSpline
 62
7
  6
CONTINUOUS
 70
0
 71
3
 72
13
 73
9
 74
0
 42
0.0000001
 43
0.0000001
 44
0.0000000001
 40
0.0
 40
0.0
 40
0.0
 40
0.0
 40
0.2599002607
 40
0.521228215
 40
0.6480437325
 40
0.770060143
 40
0.8870313432
 40
1.0
 40
1.0
 40
1.0
 40
1.0
 10
47.6440856077
 20
12.3725922367
 30
0.0
 10
47.9509783055
 20
12.2287576621
 30
0.0
 10
48.6337245647
 20
12.0712034403
 30
0.0
 10
49.4908578816
 20
12.2087641567
 30
0.0
 10
50.0891281781
 20
12.5098971422
 30
0.0
 10
50.4612073264
 20
12.8153648392
 30
0.0
 10
50.7393483083
 20
13.1861931012
 30
0.0
 10
50.8522883868
 20
13.4686910815
 30
0.0
 10
50.8872656779
 20
13.6117971357
 30
0.0
  0
SPLINE
  5
282
100
AcDbEntity
  8
0
100
AcDbSpline
 62
7
  6
CONTINUOUS
 70
0
 71
3
 72
9
 73
5
 74
0
 42
0.0000001
 43
0.0000001
 44
0.0000000001
 40
0.0
 40
0.0
 40
0.0
 40
0.0
 40
0.2466598348
 40
1.0
 40
1.0
 40
1.0
 40
1.0
 10
47.2322903129
 20
13.1658046787
 30
0.0
 10
47.2637380805
 20
13.1417176752
 30
0.0
 10
47.3939544906
 20
13.0476541461
 30
0.0
 10
47.5345375393
 20
12.9680805703
 30
0.0
 10
47.6440856077
 20
12.9167375441
 30
0.0
  0
SPLINE
  5
283
100
AcDbEntity
  8
0
100
AcDbSpline
 62
7
  6
CONTINUOUS
 70
0
 71
3
 72
9
 73
5
 74
0
 42
0.0000001
 43
0.0000001
 44
0.0000000001
 40
0.0
 40
0.0
 40
0.0
 40
0.0
 40
0.5078925813
 40
1.0
 40
1.0
 40
1.0
 40
1.0
 10
41.9851488835
 20
113.8610482341
 30
0.0
 10
41.8945006455
 20
113.7571780773
 30
0.0
 10
41.7377048532
 20
113.5323376027
 30
0.0
 10
41.6386743109
 20
113.2762292198
 30
0.0
 10
41.6067155538
 20
113.1465307243
 30
0.0
  0
SPLINE
  5
284
100
AcDbEntity
  8
0
100
AcDbSpline
 62
7
  6
CONTINUOUS
 70
0
 71
3
 72
13
 73
9
 74
0
 42
0.0000001
 43
0.0000001
 44
0.0000000001
 40
0.0
 40
0.0
 40
0.0
 40
0.0
 40
0.1129690018
 40
0.2299447211
 40
0.3519701926
 40
0.4787967641
 40
0.7401334635
 40
1.0
 40
1.0
 40
1.0
 40
1.0
 10
45.9321387494
 20
113.1438480425
 30
0.0
 10
45.8971333998
 20
113.287072421
 30
0.0
 10
45.784064461
 20
113.5698028121
 30
0.0
 10
45.5055635978
 20
113.9408688562
 30
0.0
 10
45.1330045791
 20
114.2464358996
 30
0.0
 10
44.5340203892
 20
114.5474711461
 30
0.0
 10
43.676063735
 20
114.6844750025
 30
0.0
 10
42.9929187828
 20
114.5260369862
 30
0.0
 10
42.686012196
 20
114.3816797336
 30
0.0
  0
SPLINE
  5
285
100
AcDbEntity
  8
0
100
AcDbSpline
 62
7
  6
CONTINUOUS
 70
0
 71
3
 72
9
 73
5
 74
0
 42
0.0000001
 43
0.0000001
 44
0.0000000001
 40
0.0
 40
0.0
 40
0.0
 40
0.0
 40
0.4921599645
 40
1.0
 40
1.0
 40
1.0
 40
1.0
 10
46.5651546606
 20
13.5959352204
 30
0.0
 10
46.5978064885
 20
13.4681701359
 30
0.0
 10
46.6972215477
 20
13.2161094942
 30
0.0
 10
46.8526359996
 20
12.9947055495
 30
0.0
 10
46.9422704459
 20
12.8923265449
 30
0.0
  0
SPLINE
  5
286
100
AcDbEntity
  8
0
100
AcDbSpline
 62
7
  6
CONTINUOUS
 70
0
 71
3
 72
13
 73
9
 74
0
 42
0.0000001
 43
0.0000001
 44
0.0000000001
 40
0.0
 40
0.0
 40
0.0
 40
0.0
 40
0.2599002607
 40
0.521228215
 40
0.6480437325
 40
0.770060143
 40
0.8870313432
 40
1.0
 40
1.0
 40
1.0
 40
1.0
 10
52.6175896078
 20
12.3725922367
 30
0.0
 10
52.9244823056
 20
12.2287576621
 30
0.0
 10
53.6072285648
 20
12.0712034403
 30
0.0
 10
54.4643618817
 20
12.2087641567
 30
0.0
 10
55.0626321781
 20
12.5098971423
 30
0.0
 10
55.4347113265
 20
12.8153648392
 30
0.0
 10
55.7128523083
 20
13.1861931012
 30
0.0
 10
55.8257923868
 20
13.4686910815
 30
0.0
 10
55.8607696779
 20
13.6117971357
 30
0.0
  0
SPLINE
  5
287
100
AcDbEntity
  8
0
100
AcDbSpline
 62
7
  6
CONTINUOUS
 70
0
 71
3
 72
9
 73
5
 74
0
 42
0.0000001
 43
0.0000001
 44
0.0000000001
 40
0.0
 40
0.0
 40
0.0
 40
0.0
 40
0.2466598348
 40
1.0
 40
1.0
 40
1.0
 40
1.0
 10
52.2057943129
 20
13.1658046787
 30
0.0
 10
52.2372420805
 20
13.1417176752
 30
0.0
 10
52.3674584907
 20
13.0476541461
 30
0.0
 10
52.5080415394
 20
12.9680805702
 30
0.0
 10
52.6175896078
 20
12.916737544
 30
0.0
  0
SPLINE
  5
288
100
AcDbEntity
  8
0
100
AcDbSpline
 62
7
  6
CONTINUOUS
 70
0
 71
3
 72
9
 73
5
 74
0
 42
0.0000001
 43
0.0000001
 44
0.0000000001
 40
0.0
 40
0.0
 40
0.0
 40
0.0
 40
0.4921599645
 40
1.0
 40
1.0
 40
1.0
 40
1.0
 10
51.5386586606
 20
13.5959352204
 30
0.0
 10
51.5713104885
 20
13.4681701359
 30
0.0
 10
51.6707255477
 20
13.2161094942
 30
0.0
 10
51.8261399996
 20
12.9947055495
 30
0.0
 10
51.9157744459
 20
12.8923265449
 30
0.0
  0
SPLINE
  5
289
100
AcDbEntity
  8
0
100
AcDbSpline
 62
7
  6
CONTINUOUS
 70
0
 71
3
 72
17
 73
13
 74
0
 42
0.0000001
 43
0.0000001
 44
0.0000000001
 40
0.0
 40
0.0
 40
0.0
 40
0.0
 40
0.0561851159
 40
0.1131244629
 40
0.1712309167
 40
0.2309494758
 40
0.3554425117
 40
0.4862488478
 40
0.6200856857
 40
0.7525976206
 40
0.8798898929
 40
1.0
 40
1.0
 40
1.0
 40
1.0
 10
40.9851230619
 20
13.6034617094
 30
0.0
 10
40.9851230619
 20
13.5007677963
 30
0.0
 10
40.9640885198
 20
13.293443153
 30
0.0
 10
40.8715377602
 20
12.9924924932
 30
0.0
 10
40.7200112891
 20
12.709079047
 30
0.0
 10
40.4427551823
 20
12.3610495831
 30
0.0
 10
39.9714211994
 20
12.0112936244
 30
0.0
 10
39.2904840019
 20
11.7746443169
 30
0.0
 10
38.556378002
 20
11.7339935681
 30
0.0
 10
37.8449623577
 20
11.894029604
 30
0.0
 10
37.2305379851
 20
12.2390269652
 30
0.0
 10
36.9207169806
 20
12.5831805674
 30
0.0
 10
36.8070381648
 20
12.7709904901
 30
0.0
  0
SPLINE
  5
28A
100
AcDbEntity
  8
0
100
AcDbSpline
 62
7
  6
CONTINUOUS
 70
0
 71
3
 72
9
 73
5
 74
0
 42
0.0000001
 43
0.0000001
 44
0.0000000001
 40
0.0
 40
0.0
 40
0.0
 40
0.0
 40
0.5056579319
 40
1.0
 40
1.0
 40
1.0
 40
1.0
 10
36.8070381648
 20
12.7709904901
 30
0.0
 10
36.7307677871
 20
12.8969975532
 30
0.0
 10
36.6110171348
 20
13.1667903495
 30
0.0
 10
36.5694067454
 20
13.4594658257
 30
0.0
 10
36.5694067454
 20
13.6034617094
 30
0.0
  0
SPLINE
  5
28B
100
AcDbEntity
  8
0
100
AcDbSpline
 62
7
  6
CONTINUOUS
 70
0
 71
3
 72
17
 73
13
 74
0
 42
0.0000001
 43
0.0000001
 44
0.0000000001
 40
0.0
 40
0.0
 40
0.0
 40
0.0
 40
0.0561851159
 40
0.1131244629
 40
0.1712309167
 40
0.2309494758
 40
0.3554425117
 40
0.4862488478
 40
0.6200856857
 40
0.7525976206
 40
0.8798898929
 40
1.0
 40
1.0
 40
1.0
 40
1.0
 10
45.9586270619
 20
13.6034617094
 30
0.0
 10
45.9586270619
 20
13.5007677963
 30
0.0
 10
45.9375925198
 20
13.293443153
 30
0.0
 10
45.8450417602
 20
12.9924924932
 30
0.0
 10
45.6935152891
 20
12.709079047
 30
0.0
 10
45.4162591823
 20
12.3610495831
 30
0.0
 10
44.9449251994
 20
12.0112936244
 30
0.0
 10
44.2639880019
 20
11.7746443169
 30
0.0
 10
43.529882002
 20
11.7339935681
 30
0.0
 10
42.8184663577
 20
11.894029604
 30
0.0
 10
42.2040419851
 20
12.2390269652
 30
0.0
 10
41.8942209806
 20
12.5831805674
 30
0.0
 10
41.7805421648
 20
12.7709904901
 30
0.0
  0
SPLINE
  5
28C
100
AcDbEntity
  8
0
100
AcDbSpline
 62
7
  6
CONTINUOUS
 70
0
 71
3
 72
9
 73
5
 74
0
 42
0.0000001
 43
0.0000001
 44
0.0000000001
 40
0.0
 40
0.0
 40
0.0
 40
0.0
 40
0.5056579319
 40
1.0
 40
1.0
 40
1.0
 40
1.0
 10
41.7805421648
 20
12.7709904901
 30
0.0
 10
41.7042717871
 20
12.8969975532
 30
0.0
 10
41.5845211348
 20
13.1667903495
 30
0.0
 10
41.5429107454
 20
13.4594658257
 30
0.0
 10
41.5429107454
 20
13.6034617094
 30
0.0
  0
SPLINE
  5
28D
100
AcDbEntity
  8
0
100
AcDbSpline
 62
7
  6
CONTINUOUS
 70
0
 71
3
 72
17
 73
13
 74
0
 42
0.0000001
 43
0.0000001
 44
0.0000000001
 40
0.0
 40
0.0
 40
0.0
 40
0.0
 40
0.0561851159
 40
0.1131244629
 40
0.1712309167
 40
0.2309494758
 40
0.3554425117
 40
0.4862488478
 40
0.6200856857
 40
0.7525976206
 40
0.8798898929
 40
1.0
 40
1.0
 40
1.0
 40
1.0
 10
50.9321310619
 20
13.6034617094
 30
0.0
 10
50.9321310619
 20
13.5007677963
 30
0.0
 10
50.9110965198
 20
13.293443153
 30
0.0
 10
50.8185457602
 20
12.9924924932
 30
0.0
 10
50.6670192891
 20
12.709079047
 30
0.0
 10
50.3897631823
 20
12.3610495831
 30
0.0
 10
49.9184291994
 20
12.0112936244
 30
0.0
 10
49.2374920019
 20
11.7746443169
 30
0.0
 10
48.503386002
 20
11.7339935681
 30
0.0
 10
47.7919703577
 20
11.894029604
 30
0.0
 10
47.1775459851
 20
12.2390269652
 30
0.0
 10
46.8677249806
 20
12.5831805674
 30
0.0
 10
46.7540461648
 20
12.7709904901
 30
0.0
  0
SPLINE
  5
28E
100
AcDbEntity
  8
0
100
AcDbSpline
 62
7
  6
CONTINUOUS
 70
0
 71
3
 72
9
 73
5
 74
0
 42
0.0000001
 43
0.0000001
 44
0.0000000001
 40
0.0
 40
0.0
 40
0.0
 40
0.0
 40
0.5056579319
 40
1.0
 40
1.0
 40
1.0
 40
1.0
 10
46.7540461648
 20
12.7709904901
 30
0.0
 10
46.6777757871
 20
12.8969975532
 30
0.0
 10
46.5580251348
 20
13.1667903495
 30
0.0
 10
46.5164147454
 20
13.4594658257
 30
0.0
 10
46.5164147454
 20
13.6034617094
 30
0.0
  0
SPLINE
  5
28F
100
AcDbEntity
  8
0
100
AcDbSpline
 62
7
  6
CONTINUOUS
 70
0
 71
3
 72
9
 73
5
 74
0
 42
0.0000001
 43
0.0000001
 44
0.0000000001
 40
0.0
 40
0.0
 40
0.0
 40
0.0
 40
0.2534932003
 40
1.0
 40
1.0
 40
1.0
 40
1.0
 10
47.6536379589
 20
113.8389169753
 30
0.0
 10
47.6167766615
 20
113.8216408098
 30
0.0
 10
47.4731599133
 20
113.7497408391
 30
0.0
 10
47.3370161235
 20
113.6627466983
 30
0.0
 10
47.2418426642
 20
113.5898498407
 30
0.0
  0
SPLINE
  5
290
100
AcDbEntity
  8
0
100
AcDbSpline
 62
7
  6
CONTINUOUS
 70
0
 71
3
 72
17
 73
13
 74
0
 42
0.0000001
 43
0.0000001
 44
0.0000000001
 40
0.0
 40
0.0
 40
0.0
 40
0.0
 40
0.0561851159
 40
0.1131244629
 40
0.1712309167
 40
0.2309494758
 40
0.3554425117
 40
0.4862488478
 40
0.6200856857
 40
0.7525976206
 40
0.8798898929
 40
1.0
 40
1.0
 40
1.0
 40
1.0
 10
55.9056350619
 20
13.6034617094
 30
0.0
 10
55.9056350619
 20
13.5007677963
 30
0.0
 10
55.8846005198
 20
13.293443153
 30
0.0
 10
55.7920497602
 20
12.9924924932
 30
0.0
 10
55.6405232891
 20
12.709079047
 30
0.0
 10
55.3632671823
 20
12.3610495831
 30
0.0
 10
54.8919331994
 20
12.0112936244
 30
0.0
 10
54.2109960019
 20
11.7746443169
 30
0.0
 10
53.476890002
 20
11.7339935681
 30
0.0
 10
52.7654743577
 20
11.894029604
 30
0.0
 10
52.1510499851
 20
12.2390269652
 30
0.0
 10
51.8412289806
 20
12.5831805674
 30
0.0
 10
51.7275501648
 20
12.7709904901
 30
0.0
  0
SPLINE
  5
291
100
AcDbEntity
  8
0
100
AcDbSpline
 62
7
  6
CONTINUOUS
 70
0
 71
3
 72
9
 73
5
 74
0
 42
0.0000001
 43
0.0000001
 44
0.0000000001
 40
0.0
 40
0.0
 40
0.0
 40
0.0
 40
0.5056579319
 40
1.0
 40
1.0
 40
1.0
 40
1.0
 10
51.7275501648
 20
12.7709904901
 30
0.0
 10
51.6512797871
 20
12.8969975531
 30
0.0
 10
51.5315291348
 20
13.1667903495
 30
0.0
 10
51.4899187454
 20
13.4594658257
 30
0.0
 10
51.4899187454
 20
13.6034617094
 30
0.0
  0
SPLINE
  5
292
100
AcDbEntity
  8
0
100
AcDbSpline
 62
7
  6
CONTINUOUS
 70
0
 71
3
 72
14
 73
10
 74
0
 42
0.0000001
 43
0.0000001
 44
0.0000000001
 40
0.0
 40
0.0
 40
0.0
 40
0.0
 40
0.1127349633
 40
0.2294785539
 40
0.3512525204
 40
0.4778571919
 40
0.7389244513
 40
0.8706985158
 40
1.0
 40
1.0
 40
1.0
 40
1.0
 10
50.8910402396
 20
113.1283116979
 30
0.0
 10
50.8574599811
 20
113.2719773478
 30
0.0
 10
50.7469866745
 20
113.5559960087
 30
0.0
 10
50.4715031196
 20
113.9297520329
 30
0.0
 10
50.1007134429
 20
114.2382407587
 30
0.0
 10
49.5033806996
 20
114.5435909541
 30
0.0
 10
48.8109202353
 20
114.6565686437
 30
0.0
 10
48.1302953074
 20
114.5684827832
 30
0.0
 10
47.8040105364
 20
114.4572766496
 30
0.0
 10
47.6505462061
 20
114.3859764978
 30
0.0
  0
ENDSEC
  0
SECTION
  2
OBJECTS
  0
DICTIONARY
  5
C
100
AcDbDictionary
280
0
281
1
  3
ACAD_GROUP
350
D
  3
ACAD_MLINESTYLE
350
17
  3
ACAD_LAYOUT
350
1A
  3
ACAD_PLOTSETTINGS
350
19
  3
ACAD_PLOTSTYLENAME
350
E
  0
DICTIONARY
  5
D
102
{ACAD_REACTORS
330
C
102
}
100
AcDbDictionary
280
0
281
1
  0
ACDBDICTIONARYWDFLT
  5
E
102
{ACAD_REACTORS
330
C
102
}
100
AcDbDictionary
281
1
  3
Normal
350
F
100
AcDbDictionaryWithDefault
340
F
  0
DICTIONARY
  5
17
102
{ACAD_REACTORS
330
C
102
}
100
AcDbDictionary
280
0
281
1
  3
Standard
350
18
  0
DICTIONARY
  5
19
102
{ACAD_REACTORS
330
C
102
}
100
AcDbDictionary
281
1
  0
DICTIONARY
  5
1A
102
{ACAD_REACTORS
330
C
102
}
100
AcDbDictionary
281
1
  3
Model
350
293
  3
Layout1
350
294
  0
ACDBPLACEHOLDER
  5
F
102
{ACAD_REACTORS
330
E
102
}
  0
MLINESTYLE
  5
18
102
{ACAD_REACTORS
330
17
102
}
100
AcDbMlineStyle
  2
STANDARD
 70
0
  3

 62
256
 51
90.0
 52
90.0
 71
2
 49
0.5
 62
256
  6
BYLAYER
 49
-0.5
 62
256
  6
BYLAYER
  0
LAYOUT
  5
293
102
{ACAD_REACTORS
330
1A
102
}
100
AcDbPlotSettings
  1

  2
none_device
  4

  6

 40
0.0
 41
0.0
 42
0.0
 43
0.0
 44
210.0
 45
297.0
 46
0.0
 47
0.0
 48
0.0
 49
0.0
140
0.0
141
0.0
142
1.0
143
1.0
 70
1024
 72
1
 73
0
 74
0
  7

 75
0
147
1.0
148
0.0
149
0.0
100
AcDbLayout
  1
Model
 70
0
 71
0
 10
0.0
 20
0.0
 11
210.0
 21
297.0
 12
0.0
 22
0.0
 32
0.0
 14
0.0
 24
0.0
 34
0.0
 15
0.0
 25
0.0
 35
0.0
146
0.0
 13
0.0
 23
0.0
 33
0.0
 16
1.0
 26
0.0
 36
0.0
 17
0.0
 27
1.0
 37
0.0
 76
0
330
210
345
0
346
0
  0
LAYOUT
  5
294
102
{ACAD_REACTORS
330
1A
102
}
100
AcDbPlotSettings
  1

  2
none_device
  4

  6

 40
0.0
 41
0.0
 42
0.0
 43
0.0
 44
210.0
 45
297.0
 46
0.0
 47
0.0
 48
0.0
 49
0.0
140
0.0
141
0.0
142
1.0
143
1.0
 70
0
 72
1
 73
0
 74
0
  7

 75
0
147
1.0
148
0.0
149
0.0
100
AcDbLayout
  1
Layout1
 70
0
 71
1
 10
0.0
 20
0.0
 11
210.0
 21
297.0
 12
0.0
 22
0.0
 32
0.0
 14
0.0
 24
0.0
 34
0.0
 15
0.0
 25
0.0
 35
0.0
146
0.0
 13
0.0
 23
0.0
 33
0.0
 16
1.0
 26
0.0
 36
0.0
 17
0.0
 27
1.0
 37
0.0
 76
0
330
211
345
0
346
0
  0
ENDSEC
  0
EOF
