999
DXF file: C:\Users\sesa63760\Dev\_Creo\CAD\MCADID0000488_3D-CAD\drw0001_6.dxf
999
Pro/ENGINEER 2019471 by Parametric Technology Corporation
  0
SECTION
  2
HEADER
  9
$ACADVER
  1
AC1024
  9
$DWGCODEPAGE
  3
ANSI_1252
  9
$EXTMAX
 10
195.2411949406
 20
276.1268328446
 30
0.0
  9
$EXTMIN
 10
0.0
 20
0.0
 30
0.0
  9
$LIMMIN
 10
0.0
 20
0.0
  9
$LIMMAX
 10
195.2411949406
 20
276.1268328446
  9
$VIEWCTR
 10
97.6205974703
 20
138.0634164223
  9
$VIEWSIZE
 40
276.1268328446
  9
$CLAYER
  8
0
  9
$LTSCALE
 40
17.9993787336
  9
$CELTYPE
  6
BYLAYER
  9
$DIMSCALE
 40
1.0
  9
$DIMASZ
 40
2.3242999398
  9
$DIMEXO
 40
1.0
  9
$DIMDLI
 40
12.4359343977
  9
$DIMEXE
 40
1.0
  9
$DIMCEN
 40
2.9453528837
  9
$DIMLFAC
 40
1.0
  9
$DIMBLK
  1
_FILLED
  9
$DIMALT
 70
0
  9
$DIMALTF
 40
0.0393700787
  9
$DIMTXT
 40
3.2540199157
  9
$DIMTOL
 70
1
  9
$DIMLIM
 70
0
  9
$DIMTFAC
 40
1.0
  9
$DIMTP
 40
0.01
  9
$DIMTM
 40
0.01
  9
$DIMGAP
 40
0.625
  9
$DIMDSEP
 70
46
  9
$AUNITS
 70
0
  9
$PDMODE
 70
3
  9
$PDSIZE
 40
0.3125
  9
$HANDSEED
  5
2AA
  9
$TILEMODE
 70
1
  9
$MEASUREMENT
 70
1
  9
$INSUNITS
 70
4
  0
ENDSEC
  0
SECTION
  2
CLASSES
  0
CLASS
  1
ACDBDICTIONARYWDFLT
  2
AcDbDictionaryWithDefault
  3
AutoCAD 2000
 90
0
 91
1
280
0
281
0
  0
CLASS
  1
ACDBPLACEHOLDER
  2
AcDbPlaceHolder
  3
AutoCAD 2000
 90
0
 91
1
280
0
281
0
  0
CLASS
  1
LAYOUT
  2
AcDbLayout
  3
AutoCAD 2000
 90
0
 91
0
280
0
281
0
  0
ENDSEC
  0
SECTION
  2
TABLES
  0
TABLE
  2
VPORT
  5
8
100
AcDbSymbolTable
 70
2
  0
VPORT
  5
1F4
100
AcDbSymbolTableRecord
100
AcDbViewportTableRecord
  2
*ACTIVE
 70
0
 10
0.0
 20
0.0
 11
1.0
 21
1.0
 12
97.6205974703
 22
138.0634164223
 13
0.0
 23
0.0
 14
1.0
 24
1.0
 15
0.0
 25
0.0
 16
0.0
 26
0.0
 36
1.0
 17
0.0
 27
0.0
 37
0.0
 40
276.1268328446
 41
0.7070707071
 42
50.0
 43
0.0
 44
0.0
 50
0.0
 51
0.0
 71
0
 72
100
 73
1
 74
1
 75
0
 76
0
 77
0
 78
0
  0
ENDTAB
  0
TABLE
  2
LTYPE
  5
5
100
AcDbSymbolTable
 70
6
  0
LTYPE
  5
14
100
AcDbSymbolTableRecord
100
AcDbLinetypeTableRecord
  2
BYBLOCK
 70
0
  3

 72
65
 73
0
 40
0.0
  0
LTYPE
  5
15
100
AcDbSymbolTableRecord
100
AcDbLinetypeTableRecord
  2
BYLAYER
 70
0
  3

 72
65
 73
0
 40
0.0
  0
LTYPE
  5
16
100
AcDbSymbolTableRecord
100
AcDbLinetypeTableRecord
  2
CONTINUOUS
 70
64
  3
Solid line
 72
65
 73
0
 40
0.0
  0
LTYPE
  5
1F5
100
AcDbSymbolTableRecord
100
AcDbLinetypeTableRecord
  2
CENTER
 70
64
  3
____ _ ____ _ ____ _ ____ _ ____ _ ____ _ ____
 72
65
 73
4
 40
0.6
 49
0.375
 74
0
 49
-0.075
 74
0
 49
0.075
 74
0
 49
-0.075
 74
0
  0
LTYPE
  5
1F6
100
AcDbSymbolTableRecord
100
AcDbLinetypeTableRecord
  2
HIDDEN
 70
64
  3
- - - - - - - - - - - - - - - - - - - -
 72
65
 73
2
 40
0.2
 49
0.1
 74
0
 49
-0.1
 74
0
  0
LTYPE
  5
1F7
100
AcDbSymbolTableRecord
100
AcDbLinetypeTableRecord
  2
PHANTOM
 70
64
  3
_____ _ _ _____ _ _ _____ _ _ _____
 72
65
 73
6
 40
0.8
 49
0.45
 74
0
 49
-0.05
 74
0
 49
0.1
 74
0
 49
-0.05
 74
0
 49
0.1
 74
0
 49
-0.05
 74
0
  0
LTYPE
  5
1F8
100
AcDbSymbolTableRecord
100
AcDbLinetypeTableRecord
  2
DOT
 70
64
  3
. . . . . . . . . . . . . . . . . . . .
 72
65
 73
2
 40
0.2
 49
0.1
 74
0
 49
-0.1
 74
0
  0
LTYPE
  5
1F9
100
AcDbSymbolTableRecord
100
AcDbLinetypeTableRecord
  2
DASHED
 70
64
  3
- - - - - - - - - - - - - - - - - - - -
 72
65
 73
2
 40
0.2
 49
0.1
 74
0
 49
-0.1
 74
0
  0
ENDTAB
  0
TABLE
  2
LAYER
  5
2
100
AcDbSymbolTable
 70
36
  0
LAYER
  5
10
100
AcDbSymbolTableRecord
100
AcDbLayerTableRecord
  2
0
 70
0
 62
7
  6
CONTINUOUS
370
-3
390
F
  0
LAYER
  5
1FA
100
AcDbSymbolTableRecord
100
AcDbLayerTableRecord
  2
DEFAULT_1
 70
0
 62
7
  6
CENTER
370
-3
390
F
  0
LAYER
  5
1FB
100
AcDbSymbolTableRecord
100
AcDbLayerTableRecord
  2
DEFAULT_2
 70
0
 62
8
  6
HIDDEN
370
-3
390
F
  0
LAYER
  5
1FC
100
AcDbSymbolTableRecord
100
AcDbLayerTableRecord
  2
DEFAULT_3
 70
0
 62
7
  6
PHANTOM
370
-3
390
F
  0
LAYER
  5
1FD
100
AcDbSymbolTableRecord
100
AcDbLayerTableRecord
  2
00_COMPONENTS
 70
0
 62
7
  6
CONTINUOUS
370
-3
390
F
  0
LAYER
  5
1FE
100
AcDbSymbolTableRecord
100
AcDbLayerTableRecord
  2
01_1_DEFAULT_DATUMS
 70
0
 62
7
  6
CONTINUOUS
370
-3
390
F
  0
LAYER
  5
1FF
100
AcDbSymbolTableRecord
100
AcDbLayerTableRecord
  2
01_PLANES
 70
0
 62
7
  6
CONTINUOUS
370
-3
390
F
  0
LAYER
  5
200
100
AcDbSymbolTableRecord
100
AcDbLayerTableRecord
  2
02_COORD_SYS
 70
0
 62
7
  6
CONTINUOUS
370
-3
390
F
  0
LAYER
  5
201
100
AcDbSymbolTableRecord
100
AcDbLayerTableRecord
  2
03_AXES
 70
0
 62
7
  6
CONTINUOUS
370
-3
390
F
  0
LAYER
  5
202
100
AcDbSymbolTableRecord
100
AcDbLayerTableRecord
  2
04_POINTS
 70
0
 62
7
  6
CONTINUOUS
370
-3
390
F
  0
LAYER
  5
203
100
AcDbSymbolTableRecord
100
AcDbLayerTableRecord
  2
05_CURVES
 70
0
 62
7
  6
CONTINUOUS
370
-3
390
F
  0
LAYER
  5
204
100
AcDbSymbolTableRecord
100
AcDbLayerTableRecord
  2
06_SURFS
 70
0
 62
7
  6
CONTINUOUS
370
-3
390
F
  0
LAYER
  5
205
100
AcDbSymbolTableRecord
100
AcDbLayerTableRecord
  2
07_COSMETICS
 70
0
 62
7
  6
CONTINUOUS
370
-3
390
F
  0
LAYER
  5
206
100
AcDbSymbolTableRecord
100
AcDbLayerTableRecord
  2
10_NOTES
 70
0
 62
7
  6
CONTINUOUS
370
-3
390
F
  0
LAYER
  5
207
100
AcDbSymbolTableRecord
100
AcDbLayerTableRecord
  2
11_NOTES_PUB
 70
0
 62
7
  6
CONTINUOUS
370
-3
390
F
  0
LAYER
  5
208
100
AcDbSymbolTableRecord
100
AcDbLayerTableRecord
  2
13_REF_GTOL
 70
0
 62
7
  6
CONTINUOUS
370
-3
390
F
  0
LAYER
  5
209
100
AcDbSymbolTableRecord
100
AcDbLayerTableRecord
  2
16_MISC
 70
0
 62
7
  6
CONTINUOUS
370
-3
390
F
  0
LAYER
  5
20A
100
AcDbSymbolTableRecord
100
AcDbLayerTableRecord
  2
17_NO_PRINT
 70
0
 62
7
  6
CONTINUOUS
370
-3
390
F
  0
LAYER
  5
20B
100
AcDbSymbolTableRecord
100
AcDbLayerTableRecord
  2
18_DATUM_CAMS_JOINTS
 70
0
 62
7
  6
CONTINUOUS
370
-3
390
F
  0
LAYER
  5
20C
100
AcDbSymbolTableRecord
100
AcDbLayerTableRecord
  2
19_DATUM_FUNCTIONAL
 70
0
 62
7
  6
CONTINUOUS
370
-3
390
F
  0
LAYER
  5
20D
100
AcDbSymbolTableRecord
100
AcDbLayerTableRecord
  2
20_DATUM_KINEMATIC_SCHEME
 70
0
 62
7
  6
CONTINUOUS
370
-3
390
F
  0
ENDTAB
  0
TABLE
  2
STYLE
  5
3
100
AcDbSymbolTable
 70
1
  0
STYLE
  5
11
100
AcDbSymbolTableRecord
100
AcDbTextStyleTableRecord
  2
STANDARD
 70
0
 40
0.0
 41
0.8
 50
0.0
 71
0
 42
0.2
  3
txt
  4

  0
STYLE
  5
20E
100
AcDbSymbolTableRecord
100
AcDbTextStyleTableRecord
  2
TEXTSTYLE_1
 70
0
 40
0.0
 41
0.8
 50
0.0
 71
0
 42
0.2
  3
gdt
  4

  0
ENDTAB
  0
TABLE
  2
VIEW
  5
6
100
AcDbSymbolTable
 70
0
  0
ENDTAB
  0
TABLE
  2
UCS
  5
7
100
AcDbSymbolTable
 70
0
  0
ENDTAB
  0
TABLE
  2
APPID
  5
9
100
AcDbSymbolTable
 70
1
  0
APPID
  5
20F
100
AcDbSymbolTableRecord
100
AcDbRegAppTableRecord
  2
ACAD
 70
0
  0
ENDTAB
  0
TABLE
  2
BLOCK_RECORD
  5
1
100
AcDbSymbolTable
 70
0
  0
BLOCK_RECORD
  5
210
100
AcDbSymbolTableRecord
100
AcDbBlockTableRecord
  2
*Model_Space
  0
BLOCK_RECORD
  5
211
100
AcDbSymbolTableRecord
100
AcDbBlockTableRecord
  2
*Paper_Space
  0
BLOCK_RECORD
  5
212
100
AcDbSymbolTableRecord
100
AcDbBlockTableRecord
  2
_FILLED
  0
ENDTAB
  0
TABLE
  2
DIMSTYLE
  5
A
100
AcDbSymbolTable
 70
1
100
AcDbDimStyleTable
 71
0
  0
DIMSTYLE
105
213
100
AcDbSymbolTableRecord
100
AcDbDimStyleTableRecord
  2
STANDARD
 70
0
  3

  4

 40
1.0
 41
2.3242999398
 42
1.0
 43
0.38
 44
1.0
 45
0.0
 46
0.0
 47
0.01
 48
0.01
140
3.2540199157
141
0.09
142
0.0
143
25.4
144
1.0
145
0.0
146
1.0
147
0.625
 71
1
 72
0
 73
0
 74
0
 75
0
 76
0
 77
1
 78
8
 79
2
170
0
171
1
172
0
173
0
174
0
175
0
176
0
177
0
178
0
270
2
179
2
271
2
272
2
273
2
274
2
275
0
280
0
281
0
282
0
283
1
284
8
285
0
286
0
287
3
288
0
340
11
278
46
341
212
342
212
343
212
344
212
  0
ENDTAB
  0
ENDSEC
  0
SECTION
  2
BLOCKS
  0
BLOCK
  5
20
100
AcDbEntity
  8
0
100
AcDbBlockBegin
  2
*Model_Space
 70
0
 10
0.0
 20
0.0
 30
0.0
  3
*Model_Space
  1

  0
ENDBLK
  5
21
100
AcDbEntity
  8
0
100
AcDbBlockEnd
  0
BLOCK
  5
1C
100
AcDbEntity
  8
0
100
AcDbBlockBegin
  2
*Paper_Space
 70
0
 10
0.0
 20
0.0
 30
0.0
  3
*Paper_Space
  1

  0
ENDBLK
  5
1D
100
AcDbEntity
  8
0
100
AcDbBlockEnd
  0
BLOCK
  5
214
100
AcDbEntity
  8
0
100
AcDbBlockBegin
  2
_FILLED
 70
64
 10
0.0
 20
0.0
  3
_FILLED
  1

  0
SOLID
  5
215
100
AcDbEntity
  8
0
  6
BYBLOCK
 62
0
100
AcDbTrace
 10
0.0
 20
0.0
 11
-1.0
 21
0.25
 12
-1.0
 22
-0.25
 13
-1.0
 23
-0.25
  0
ENDBLK
  5
216
100
AcDbEntity
  8
0
  6
BYBLOCK
 62
0
100
AcDbBlockEnd
  0
ENDSEC
  0
SECTION
  2
ENTITIES
  0
LINE
  5
217
100
AcDbEntity
  8
0
100
AcDbLine
 62
7
  6
CONTINUOUS
 10
66.0004801682
 20
26.0880677963
 11
66.1004801683
 21
26.0880677963
  0
LINE
  5
218
100
AcDbEntity
  8
0
100
AcDbLine
 62
7
  6
CONTINUOUS
 10
66.1004801683
 20
23.3995904679
 11
72.8004801683
 21
22.8134164223
  0
LINE
  5
219
100
AcDbEntity
  8
0
100
AcDbLine
 62
7
  6
CONTINUOUS
 10
106.5887127015
 20
31.2653588397
 11
106.6240209671
 21
31.2751857411
  0
LINE
  5
21A
100
AcDbEntity
  8
0
100
AcDbLine
 62
7
  6
CONTINUOUS
 10
65.3162234824
 20
25.0134164223
 11
66.0004801683
 21
25.1610402274
  0
LINE
  5
21B
100
AcDbEntity
  8
0
100
AcDbLine
 62
7
  6
CONTINUOUS
 10
98.1004801681
 20
34.4311258558
 11
96.6004810455
 21
34.3700145651
  0
LINE
  5
21C
100
AcDbEntity
  8
0
100
AcDbLine
 62
7
  6
CONTINUOUS
 10
96.1004801683
 20
29.5634164223
 11
96.7790416687
 21
29.587112312
  0
LINE
  5
21D
100
AcDbEntity
  8
0
100
AcDbLine
 62
7
  6
CONTINUOUS
 10
96.1004801683
 20
30.8634164223
 11
106.1355243757
 21
31.2138478879
  0
LINE
  5
21E
100
AcDbEntity
  8
0
100
AcDbLine
 62
7
  6
CONTINUOUS
 10
99.0830268482
 20
31.9675321233
 11
106.1179323331
 21
32.2132336528
  0
LINE
  5
21F
100
AcDbEntity
  8
0
100
AcDbLine
 62
7
  6
CONTINUOUS
 10
96.1004801683
 20
30.5634164223
 11
72.8004801683
 21
29.9634164223
  0
LINE
  5
220
100
AcDbEntity
  8
0
100
AcDbLine
 62
7
  6
CONTINUOUS
 10
72.8004801683
 20
33.462256543
 11
96.1004801683
 21
34.062256543
  0
LINE
  5
221
100
AcDbEntity
  8
0
100
AcDbLine
 62
7
  6
CONTINUOUS
 10
96.6004810455
 20
34.3700145651
 11
96.1004801683
 21
34.3612843169
  0
LWPOLYLINE
  5
222
100
AcDbEntity
  8
0
100
AcDbPolyline
 62
7
  6
CONTINUOUS
 90
14
 70
0
 10
106.1494116801
 20
31.213803351
 10
106.1619870501
 20
31.2138971493
 10
106.2082298441
 20
31.2148030514
 10
106.2472636967
 20
31.2163043162
 10
106.2807761984
 20
31.2181610515
 10
106.3140604916
 20
31.2205494232
 10
106.3477859304
 20
31.2235497536
 10
106.3815094785
 20
31.2271648623
 10
106.4154594352
 20
31.231461026
 10
106.4497288546
 20
31.2365068273
 10
106.4843029509
 20
31.2423672816
 10
106.519026987
 20
31.2490875741
 10
106.5538036636
 20
31.2567189758
 10
106.5887127015
 20
31.2653588397
  0
LINE
  5
223
100
AcDbEntity
  8
0
100
AcDbLine
 62
7
  6
CONTINUOUS
 10
106.1378571473
 20
31.213764732
 11
106.1425633286
 21
31.2137758011
  0
LINE
  5
224
100
AcDbEntity
  8
0
100
AcDbLine
 62
7
  6
CONTINUOUS
 10
102.2004801683
 20
30.1134164223
 11
97.1004801683
 21
30.1134164223
  0
LINE
  5
225
100
AcDbEntity
  8
0
100
AcDbLine
 62
7
  6
CONTINUOUS
 10
72.8004801683
 20
30.3134164258
 11
66.1004801683
 21
30.3134164258
  0
LINE
  5
226
100
AcDbEntity
  8
0
100
AcDbLine
 62
7
  6
CONTINUOUS
 10
66.1004801683
 20
31.0134164223
 11
65.1004801683
 21
31.0134164223
  0
LINE
  5
227
100
AcDbEntity
  8
0
100
AcDbLine
 62
7
  6
CONTINUOUS
 10
100.5004801683
 20
32.2134164223
 11
98.1004801683
 21
32.2134164223
  0
LINE
  5
228
100
AcDbEntity
  8
0
100
AcDbLine
 62
7
  6
CONTINUOUS
 10
99.0830268482
 20
31.9675321197
 11
98.1004801684
 21
31.9675693874
  0
LINE
  5
229
100
AcDbEntity
  8
0
100
AcDbLine
 62
7
  6
CONTINUOUS
 10
106.1179323331
 20
32.2132329313
 11
107.1004801683
 21
32.2131813268
  0
LINE
  5
22A
100
AcDbEntity
  8
0
100
AcDbLine
 62
7
  6
CONTINUOUS
 10
106.1179325747
 20
39.4882717045
 11
99.0830270372
 21
39.3654769715
  0
LINE
  5
22B
100
AcDbEntity
  8
0
100
AcDbLine
 62
7
  6
CONTINUOUS
 10
99.0655828509
 20
40.3646589052
 11
106.135379665
 21
40.4881193996
  0
LINE
  5
22C
100
AcDbEntity
  8
0
100
AcDbLine
 62
7
  6
CONTINUOUS
 10
100.5004801683
 20
35.3134164213
 11
107.1004801683
 21
35.3134164201
  0
LINE
  5
22D
100
AcDbEntity
  8
0
100
AcDbLine
 62
7
  6
CONTINUOUS
 10
100.5004801683
 20
37.8134164223
 11
98.1004801683
 21
37.8134164223
  0
LINE
  5
22E
100
AcDbEntity
  8
0
100
AcDbLine
 62
7
  6
CONTINUOUS
 10
107.1004801683
 20
40.4881193996
 11
106.135379665
 21
40.4881193996
  0
LINE
  5
22F
100
AcDbEntity
  8
0
100
AcDbLine
 62
7
  6
CONTINUOUS
 10
108.0481442012
 20
41.4351969485
 11
107.1004801683
 21
41.4351969485
  0
LINE
  5
230
100
AcDbEntity
  8
0
100
AcDbLine
 62
7
  6
CONTINUOUS
 10
65.3162234824
 20
251.1134164223
 11
65.1162234824
 21
250.1863888534
  0
LINE
  5
231
100
AcDbEntity
  8
0
100
AcDbLine
 62
7
  6
CONTINUOUS
 10
133.1004801683
 20
77.5134164223
 11
133.6004801683
 21
77.5134164223
  0
LINE
  5
232
100
AcDbEntity
  8
0
100
AcDbLine
 62
7
  6
CONTINUOUS
 10
133.1004801683
 20
78.6134164223
 11
133.6004801683
 21
78.6134164223
  0
LINE
  5
233
100
AcDbEntity
  8
0
100
AcDbLine
 62
7
  6
CONTINUOUS
 10
82.5791484637
 20
80.1641759825
 11
94.6218118728
 21
76.912656862
  0
LINE
  5
234
100
AcDbEntity
  8
0
100
AcDbLine
 62
7
  6
CONTINUOUS
 10
65.1162234824
 20
25.9404439912
 11
65.3162234824
 21
25.0134164223
  0
LINE
  5
235
100
AcDbEntity
  8
0
100
AcDbLine
 62
7
  6
CONTINUOUS
 10
65.0204801683
 20
223.2634164223
 11
65.0204801683
 21
239.7634164223
  0
LINE
  5
236
100
AcDbEntity
  8
0
100
AcDbLine
 62
7
  6
CONTINUOUS
 10
65.1004801683
 20
26.0880677963
 11
65.1004801683
 21
250.0387650483
  0
LINE
  5
237
100
AcDbEntity
  8
0
100
AcDbLine
 62
7
  6
CONTINUOUS
 10
65.1162234814
 20
25.9404439956
 11
65.1162234824
 21
250.1863888534
  0
LINE
  5
238
100
AcDbEntity
  8
0
100
AcDbLine
 62
7
  6
CONTINUOUS
 10
65.3162234824
 20
25.0134164223
 11
65.3162234824
 21
251.1134164223
  0
LINE
  5
239
100
AcDbEntity
  8
0
100
AcDbLine
 62
7
  6
CONTINUOUS
 10
66.0004801682
 20
25.1610402274
 11
66.0004801682
 21
250.9657926172
  0
LINE
  5
23A
100
AcDbEntity
  8
0
100
AcDbLine
 62
7
  6
CONTINUOUS
 10
66.1004801683
 20
23.3995904679
 11
66.1004801683
 21
252.7272423767
  0
LINE
  5
23B
100
AcDbEntity
  8
0
100
AcDbLine
 62
7
  6
CONTINUOUS
 10
72.8004801683
 20
253.3134164223
 11
72.8004801683
 21
22.8134164223
  0
LINE
  5
23C
100
AcDbEntity
  8
0
100
AcDbLine
 62
7
  6
CONTINUOUS
 10
81.1004801683
 20
194.0317986969
 11
81.1004801683
 21
82.0950341476
  0
LINE
  5
23D
100
AcDbEntity
  8
0
100
AcDbLine
 62
7
  6
CONTINUOUS
 10
91.1004801683
 20
248.7634164223
 11
91.1004801683
 21
249.3634164223
  0
LINE
  5
23E
100
AcDbEntity
  8
0
100
AcDbLine
 62
7
  6
CONTINUOUS
 10
96.1004801683
 20
29.5634164223
 11
96.1004801683
 21
74.9817986969
  0
LINE
  5
23F
100
AcDbEntity
  8
0
100
AcDbLine
 62
7
  6
CONTINUOUS
 10
97.1004801683
 20
30.1139047382
 11
97.1004801683
 21
30.8983371918
  0
LINE
  5
240
100
AcDbEntity
  8
0
100
AcDbLine
 62
7
  6
CONTINUOUS
 10
97.1004801683
 20
245.2284956528
 11
97.1004801683
 21
246.0129281064
  0
LINE
  5
241
100
AcDbEntity
  8
0
100
AcDbLine
 62
7
  6
CONTINUOUS
 10
98.1004801683
 20
245.1935748833
 11
98.1004801683
 21
237.473216963
  0
LINE
  5
242
100
AcDbEntity
  8
0
100
AcDbLine
 62
7
  6
CONTINUOUS
 10
98.1004801683
 20
38.6536158678
 11
98.1004801683
 21
30.9332579021
  0
LINE
  5
243
100
AcDbEntity
  8
0
100
AcDbLine
 62
7
  6
CONTINUOUS
 10
99.0830268482
 20
31.9675321233
 11
99.0830268482
 21
32.2134164223
  0
LINE
  5
244
100
AcDbEntity
  8
0
100
AcDbLine
 62
7
  6
CONTINUOUS
 10
99.0830270372
 20
37.8134164223
 11
99.0830270372
 21
39.3654769716
  0
LINE
  5
245
100
AcDbEntity
  8
0
100
AcDbLine
 62
7
  6
CONTINUOUS
 10
99.0830273279
 20
236.7613558679
 11
99.0830273279
 21
238.3134164223
  0
LINE
  5
246
100
AcDbEntity
  8
0
100
AcDbLine
 62
7
  6
CONTINUOUS
 10
99.0830288299
 20
243.9134164223
 11
99.0830288299
 21
244.1592816149
  0
LINE
  5
247
100
AcDbEntity
  8
0
100
AcDbLine
 62
7
  6
CONTINUOUS
 10
96.0947418178
 20
200.9134164223
 11
96.1004801683
 21
245.5634164223
  0
LINE
  5
248
100
AcDbEntity
  8
0
100
AcDbLine
 62
7
  6
CONTINUOUS
 10
107.1332964025
 20
31.9557205301
 11
107.1004801683
 21
32.2134314345
  0
LINE
  5
249
100
AcDbEntity
  8
0
100
AcDbLine
 62
7
  6
CONTINUOUS
 10
100.5004801683
 20
243.9123576374
 11
100.5004801683
 21
238.3144752072
  0
LINE
  5
24A
100
AcDbEntity
  8
0
100
AcDbLine
 62
7
  6
CONTINUOUS
 10
100.5004801683
 20
37.8123576374
 11
100.5004801683
 21
32.2144752072
  0
LINE
  5
24B
100
AcDbEntity
  8
0
100
AcDbLine
 62
7
  6
CONTINUOUS
 10
102.2004801683
 20
246.0126674872
 11
102.2004801683
 21
245.0503997284
  0
LINE
  5
24C
100
AcDbEntity
  8
0
100
AcDbLine
 62
7
  6
CONTINUOUS
 10
102.2004801683
 20
31.0764331162
 11
102.2004801683
 21
30.1141653573
  0
LINE
  5
24D
100
AcDbEntity
  8
0
100
AcDbLine
 62
7
  6
CONTINUOUS
 10
106.1179320915
 20
39.488271696
 11
106.1179323331
 21
32.2132336528
  0
LINE
  5
24E
100
AcDbEntity
  8
0
100
AcDbLine
 62
7
  6
CONTINUOUS
 10
106.1179325747
 20
243.9135991832
 11
106.1179323341
 21
236.6385611444
  0
LINE
  5
24F
100
AcDbEntity
  8
0
100
AcDbLine
 62
7
  6
CONTINUOUS
 10
106.135379665
 20
235.638713445
 11
106.135379665
 21
40.4881193996
  0
LINE
  5
250
100
AcDbEntity
  8
0
100
AcDbLine
 62
7
  6
CONTINUOUS
 10
107.1004801683
 20
32.2131813264
 11
107.1004801683
 21
243.9139371241
  0
LINE
  5
251
100
AcDbEntity
  8
0
100
AcDbLine
 62
7
  6
CONTINUOUS
 10
108.0481442012
 20
41.4352110243
 11
108.0481442012
 21
230.9916251765
  0
LINE
  5
252
100
AcDbEntity
  8
0
100
AcDbLine
 62
7
  6
CONTINUOUS
 10
91.1004801683
 20
248.7634164223
 11
91.5285730134
 21
245.681147937
  0
LWPOLYLINE
  5
253
100
AcDbEntity
  8
0
100
AcDbPolyline
 62
7
  6
CONTINUOUS
 90
7
 70
0
 10
107.1004801683
 20
243.9159307152
 10
107.0990690634
 20
243.9481723888
 10
107.0895952068
 20
244.0588498193
 10
107.0784440171
 20
244.1345813901
 10
107.0639824364
 20
244.2055203978
 10
107.0443580851
 20
244.2786615053
 10
107.0154015048
 20
244.3611968095
  0
LINE
  5
254
100
AcDbEntity
  8
0
100
AcDbLine
 62
7
  6
CONTINUOUS
 10
107.1004801683
 20
243.9135991831
 11
107.0289481405
 21
244.2850116553
  0
LINE
  5
255
100
AcDbEntity
  8
0
100
AcDbLine
 62
7
  6
CONTINUOUS
 10
133.1004801683
 20
222.8634164223
 11
133.1004801683
 21
49.5634164223
  0
LINE
  5
256
100
AcDbEntity
  8
0
100
AcDbLine
 62
7
  6
CONTINUOUS
 10
133.2004801683
 20
218.2634164223
 11
133.2004801683
 21
204.2634164223
  0
LINE
  5
257
100
AcDbEntity
  8
0
100
AcDbLine
 62
7
  6
CONTINUOUS
 10
133.6004801683
 20
206.6134164223
 11
133.6004801683
 21
205.5134164223
  0
LINE
  5
258
100
AcDbEntity
  8
0
100
AcDbLine
 62
7
  6
CONTINUOUS
 10
133.6004801683
 20
78.6134164223
 11
133.6004801683
 21
77.5134164223
  0
LWPOLYLINE
  5
259
100
AcDbEntity
  8
0
100
AcDbPolyline
 62
7
  6
CONTINUOUS
 90
3
 70
0
 10
107.0052454379
 20
244.3845655844
 10
107.018301286
 20
244.3528364272
 10
106.9518229535
 20
244.488889139
  0
LINE
  5
25A
100
AcDbEntity
  8
0
100
AcDbLine
 62
7
  6
CONTINUOUS
 10
107.0154015048
 20
244.3611968095
 11
106.9713349429
 21
244.4555542914
  0
LINE
  5
25B
100
AcDbEntity
  8
0
100
AcDbLine
 62
7
  6
CONTINUOUS
 10
94.6218118728
 20
199.2141759825
 11
82.5791484637
 21
195.962656862
  0
LINE
  5
25C
100
AcDbEntity
  8
0
100
AcDbLine
 62
7
  6
CONTINUOUS
 10
106.9713349429
 20
244.4555542914
 11
106.8932915086
 21
244.5743575443
  0
LINE
  5
25D
100
AcDbEntity
  8
0
100
AcDbLine
 62
7
  6
CONTINUOUS
 10
133.1004801683
 20
204.2634164223
 11
133.2004801683
 21
204.2634164223
  0
LINE
  5
25E
100
AcDbEntity
  8
0
100
AcDbLine
 62
7
  6
CONTINUOUS
 10
133.2004801683
 20
205.2634164223
 11
133.1004801683
 21
205.2634164223
  0
LINE
  5
25F
100
AcDbEntity
  8
0
100
AcDbLine
 62
7
  6
CONTINUOUS
 10
133.2004801683
 20
205.5134164223
 11
133.6004801683
 21
205.5134164223
  0
LINE
  5
260
100
AcDbEntity
  8
0
100
AcDbLine
 62
7
  6
CONTINUOUS
 10
133.2004801683
 20
206.6134164223
 11
133.6004801683
 21
206.6134164223
  0
LINE
  5
261
100
AcDbEntity
  8
0
100
AcDbLine
 62
7
  6
CONTINUOUS
 10
106.9518229535
 20
244.488889139
 11
106.8409711627
 21
244.6331703097
  0
LINE
  5
262
100
AcDbEntity
  8
0
100
AcDbLine
 62
7
  6
CONTINUOUS
 10
133.2004801683
 20
216.2634164223
 11
133.1004801683
 21
216.2634164223
  0
LINE
  5
263
100
AcDbEntity
  8
0
100
AcDbLine
 62
7
  6
CONTINUOUS
 10
133.1004801683
 20
218.2634164223
 11
133.2004801683
 21
218.2634164223
  0
LINE
  5
264
100
AcDbEntity
  8
0
100
AcDbLine
 62
7
  6
CONTINUOUS
 10
106.8932915086
 20
244.5743575443
 11
106.7683736782
 21
244.6994280346
  0
LINE
  5
265
100
AcDbEntity
  8
0
100
AcDbLine
 62
7
  6
CONTINUOUS
 10
108.0481442012
 20
41.4352110243
 11
133.1004801683
 21
55.1176123594
  0
LINE
  5
266
100
AcDbEntity
  8
0
100
AcDbLine
 62
7
  6
CONTINUOUS
 10
65.0204801683
 20
223.2634164223
 11
65.1004801683
 21
223.2634164223
  0
LINE
  5
267
100
AcDbEntity
  8
0
100
AcDbLine
 62
7
  6
CONTINUOUS
 10
65.1004801683
 20
225.2634164223
 11
65.0204801683
 21
225.2634164223
  0
LINE
  5
268
100
AcDbEntity
  8
0
100
AcDbLine
 62
7
  6
CONTINUOUS
 10
133.1004801683
 20
217.3092214657
 11
108.0481442012
 21
230.9916251765
  0
LINE
  5
269
100
AcDbEntity
  8
0
100
AcDbLine
 62
7
  6
CONTINUOUS
 10
97.1004801683
 20
245.530083089
 11
92.1004801683
 21
249.3634164223
  0
LINE
  5
26A
100
AcDbEntity
  8
0
100
AcDbLine
 62
7
  6
CONTINUOUS
 10
106.8409711627
 20
244.6331703097
 11
106.7004053078
 21
244.7473932575
  0
LINE
  5
26B
100
AcDbEntity
  8
0
100
AcDbLine
 62
7
  6
CONTINUOUS
 10
107.621154868
 20
35.6477849121
 11
133.1004801683
 21
49.5634164223
  0
LINE
  5
26C
100
AcDbEntity
  8
0
100
AcDbLine
 62
7
  6
CONTINUOUS
 10
108.0481442012
 20
230.991637649
 11
107.1004801683
 21
230.991637649
  0
LINE
  5
26D
100
AcDbEntity
  8
0
100
AcDbLine
 62
7
  6
CONTINUOUS
 10
65.0204801683
 20
231.2634164223
 11
65.1004801683
 21
231.2634164223
  0
LINE
  5
26E
100
AcDbEntity
  8
0
100
AcDbLine
 62
7
  6
CONTINUOUS
 10
65.1004801683
 20
233.2634164223
 11
65.0204801683
 21
233.2634164223
  0
LINE
  5
26F
100
AcDbEntity
  8
0
100
AcDbLine
 62
7
  6
CONTINUOUS
 10
107.6211549474
 20
236.7790478891
 11
133.1004801683
 21
222.8634164223
  0
LINE
  5
270
100
AcDbEntity
  8
0
100
AcDbLine
 62
7
  6
CONTINUOUS
 10
106.7683736782
 20
244.6994280346
 11
106.6588118078
 21
244.7728638894
  0
LWPOLYLINE
  5
271
100
AcDbEntity
  8
0
100
AcDbPolyline
 62
7
  6
CONTINUOUS
 90
12
 70
0
 10
106.6240209671
 20
31.2751857411
 10
106.660235499
 20
31.2865191946
 10
106.6982213416
 20
31.2999357269
 10
106.7393260074
 20
31.3164620951
 10
106.7859666129
 20
31.3381741477
 10
106.8422096086
 20
31.3694997899
 10
106.9084740147
 20
31.4159632246
 10
106.9770166463
 20
31.4800878969
 10
107.0393133199
 20
31.5628344668
 10
107.087879978
 20
31.6619357136
 10
107.1188024225
 20
31.7720854948
 10
107.1319250215
 20
31.8798815451
  0
LINE
  5
272
100
AcDbEntity
  8
0
100
AcDbLine
 62
7
  6
CONTINUOUS
 10
106.135379665
 20
235.638713445
 11
107.1004801683
 21
235.638713445
  0
LINE
  5
273
100
AcDbEntity
  8
0
100
AcDbLine
 62
7
  6
CONTINUOUS
 10
65.0204801683
 20
237.7634164223
 11
65.1004801683
 21
237.7634164223
  0
LINE
  5
274
100
AcDbEntity
  8
0
100
AcDbLine
 62
7
  6
CONTINUOUS
 10
100.5004801683
 20
238.3134164223
 11
98.1004801683
 21
238.3134164223
  0
LINE
  5
275
100
AcDbEntity
  8
0
100
AcDbLine
 62
7
  6
CONTINUOUS
 10
65.1004801683
 20
239.7634164223
 11
65.0204801683
 21
239.7634164223
  0
LINE
  5
276
100
AcDbEntity
  8
0
100
AcDbLine
 62
7
  6
CONTINUOUS
 10
107.1004801683
 20
240.8134164185
 11
100.5004801683
 21
240.8134164185
  0
LINE
  5
277
100
AcDbEntity
  8
0
100
AcDbLine
 62
7
  6
CONTINUOUS
 10
106.135379665
 20
235.638713445
 11
99.0655819762
 21
235.762164766
  0
LINE
  5
278
100
AcDbEntity
  8
0
100
AcDbLine
 62
7
  6
CONTINUOUS
 10
99.0830268482
 20
236.7613558763
 11
106.117932092
 21
236.6385611485
  0
LINE
  5
279
100
AcDbEntity
  8
0
100
AcDbLine
 62
7
  6
CONTINUOUS
 10
96.1004801683
 20
241.7655485277
 11
96.6004802322
 21
241.7568183083
  0
LINE
  5
27A
100
AcDbEntity
  8
0
100
AcDbLine
 62
7
  6
CONTINUOUS
 10
96.1004801682
 20
242.0645763034
 11
72.8004801683
 21
242.6645763016
  0
LINE
  5
27B
100
AcDbEntity
  8
0
100
AcDbLine
 62
7
  6
CONTINUOUS
 10
96.6004802322
 20
241.7568183083
 11
98.1004791029
 21
241.6957070297
  0
LINE
  5
27C
100
AcDbEntity
  8
0
100
AcDbLine
 62
7
  6
CONTINUOUS
 10
66.0004801683
 20
250.9657926172
 11
65.3162234824
 21
251.1134164223
  0
LWPOLYLINE
  5
27D
100
AcDbEntity
  8
0
100
AcDbPolyline
 62
7
  6
CONTINUOUS
 90
3
 70
0
 10
106.4632285081
 20
244.8555364005
 10
106.3778560731
 20
244.8783203321
 10
106.2920406558
 20
244.895138966
  0
LWPOLYLINE
  5
27E
100
AcDbEntity
  8
0
100
AcDbPolyline
 62
7
  6
CONTINUOUS
 90
3
 70
0
 10
106.6588118078
 20
244.7728638894
 10
106.5589704201
 20
244.8212255844
 10
106.4632285081
 20
244.8555364005
  0
LINE
  5
27F
100
AcDbEntity
  8
0
100
AcDbLine
 62
7
  6
CONTINUOUS
 10
106.7004053078
 20
244.7473932575
 11
106.5713963221
 21
244.8155684522
  0
LINE
  5
280
100
AcDbEntity
  8
0
100
AcDbLine
 62
7
  6
CONTINUOUS
 10
72.8004801683
 20
253.3134164223
 11
66.1004801683
 21
252.7272423767
  0
LINE
  5
281
100
AcDbEntity
  8
0
100
AcDbLine
 62
7
  6
CONTINUOUS
 10
107.1004801683
 20
243.9139371235
 11
106.1179325747
 21
243.9135991832
  0
LINE
  5
282
100
AcDbEntity
  8
0
100
AcDbLine
 62
7
  6
CONTINUOUS
 10
100.5004801683
 20
243.9134164223
 11
98.1004801683
 21
243.9134164223
  0
LINE
  5
283
100
AcDbEntity
  8
0
100
AcDbLine
 62
7
  6
CONTINUOUS
 10
98.1004801684
 20
244.1592634755
 11
99.0830288299
 21
244.1592815843
  0
LINE
  5
284
100
AcDbEntity
  8
0
100
AcDbLine
 62
7
  6
CONTINUOUS
 10
65.1004801683
 20
245.1134164223
 11
66.1004801683
 21
245.1134164223
  0
LINE
  5
285
100
AcDbEntity
  8
0
100
AcDbLine
 62
7
  6
CONTINUOUS
 10
66.1004801683
 20
245.8134164212
 11
72.8004801683
 21
245.8134164212
  0
LINE
  5
286
100
AcDbEntity
  8
0
100
AcDbLine
 62
7
  6
CONTINUOUS
 10
102.2004801683
 20
246.0134164223
 11
97.1004801683
 21
246.0134164223
  0
LINE
  5
287
100
AcDbEntity
  8
0
100
AcDbLine
 62
7
  6
CONTINUOUS
 10
92.1004801683
 20
249.3634164223
 11
91.1004801683
 21
249.3634164223
  0
LINE
  5
288
100
AcDbEntity
  8
0
100
AcDbLine
 62
7
  6
CONTINUOUS
 10
66.1004801683
 20
250.0387650483
 11
66.0004801682
 21
250.0387650483
  0
LINE
  5
289
100
AcDbEntity
  8
0
100
AcDbLine
 62
7
  6
CONTINUOUS
 10
72.8004801683
 20
246.1634164223
 11
96.1004801683
 21
245.5634164223
  0
LINE
  5
28A
100
AcDbEntity
  8
0
100
AcDbLine
 62
7
  6
CONTINUOUS
 10
106.1179325747
 20
243.9135991832
 11
99.0830288299
 21
244.1592816149
  0
LINE
  5
28B
100
AcDbEntity
  8
0
100
AcDbLine
 62
7
  6
CONTINUOUS
 10
96.1004801683
 20
245.2634164223
 11
106.1357146236
 21
244.9129783131
  0
ARC
  5
28C
100
AcDbEntity
  8
0
100
AcDbCircle
 62
7
  6
CONTINUOUS
 10
96.6202489635
 20
34.1343405751
 40
4.55
100
AcDbArc
 50
271.9999999399
 51
297.4438988572
  0
ARC
  5
28D
100
AcDbEntity
  8
0
100
AcDbCircle
 62
7
  6
CONTINUOUS
 10
94.1004801683
 20
201.1450341476
 40
2.0
100
AcDbArc
 50
285.1095751224
 51
347.537014184
  0
ARC
  5
28E
100
AcDbEntity
  8
0
100
AcDbCircle
 62
7
  6
CONTINUOUS
 10
83.1004801683
 20
194.0317986969
 40
2.0
100
AcDbArc
 50
105.1095751224
 51
180.0
  0
ARC
  5
28F
100
AcDbEntity
  8
0
100
AcDbCircle
 62
7
  6
CONTINUOUS
 10
83.1004801683
 20
82.0950341476
 40
2.0
100
AcDbArc
 50
180.0
 51
254.8904248776
  0
ARC
  5
290
100
AcDbEntity
  8
0
100
AcDbCircle
 62
7
  6
CONTINUOUS
 10
94.1004801683
 20
74.9817986969
 40
2.0
100
AcDbArc
 50
0.0
 51
74.8904248776
  0
ARC
  5
291
100
AcDbEntity
  8
0
100
AcDbCircle
 62
7
  6
CONTINUOUS
 10
95.0996317626
 20
201.0150734989
 40
1.0002890498
100
AcDbArc
 50
342.448080145
 51
354.1670915375
  0
ARC
  5
292
100
AcDbEntity
  8
0
100
AcDbCircle
 62
7
  6
CONTINUOUS
 10
108.1004801683
 20
237.6566852473
 40
1.0
100
AcDbArc
 50
180.0
 51
241.3586596015
  0
ARC
  5
293
100
AcDbEntity
  8
0
100
AcDbCircle
 62
7
  6
CONTINUOUS
 10
108.1004801683
 20
34.7701475972
 40
1.0
100
AcDbArc
 50
118.641345579
 51
159.5474306312
  0
ARC
  5
294
100
AcDbEntity
  8
0
100
AcDbCircle
 62
7
  6
CONTINUOUS
 10
106.1004801683
 20
235.638713445
 40
1.0
100
AcDbArc
 50
0.0
 51
89.0000276614
  0
ARC
  5
295
100
AcDbEntity
  8
0
100
AcDbCircle
 62
7
  6
CONTINUOUS
 10
106.1004801683
 20
40.4881193996
 40
1.0
100
AcDbArc
 50
271.0000000001
 51
359.9992040298
  0
ARC
  5
296
100
AcDbEntity
  8
0
100
AcDbCircle
 62
7
  6
CONTINUOUS
 10
99.1004801683
 20
38.365629289
 40
1.0
100
AcDbArc
 50
91.0000415223
 51
164.3375260561
  0
ARC
  5
297
100
AcDbEntity
  8
0
100
AcDbCircle
 62
7
  6
CONTINUOUS
 10
99.1004801683
 20
237.7612035555
 40
1.0
100
AcDbArc
 50
195.6437727905
 51
268.9999476451
  0
ARC
  5
298
100
AcDbEntity
  8
0
100
AcDbCircle
 62
7
  6
CONTINUOUS
 10
65.8004801681
 20
26.0880677963
 40
0.7
100
AcDbArc
 50
179.9999999993
 51
192.1745810243
  0
ARC
  5
299
100
AcDbEntity
  8
0
100
AcDbCircle
 62
7
  6
CONTINUOUS
 10
65.8004801683
 20
250.0387650483
 40
0.7
100
AcDbArc
 50
167.8254189768
 51
179.9999999986
  0
SPLINE
  5
29A
100
AcDbEntity
  8
0
100
AcDbSpline
 62
7
  6
CONTINUOUS
 70
0
 71
3
 72
11
 73
7
 74
0
 42
0.0000001
 43
0.0000001
 44
0.0000000001
 40
0.0
 40
0.0
 40
0.0
 40
0.0
 40
0.2394110804
 40
0.4980681834
 40
0.75780386
 40
1.0
 40
1.0
 40
1.0
 40
1.0
 10
107.1004801549
 20
32.2130705337
 30
0.0
 10
107.1004602052
 20
32.0913626403
 30
0.0
 10
107.0532303401
 20
31.8358100339
 30
0.0
 10
106.8406315358
 20
31.5024627014
 30
0.0
 10
106.5144130176
 20
31.2765552786
 30
0.0
 10
106.258956854
 20
31.2189981306
 30
0.0
 10
106.1359324785
 20
31.2140531331
 30
0.0
  0
SPLINE
  5
29B
100
AcDbEntity
  8
0
100
AcDbSpline
 62
7
  6
CONTINUOUS
 70
0
 71
3
 72
10
 73
6
 74
0
 42
0.0000001
 43
0.0000001
 44
0.0000000001
 40
0.0
 40
0.0
 40
0.0
 40
0.0
 40
0.4710122048
 40
0.7160331696
 40
1.0
 40
1.0
 40
1.0
 40
1.0
 10
107.0294451816
 20
244.2852067599
 30
0.0
 10
106.9636793243
 20
244.4527494421
 30
0.0
 10
106.7850047807
 20
244.6832800965
 30
0.0
 10
106.4466836831
 20
244.8691352464
 30
0.0
 10
106.2440495602
 20
244.9067389989
 30
0.0
 10
106.1357584114
 20
244.9136639462
 30
0.0
  0
SPLINE
  5
29C
100
AcDbEntity
  8
0
100
AcDbSpline
 62
7
  6
CONTINUOUS
 70
0
 71
3
 72
16
 73
12
 74
0
 42
0.0000001
 43
0.0000001
 44
0.0000000001
 40
0.0
 40
0.0
 40
0.0
 40
0.0
 40
0.3824157156
 40
0.5552797059
 40
0.7066050454
 40
0.8305862075
 40
0.9227577304
 40
0.9557145938
 40
0.9795613215
 40
0.9942033102
 40
1.0
 40
1.0
 40
1.0
 40
1.0
 10
99.065582902
 20
40.3646872721
 30
0.0
 10
99.0633673693
 20
40.2371041279
 30
0.0
 10
99.0614195143
 20
40.0518084682
 30
0.0
 10
99.0615237689
 20
39.8160664765
 30
0.0
 10
99.062998632
 20
39.6664424751
 30
0.0
 10
99.0659462603
 20
39.5440892709
 30
0.0
 10
99.0695927902
 20
39.460528169
 30
0.0
 10
99.0732933328
 20
39.4116512275
 30
0.0
 10
99.0760509013
 20
39.3867778572
 30
0.0
 10
99.0784796961
 20
39.3743777527
 30
0.0
 10
99.0810958118
 20
39.3654408921
 30
0.0
 10
99.0830296821
 20
39.3654770177
 30
0.0
  0
SPLINE
  5
29D
100
AcDbEntity
  8
0
100
AcDbSpline
 62
7
  6
CONTINUOUS
 70
0
 71
3
 72
10
 73
6
 74
0
 42
0.0000001
 43
0.0000001
 44
0.0000000001
 40
0.0
 40
0.0
 40
0.0
 40
0.0
 40
0.500037362
 40
0.7502117352
 40
1.0
 40
1.0
 40
1.0
 40
1.0
 10
99.0655828509
 20
40.3646589052
 30
0.0
 10
98.8282494856
 20
40.1273272189
 30
0.0
 10
98.4728372273
 20
39.7611824086
 30
0.0
 10
98.1635934447
 20
39.1584263162
 30
0.0
 10
98.100473869
 20
38.8212960078
 30
0.0
 10
98.1004801681
 20
38.6536312314
 30
0.0
  0
SPLINE
  5
29E
100
AcDbEntity
  8
0
100
AcDbSpline
 62
7
  6
CONTINUOUS
 70
0
 71
3
 72
16
 73
12
 74
0
 42
0.0000001
 43
0.0000001
 44
0.0000000001
 40
0.0
 40
0.0
 40
0.0
 40
0.0
 40
0.0059489855
 40
0.0209740416
 40
0.0452353889
 40
0.0784465903
 40
0.1703264703
 40
0.2937333569
 40
0.445039661
 40
0.6178852572
 40
1.0
 40
1.0
 40
1.0
 40
1.0
 10
99.0830437235
 20
236.7613434768
 30
0.0
 10
99.0810591466
 20
236.7613857804
 30
0.0
 10
99.078492828
 20
236.7521195308
 30
0.0
 10
99.075977404
 20
236.7395242303
 30
0.0
 10
99.0732230805
 20
236.714247005
 30
0.0
 10
99.0694976426
 20
236.6652644715
 30
0.0
 10
99.0659101489
 20
236.5818951672
 30
0.0
 10
99.0630184174
 20
236.4598403351
 30
0.0
 10
99.0615284992
 20
236.3104188012
 30
0.0
 10
99.0613734926
 20
236.0747900291
 30
0.0
 10
99.0633751371
 20
235.8896007072
 30
0.0
 10
99.0655969429
 20
235.762117935
 30
0.0
  0
SPLINE
  5
29F
100
AcDbEntity
  8
0
100
AcDbSpline
 62
7
  6
CONTINUOUS
 70
0
 71
3
 72
10
 73
6
 74
0
 42
0.0000001
 43
0.0000001
 44
0.0000000001
 40
0.0
 40
0.0
 40
0.0
 40
0.0
 40
0.2497879727
 40
0.4999626235
 40
1.0
 40
1.0
 40
1.0
 40
1.0
 10
98.1004791029
 20
237.4732150195
 30
0.0
 10
98.1004720442
 20
237.305548843
 30
0.0
 10
98.1635908538
 20
236.9684155926
 30
0.0
 10
98.472834112
 20
236.3656491821
 30
0.0
 10
98.8282702624
 20
235.999522634
 30
0.0
 10
99.0655819762
 20
235.762164766
 30
0.0
  0
SPLINE
  5
2A0
100
AcDbEntity
  8
0
100
AcDbSpline
 62
7
  6
CONTINUOUS
 70
0
 71
3
 72
18
 73
14
 74
0
 42
0.0000001
 43
0.0000001
 44
0.0000000001
 40
0.0
 40
0.0
 40
0.0
 40
0.0
 40
0.1950091406
 40
0.3825734292
 40
0.5556379769
 40
0.7071486205
 40
0.8307262934
 40
0.8808470061
 40
0.9226878856
 40
0.9558748792
 40
0.9800379136
 40
0.9948215737
 40
1.0
 40
1.0
 40
1.0
 40
1.0
 10
99.0830469783
 20
31.9675501642
 30
0.0
 10
99.0807818028
 20
31.9025103381
 30
0.0
 10
99.0765624287
 20
31.7749048543
 30
0.0
 10
99.0710783443
 20
31.5895597053
 30
0.0
 10
99.066663128
 20
31.4186903093
 30
0.0
 10
99.0635190224
 20
31.2692014966
 30
0.0
 10
99.0619061563
 20
31.160589229
 30
0.0
 10
99.0615270461
 20
31.0888055846
 30
0.0
 10
99.0614445412
 20
31.0467215113
 30
0.0
 10
99.0621868697
 20
31.0144652159
 30
0.0
 10
99.0620716196
 20
30.9884402269
 30
0.0
 10
99.0644651883
 20
30.9772686777
 30
0.0
 10
99.0638738211
 20
30.9668876123
 30
0.0
 10
99.0656003749
 20
30.9669622401
 30
0.0
  0
SPLINE
  5
2A1
100
AcDbEntity
  8
0
100
AcDbSpline
 62
7
  6
CONTINUOUS
 70
0
 71
3
 72
16
 73
12
 74
0
 42
0.0000001
 43
0.0000001
 44
0.0000000001
 40
0.0
 40
0.0
 40
0.0
 40
0.0
 40
0.3828935772
 40
0.5557153804
 40
0.7069689569
 40
0.8310583227
 40
0.9231760229
 40
0.9561274548
 40
0.9799180385
 40
0.9944204213
 40
1.0
 40
1.0
 40
1.0
 40
1.0
 10
106.1179329846
 20
32.2132150671
 30
0.0
 10
106.1224070191
 20
32.0856025663
 30
0.0
 10
106.1282607288
 20
31.9003516848
 30
0.0
 10
106.1344713489
 20
31.6647057628
 30
0.0
 10
106.1375495427
 20
31.5151848042
 30
0.0
 10
106.1388867676
 20
31.392903449
 30
0.0
 10
106.1404135261
 20
31.3092671258
 30
0.0
 10
106.1408468487
 20
31.2603967418
 30
0.0
 10
106.140388407
 20
31.2353362873
 30
0.0
 10
106.1389892949
 20
31.2231131171
 30
0.0
 10
106.1373865425
 20
31.2139129162
 30
0.0
 10
106.1355269463
 20
31.2138479777
 30
0.0
  0
SPLINE
  5
2A2
100
AcDbEntity
  8
0
100
AcDbSpline
 62
7
  6
CONTINUOUS
 70
0
 71
3
 72
22
 73
18
 74
0
 42
0.0000001
 43
0.0000001
 44
0.0000000001
 40
0.0
 40
0.0
 40
0.0
 40
0.0
 40
0.0012359137
 40
0.0052220311
 40
0.0119284306
 40
0.0213010997
 40
0.0332836632
 40
0.0478191248
 40
0.0843196787
 40
0.1302558281
 40
0.1847273902
 40
0.2467457715
 40
0.3153222553
 40
0.4684536534
 40
0.6375075108
 40
0.8163834714
 40
1.0
 40
1.0
 40
1.0
 40
1.0
 10
107.6213224382
 20
236.7787662434
 30
0.0
 10
107.6192225105
 20
236.7799091546
 30
0.0
 10
107.6209652557
 20
236.7611731933
 30
0.0
 10
107.6188208065
 20
236.7467704257
 30
0.0
 10
107.6214567143
 20
236.7029569334
 30
0.0
 10
107.6233449029
 20
236.6509452381
 30
0.0
 10
107.6272672934
 20
236.5807625105
 30
0.0
 10
107.6342509254
 20
236.4594632833
 30
0.0
 10
107.6462582092
 20
236.2719974276
 30
0.0
 10
107.6641136613
 20
236.0078702012
 30
0.0
 10
107.6861634992
 20
235.6944019325
 30
0.0
 10
107.7119390938
 20
235.3373431361
 30
0.0
 10
107.7522604639
 20
234.7899690365
 30
0.0
 10
107.8091572167
 20
234.0362095318
 30
0.0
 10
107.8837059901
 20
233.0698052986
 30
0.0
 10
107.9641797556
 20
232.0447134801
 30
0.0
 10
108.0198941549
 20
231.345709272
 30
0.0
 10
108.0483166933
 20
230.9916526924
 30
0.0
  0
SPLINE
  5
2A3
100
AcDbEntity
  8
0
100
AcDbSpline
 62
7
  6
CONTINUOUS
 70
0
 71
3
 72
22
 73
18
 74
0
 42
0.0000001
 43
0.0000001
 44
0.0000000001
 40
0.0
 40
0.0
 40
0.0
 40
0.0
 40
0.1836200348
 40
0.3624982303
 40
0.5315514965
 40
0.6846811639
 40
0.7532570646
 40
0.8152750914
 40
0.8697464151
 40
0.9156823297
 40
0.9521825546
 40
0.9667178078
 40
0.9787001338
 40
0.9880725364
 40
0.9947786405
 40
0.9987644336
 40
1.0
 40
1.0
 40
1.0
 40
1.0
 10
108.0482181637
 20
41.4351901735
 30
0.0
 10
108.0197949504
 20
41.0811230307
 30
0.0
 10
107.9640797267
 20
40.3821002195
 30
0.0
 10
107.8836061094
 20
39.3569873594
 30
0.0
 10
107.8090590576
 20
38.3905727584
 30
0.0
 10
107.7521646892
 20
37.6368105986
 30
0.0
 10
107.7118454754
 20
37.0894356243
 30
0.0
 10
107.6860713094
 20
36.7323751712
 30
0.0
 10
107.6640227723
 20
36.4189050255
 30
0.0
 10
107.6461683888
 20
36.1547764991
 30
0.0
 10
107.6341619721
 20
35.9673099393
 30
0.0
 10
107.6271786928
 20
35.8460110938
 30
0.0
 10
107.6232569049
 20
35.7758285364
 30
0.0
 10
107.6213681267
 20
35.7238189398
 30
0.0
 10
107.6187342531
 20
35.6800042703
 30
0.0
 10
107.6208754042
 20
35.6656069361
 30
0.0
 10
107.6191362461
 20
35.6468693257
 30
0.0
 10
107.621234687
 20
35.6480136152
 30
0.0
  0
SPLINE
  5
2A4
100
AcDbEntity
  8
0
100
AcDbSpline
 62
7
  6
CONTINUOUS
 70
0
 71
3
 72
18
 73
14
 74
0
 42
0.0000001
 43
0.0000001
 44
0.0000000001
 40
0.0
 40
0.0
 40
0.0
 40
0.0
 40
0.0050163058
 40
0.0194273701
 40
0.0432201096
 40
0.0762497267
 40
0.118288017
 40
0.1688371537
 40
0.2932125483
 40
0.444670561
 40
0.6175597227
 40
0.8054554463
 40
1.0
 40
1.0
 40
1.0
 40
1.0
 10
99.0655829828
 20
245.1598727504
 30
0.0
 10
99.0639101161
 20
245.1599366335
 30
0.0
 10
99.0644116202
 20
245.1498805851
 30
0.0
 10
99.0621101092
 20
245.1388984207
 30
0.0
 10
99.0621964746
 20
245.1132134083
 30
0.0
 10
99.0614651043
 20
245.0810612122
 30
0.0
 10
99.0615337415
 20
245.0388185683
 30
0.0
 10
99.0618909499
 20
244.9665602464
 30
0.0
 10
99.0634838621
 20
244.8575535895
 30
0.0
 10
99.0667158128
 20
244.7078742805
 30
0.0
 10
99.0712039231
 20
244.5369700316
 30
0.0
 10
99.0766032133
 20
244.3517229206
 30
0.0
 10
99.0807677818
 20
244.2241581938
 30
0.0
 10
99.0830299422
 20
244.1592724863
 30
0.0
  0
SPLINE
  5
2A5
100
AcDbEntity
  8
0
100
AcDbSpline
 62
7
  6
CONTINUOUS
 70
0
 71
3
 72
18
 73
14
 74
0
 42
0.0000001
 43
0.0000001
 44
0.0000000001
 40
0.0
 40
0.0
 40
0.0
 40
0.0
 40
0.0051286709
 40
0.0196355871
 40
0.0434902434
 40
0.076533732
 40
0.1185322744
 40
0.1690081736
 40
0.2932347142
 40
0.4446225948
 40
0.6174863751
 40
0.8053911351
 40
1.0
 40
1.0
 40
1.0
 40
1.0
 10
106.1357145529
 20
244.9129783156
 30
0.0
 10
106.1374229825
 20
244.9129184518
 30
0.0
 10
106.136831658
 20
244.9030266684
 30
0.0
 10
106.1391803447
 20
244.8917266224
 30
0.0
 10
106.1390319139
 20
244.8661600406
 30
0.0
 10
106.1397403447
 20
244.8339694063
 30
0.0
 10
106.1396303316
 20
244.7918373987
 30
0.0
 10
106.1392329623
 20
244.7197437094
 30
0.0
 10
106.1376335133
 20
244.6109765319
 30
0.0
 10
106.1345248859
 20
244.4615575278
 30
0.0
 10
106.130103001
 20
244.290891655
 30
0.0
 10
106.1245357055
 20
244.1058613001
 30
0.0
 10
106.1202371357
 20
243.978433951
 30
0.0
 10
106.1179328955
 20
243.9136082618
 30
0.0
  0
SPLINE
  5
2A6
100
AcDbEntity
  8
0
100
AcDbSpline
 62
7
  6
CONTINUOUS
 70
0
 71
3
 72
16
 73
12
 74
0
 42
0.0000001
 43
0.0000001
 44
0.0000000001
 40
0.0
 40
0.0
 40
0.0
 40
0.0
 40
0.005907277
 40
0.0206751041
 40
0.0446548145
 40
0.0777612496
 40
0.1702272351
 40
0.2943295891
 40
0.4455240664
 40
0.618130824
 40
1.0
 40
1.0
 40
1.0
 40
1.0
 10
106.1179330124
 20
236.6385611324
 30
0.0
 10
106.1199050617
 20
236.6385259487
 30
0.0
 10
106.1224595595
 20
236.629569722
 30
0.0
 10
106.1250211352
 20
236.6169789958
 30
0.0
 10
106.1277813629
 20
236.5919976207
 30
0.0
 10
106.131535494
 20
236.5428722788
 30
0.0
 10
106.1350655909
 20
236.4590830512
 30
0.0
 10
106.1379456102
 20
236.3365467783
 30
0.0
 10
106.1394782792
 20
236.1869209737
 30
0.0
 10
106.1396607472
 20
235.9513389719
 30
0.0
 10
106.1376021255
 20
235.766195236
 30
0.0
 10
106.1353796328
 20
235.6387134455
 30
0.0
  0
SPLINE
  5
2A7
100
AcDbEntity
  8
0
100
AcDbSpline
 62
7
  6
CONTINUOUS
 70
0
 71
3
 72
16
 73
12
 74
0
 42
0.0000001
 43
0.0000001
 44
0.0000000001
 40
0.0
 40
0.0
 40
0.0
 40
0.0
 40
0.3818715509
 40
0.554464488
 40
0.705641588
 40
0.829740899
 40
0.9222064273
 40
0.9553147265
 40
0.9793065629
 40
0.9940876984
 40
1.0
 40
1.0
 40
1.0
 40
1.0
 10
106.1353801593
 20
40.4880910422
 30
0.0
 10
106.1376024743
 20
40.3606122084
 30
0.0
 10
106.1396608278
 20
40.1754777213
 30
0.0
 10
106.1394782771
 20
39.9399123221
 30
0.0
 10
106.1379456334
 20
39.7903022483
 30
0.0
 10
106.1350669224
 20
39.6677768519
 30
0.0
 10
106.1315385938
 20
39.5839898521
 30
0.0
 10
106.1277814224
 20
39.5348626314
 30
0.0
 10
106.1250220217
 20
39.5098705773
 30
0.0
 10
106.1224578451
 20
39.4972752101
 30
0.0
 10
106.1199065692
 20
39.4883064177
 30
0.0
 10
106.1179328916
 20
39.48827171
 30
0.0
  0
ENDSEC
  0
SECTION
  2
OBJECTS
  0
DICTIONARY
  5
C
100
AcDbDictionary
280
0
281
1
  3
ACAD_GROUP
350
D
  3
ACAD_MLINESTYLE
350
17
  3
ACAD_LAYOUT
350
1A
  3
ACAD_PLOTSETTINGS
350
19
  3
ACAD_PLOTSTYLENAME
350
E
  0
DICTIONARY
  5
D
102
{ACAD_REACTORS
330
C
102
}
100
AcDbDictionary
280
0
281
1
  0
ACDBDICTIONARYWDFLT
  5
E
102
{ACAD_REACTORS
330
C
102
}
100
AcDbDictionary
281
1
  3
Normal
350
F
100
AcDbDictionaryWithDefault
340
F
  0
DICTIONARY
  5
17
102
{ACAD_REACTORS
330
C
102
}
100
AcDbDictionary
280
0
281
1
  3
Standard
350
18
  0
DICTIONARY
  5
19
102
{ACAD_REACTORS
330
C
102
}
100
AcDbDictionary
281
1
  0
DICTIONARY
  5
1A
102
{ACAD_REACTORS
330
C
102
}
100
AcDbDictionary
281
1
  3
Model
350
2A8
  3
Layout1
350
2A9
  0
ACDBPLACEHOLDER
  5
F
102
{ACAD_REACTORS
330
E
102
}
  0
MLINESTYLE
  5
18
102
{ACAD_REACTORS
330
17
102
}
100
AcDbMlineStyle
  2
STANDARD
 70
0
  3

 62
256
 51
90.0
 52
90.0
 71
2
 49
0.5
 62
256
  6
BYLAYER
 49
-0.5
 62
256
  6
BYLAYER
  0
LAYOUT
  5
2A8
102
{ACAD_REACTORS
330
1A
102
}
100
AcDbPlotSettings
  1

  2
none_device
  4

  6

 40
0.0
 41
0.0
 42
0.0
 43
0.0
 44
210.0
 45
297.0
 46
0.0
 47
0.0
 48
0.0
 49
0.0
140
0.0
141
0.0
142
1.0
143
1.0
 70
1024
 72
1
 73
0
 74
0
  7

 75
0
147
1.0
148
0.0
149
0.0
100
AcDbLayout
  1
Model
 70
0
 71
0
 10
0.0
 20
0.0
 11
210.0
 21
297.0
 12
0.0
 22
0.0
 32
0.0
 14
0.0
 24
0.0
 34
0.0
 15
0.0
 25
0.0
 35
0.0
146
0.0
 13
0.0
 23
0.0
 33
0.0
 16
1.0
 26
0.0
 36
0.0
 17
0.0
 27
1.0
 37
0.0
 76
0
330
210
345
0
346
0
  0
LAYOUT
  5
2A9
102
{ACAD_REACTORS
330
1A
102
}
100
AcDbPlotSettings
  1

  2
none_device
  4

  6

 40
0.0
 41
0.0
 42
0.0
 43
0.0
 44
210.0
 45
297.0
 46
0.0
 47
0.0
 48
0.0
 49
0.0
140
0.0
141
0.0
142
1.0
143
1.0
 70
0
 72
1
 73
0
 74
0
  7

 75
0
147
1.0
148
0.0
149
0.0
100
AcDbLayout
  1
Layout1
 70
0
 71
1
 10
0.0
 20
0.0
 11
210.0
 21
297.0
 12
0.0
 22
0.0
 32
0.0
 14
0.0
 24
0.0
 34
0.0
 15
0.0
 25
0.0
 35
0.0
146
0.0
 13
0.0
 23
0.0
 33
0.0
 16
1.0
 26
0.0
 36
0.0
 17
0.0
 27
1.0
 37
0.0
 76
0
330
211
345
0
346
0
  0
ENDSEC
  0
EOF
