999
DXF file: C:\SESA671053\Gen2D\CAD\MCADPP0003369_3D-simplified\drw0001_6.dxf
999
Pro/ENGINEER 2019471 by Parametric Technology Corporation
  0
SECTION
  2
HEADER
  9
$ACADVER
  1
AC1024
  9
$DWGCODEPAGE
  3
ANSI_1252
  9
$EXTMAX
 10
108.1405852839
 20
152.9416849015
 30
0.0
  9
$EXTMIN
 10
0.0
 20
0.0
 30
0.0
  9
$LIMMIN
 10
0.0
 20
0.0
  9
$LIMMAX
 10
108.1405852839
 20
152.9416849015
  9
$VIEWCTR
 10
54.070292642
 20
76.4708424508
  9
$VIEWSIZE
 40
152.9416849015
  9
$CLAYER
  8
0
  9
$LTSCALE
 40
9.9695320528
  9
$CELTYPE
  6
BYLAYER
  9
$DIMSCALE
 40
1.0
  9
$DIMASZ
 40
1.28738792
  9
$DIMEXO
 40
1.0
  9
$DIMDLI
 40
6.8880403274
  9
$DIMEXE
 40
1.0
  9
$DIMCEN
 40
1.6313779723
  9
$DIMLFAC
 40
1.0
  9
$DIMBLK
  1
_FILLED
  9
$DIMALT
 70
0
  9
$DIMALTF
 40
0.0393700787
  9
$DIMTXT
 40
1.8023430881
  9
$DIMTOL
 70
1
  9
$DIMLIM
 70
0
  9
$DIMTFAC
 40
1.0
  9
$DIMTP
 40
0.01
  9
$DIMTM
 40
0.01
  9
$DIMGAP
 40
0.625
  9
$DIMDSEP
 70
46
  9
$AUNITS
 70
0
  9
$PDMODE
 70
3
  9
$PDSIZE
 40
0.3125
  9
$HANDSEED
  5
2A8
  9
$TILEMODE
 70
1
  9
$MEASUREMENT
 70
1
  9
$INSUNITS
 70
4
  0
ENDSEC
  0
SECTION
  2
CLASSES
  0
CLASS
  1
ACDBDICTIONARYWDFLT
  2
AcDbDictionaryWithDefault
  3
AutoCAD 2000
 90
0
 91
1
280
0
281
0
  0
CLASS
  1
ACDBPLACEHOLDER
  2
AcDbPlaceHolder
  3
AutoCAD 2000
 90
0
 91
1
280
0
281
0
  0
CLASS
  1
LAYOUT
  2
AcDbLayout
  3
AutoCAD 2000
 90
0
 91
0
280
0
281
0
  0
ENDSEC
  0
SECTION
  2
TABLES
  0
TABLE
  2
VPORT
  5
8
100
AcDbSymbolTable
 70
2
  0
VPORT
  5
1F4
100
AcDbSymbolTableRecord
100
AcDbViewportTableRecord
  2
*ACTIVE
 70
0
 10
0.0
 20
0.0
 11
1.0
 21
1.0
 12
54.070292642
 22
76.4708424508
 13
0.0
 23
0.0
 14
1.0
 24
1.0
 15
0.0
 25
0.0
 16
0.0
 26
0.0
 36
1.0
 17
0.0
 27
0.0
 37
0.0
 40
152.9416849015
 41
0.7070707071
 42
50.0
 43
0.0
 44
0.0
 50
0.0
 51
0.0
 71
0
 72
100
 73
1
 74
1
 75
0
 76
0
 77
0
 78
0
  0
ENDTAB
  0
TABLE
  2
LTYPE
  5
5
100
AcDbSymbolTable
 70
6
  0
LTYPE
  5
14
100
AcDbSymbolTableRecord
100
AcDbLinetypeTableRecord
  2
BYBLOCK
 70
0
  3

 72
65
 73
0
 40
0.0
  0
LTYPE
  5
15
100
AcDbSymbolTableRecord
100
AcDbLinetypeTableRecord
  2
BYLAYER
 70
0
  3

 72
65
 73
0
 40
0.0
  0
LTYPE
  5
16
100
AcDbSymbolTableRecord
100
AcDbLinetypeTableRecord
  2
CONTINUOUS
 70
64
  3
Solid line
 72
65
 73
0
 40
0.0
  0
LTYPE
  5
1F5
100
AcDbSymbolTableRecord
100
AcDbLinetypeTableRecord
  2
CENTER
 70
64
  3
____ _ ____ _ ____ _ ____ _ ____ _ ____ _ ____
 72
65
 73
4
 40
0.6
 49
0.375
 74
0
 49
-0.075
 74
0
 49
0.075
 74
0
 49
-0.075
 74
0
  0
LTYPE
  5
1F6
100
AcDbSymbolTableRecord
100
AcDbLinetypeTableRecord
  2
HIDDEN
 70
64
  3
- - - - - - - - - - - - - - - - - - - -
 72
65
 73
2
 40
0.2
 49
0.1
 74
0
 49
-0.1
 74
0
  0
LTYPE
  5
1F7
100
AcDbSymbolTableRecord
100
AcDbLinetypeTableRecord
  2
PHANTOM
 70
64
  3
_____ _ _ _____ _ _ _____ _ _ _____
 72
65
 73
6
 40
0.8
 49
0.45
 74
0
 49
-0.05
 74
0
 49
0.1
 74
0
 49
-0.05
 74
0
 49
0.1
 74
0
 49
-0.05
 74
0
  0
LTYPE
  5
1F8
100
AcDbSymbolTableRecord
100
AcDbLinetypeTableRecord
  2
DOT
 70
64
  3
. . . . . . . . . . . . . . . . . . . .
 72
65
 73
2
 40
0.2
 49
0.1
 74
0
 49
-0.1
 74
0
  0
LTYPE
  5
1F9
100
AcDbSymbolTableRecord
100
AcDbLinetypeTableRecord
  2
DASHED
 70
64
  3
- - - - - - - - - - - - - - - - - - - -
 72
65
 73
2
 40
0.2
 49
0.1
 74
0
 49
-0.1
 74
0
  0
ENDTAB
  0
TABLE
  2
LAYER
  5
2
100
AcDbSymbolTable
 70
36
  0
LAYER
  5
10
100
AcDbSymbolTableRecord
100
AcDbLayerTableRecord
  2
0
 70
0
 62
7
  6
CONTINUOUS
370
-3
390
F
  0
LAYER
  5
1FA
100
AcDbSymbolTableRecord
100
AcDbLayerTableRecord
  2
DEFAULT_1
 70
0
 62
7
  6
CENTER
370
-3
390
F
  0
LAYER
  5
1FB
100
AcDbSymbolTableRecord
100
AcDbLayerTableRecord
  2
DEFAULT_2
 70
0
 62
8
  6
HIDDEN
370
-3
390
F
  0
LAYER
  5
1FC
100
AcDbSymbolTableRecord
100
AcDbLayerTableRecord
  2
DEFAULT_3
 70
0
 62
7
  6
PHANTOM
370
-3
390
F
  0
LAYER
  5
1FD
100
AcDbSymbolTableRecord
100
AcDbLayerTableRecord
  2
00_COMPONENTS
 70
0
 62
7
  6
CONTINUOUS
370
-3
390
F
  0
LAYER
  5
1FE
100
AcDbSymbolTableRecord
100
AcDbLayerTableRecord
  2
00_COMPONENTS_1
 70
0
 62
7
  6
CONTINUOUS
370
-3
390
F
  0
LAYER
  5
1FF
100
AcDbSymbolTableRecord
100
AcDbLayerTableRecord
  2
01_1_DEFAULT_DATUMS
 70
0
 62
7
  6
CONTINUOUS
370
-3
390
F
  0
LAYER
  5
200
100
AcDbSymbolTableRecord
100
AcDbLayerTableRecord
  2
01_PLANES
 70
0
 62
7
  6
CONTINUOUS
370
-3
390
F
  0
LAYER
  5
201
100
AcDbSymbolTableRecord
100
AcDbLayerTableRecord
  2
02_COORD_SYS
 70
0
 62
7
  6
CONTINUOUS
370
-3
390
F
  0
LAYER
  5
202
100
AcDbSymbolTableRecord
100
AcDbLayerTableRecord
  2
03_AXES
 70
0
 62
7
  6
CONTINUOUS
370
-3
390
F
  0
LAYER
  5
203
100
AcDbSymbolTableRecord
100
AcDbLayerTableRecord
  2
03_AXES_1
 70
0
 62
7
  6
CONTINUOUS
370
-3
390
F
  0
LAYER
  5
204
100
AcDbSymbolTableRecord
100
AcDbLayerTableRecord
  2
04_POINTS
 70
0
 62
7
  6
CONTINUOUS
370
-3
390
F
  0
LAYER
  5
205
100
AcDbSymbolTableRecord
100
AcDbLayerTableRecord
  2
05_CURVES
 70
0
 62
7
  6
CONTINUOUS
370
-3
390
F
  0
LAYER
  5
206
100
AcDbSymbolTableRecord
100
AcDbLayerTableRecord
  2
06_SURFS
 70
0
 62
7
  6
CONTINUOUS
370
-3
390
F
  0
LAYER
  5
207
100
AcDbSymbolTableRecord
100
AcDbLayerTableRecord
  2
07_COSMETICS
 70
0
 62
7
  6
CONTINUOUS
370
-3
390
F
  0
LAYER
  5
208
100
AcDbSymbolTableRecord
100
AcDbLayerTableRecord
  2
10_NOTES
 70
0
 62
7
  6
CONTINUOUS
370
-3
390
F
  0
LAYER
  5
209
100
AcDbSymbolTableRecord
100
AcDbLayerTableRecord
  2
11_NOTES_PUB
 70
0
 62
7
  6
CONTINUOUS
370
-3
390
F
  0
LAYER
  5
20A
100
AcDbSymbolTableRecord
100
AcDbLayerTableRecord
  2
13_REF_GTOL
 70
0
 62
7
  6
CONTINUOUS
370
-3
390
F
  0
LAYER
  5
20B
100
AcDbSymbolTableRecord
100
AcDbLayerTableRecord
  2
16_MISC
 70
0
 62
7
  6
CONTINUOUS
370
-3
390
F
  0
LAYER
  5
20C
100
AcDbSymbolTableRecord
100
AcDbLayerTableRecord
  2
17_NO_PRINT
 70
0
 62
7
  6
CONTINUOUS
370
-3
390
F
  0
LAYER
  5
20D
100
AcDbSymbolTableRecord
100
AcDbLayerTableRecord
  2
18_DATUM_CAMS_JOINTS
 70
0
 62
7
  6
CONTINUOUS
370
-3
390
F
  0
LAYER
  5
20E
100
AcDbSymbolTableRecord
100
AcDbLayerTableRecord
  2
19_DATUM_FUNCTIONAL
 70
0
 62
7
  6
CONTINUOUS
370
-3
390
F
  0
LAYER
  5
20F
100
AcDbSymbolTableRecord
100
AcDbLayerTableRecord
  2
20_DATUM_KINEMATIC_SCHEME
 70
0
 62
7
  6
CONTINUOUS
370
-3
390
F
  0
LAYER
  5
210
100
AcDbSymbolTableRecord
100
AcDbLayerTableRecord
  2
INTFCLR_18
 70
0
 62
7
  6
CONTINUOUS
370
-3
390
F
  0
LAYER
  5
211
100
AcDbSymbolTableRecord
100
AcDbLayerTableRecord
  2
INTF_BLANK
 70
0
 62
7
  6
CONTINUOUS
370
-3
390
F
  0
LAYER
  5
212
100
AcDbSymbolTableRecord
100
AcDbLayerTableRecord
  2
INTF_YELLOW
 70
0
 62
7
  6
CONTINUOUS
370
-3
390
F
  0
LAYER
  5
213
100
AcDbSymbolTableRecord
100
AcDbLayerTableRecord
  2
_BLACK_HOLE
 70
0
 62
7
  6
CONTINUOUS
370
-3
390
F
  0
ENDTAB
  0
TABLE
  2
STYLE
  5
3
100
AcDbSymbolTable
 70
1
  0
STYLE
  5
11
100
AcDbSymbolTableRecord
100
AcDbTextStyleTableRecord
  2
STANDARD
 70
0
 40
0.0
 41
0.8
 50
0.0
 71
0
 42
0.2
  3
txt
  4

  0
STYLE
  5
214
100
AcDbSymbolTableRecord
100
AcDbTextStyleTableRecord
  2
TEXTSTYLE_1
 70
0
 40
0.0
 41
0.8
 50
0.0
 71
0
 42
0.2
  3
gdt
  4

  0
ENDTAB
  0
TABLE
  2
VIEW
  5
6
100
AcDbSymbolTable
 70
0
  0
ENDTAB
  0
TABLE
  2
UCS
  5
7
100
AcDbSymbolTable
 70
0
  0
ENDTAB
  0
TABLE
  2
APPID
  5
9
100
AcDbSymbolTable
 70
1
  0
APPID
  5
215
100
AcDbSymbolTableRecord
100
AcDbRegAppTableRecord
  2
ACAD
 70
0
  0
ENDTAB
  0
TABLE
  2
BLOCK_RECORD
  5
1
100
AcDbSymbolTable
 70
0
  0
BLOCK_RECORD
  5
216
100
AcDbSymbolTableRecord
100
AcDbBlockTableRecord
  2
*Model_Space
  0
BLOCK_RECORD
  5
217
100
AcDbSymbolTableRecord
100
AcDbBlockTableRecord
  2
*Paper_Space
  0
BLOCK_RECORD
  5
218
100
AcDbSymbolTableRecord
100
AcDbBlockTableRecord
  2
_FILLED
  0
ENDTAB
  0
TABLE
  2
DIMSTYLE
  5
A
100
AcDbSymbolTable
 70
1
100
AcDbDimStyleTable
 71
0
  0
DIMSTYLE
105
219
100
AcDbSymbolTableRecord
100
AcDbDimStyleTableRecord
  2
STANDARD
 70
0
  3

  4

 40
1.0
 41
1.28738792
 42
1.0
 43
0.38
 44
1.0
 45
0.0
 46
0.0
 47
0.01
 48
0.01
140
1.8023430881
141
0.09
142
0.0
143
25.4
144
1.0
145
0.0
146
1.0
147
0.625
 71
1
 72
0
 73
0
 74
0
 75
0
 76
0
 77
1
 78
8
 79
2
170
0
171
1
172
0
173
0
174
0
175
0
176
0
177
0
178
0
270
2
179
2
271
2
272
2
273
2
274
2
275
0
280
0
281
0
282
0
283
1
284
8
285
0
286
0
287
3
288
0
340
11
278
46
341
218
342
218
343
218
344
218
  0
ENDTAB
  0
ENDSEC
  0
SECTION
  2
BLOCKS
  0
BLOCK
  5
20
100
AcDbEntity
  8
0
100
AcDbBlockBegin
  2
*Model_Space
 70
0
 10
0.0
 20
0.0
 30
0.0
  3
*Model_Space
  1

  0
ENDBLK
  5
21
100
AcDbEntity
  8
0
100
AcDbBlockEnd
  0
BLOCK
  5
1C
100
AcDbEntity
  8
0
100
AcDbBlockBegin
  2
*Paper_Space
 70
0
 10
0.0
 20
0.0
 30
0.0
  3
*Paper_Space
  1

  0
ENDBLK
  5
1D
100
AcDbEntity
  8
0
100
AcDbBlockEnd
  0
BLOCK
  5
21A
100
AcDbEntity
  8
0
100
AcDbBlockBegin
  2
_FILLED
 70
64
 10
0.0
 20
0.0
  3
_FILLED
  1

  0
SOLID
  5
21B
100
AcDbEntity
  8
0
  6
BYBLOCK
 62
0
100
AcDbTrace
 10
0.0
 20
0.0
 11
-1.0
 21
0.25
 12
-1.0
 22
-0.25
 13
-1.0
 23
-0.25
  0
ENDBLK
  5
21C
100
AcDbEntity
  8
0
  6
BYBLOCK
 62
0
100
AcDbBlockEnd
  0
ENDSEC
  0
SECTION
  2
ENTITIES
  0
LINE
  5
21D
100
AcDbEntity
  8
00_COMPONENTS_1
100
AcDbLine
 62
7
  6
CONTINUOUS
 10
12.2312882656
 20
94.6629983555
 11
12.2312882656
 21
65.3129983555
  0
LINE
  5
21E
100
AcDbEntity
  8
00_COMPONENTS_1
100
AcDbLine
 62
7
  6
CONTINUOUS
 10
18.9312882656
 20
65.3129983555
 11
18.9312882656
 21
94.6629983555
  0
LINE
  5
21F
100
AcDbEntity
  8
INTFCLR_18
100
AcDbLine
 62
7
420
3368703
  6
CONTINUOUS
 10
19.0312882656
 20
106.8129983555
 11
19.0312882656
 21
94.6629983555
  0
LINE
  5
220
100
AcDbEntity
  8
INTFCLR_18
100
AcDbLine
 62
7
420
3368703
  6
CONTINUOUS
 10
19.0312882656
 20
65.0029983555
 11
19.0312882656
 21
53.2129983555
  0
LINE
  5
221
100
AcDbEntity
  8
INTFCLR_18
100
AcDbLine
 62
7
420
3368703
  6
CONTINUOUS
 10
19.0312882656
 20
69.3129983555
 11
19.0312882656
 21
90.6629983555
  0
LINE
  5
222
100
AcDbEntity
  8
00_COMPONENTS_1
100
AcDbLine
 62
7
  6
CONTINUOUS
 10
19.0312882656
 20
65.0029983555
 11
19.0312882656
 21
94.6629983555
  0
LINE
  5
223
100
AcDbEntity
  8
00_COMPONENTS_1
100
AcDbLine
 62
7
  6
CONTINUOUS
 10
19.2312882656
 20
105.7629983555
 11
19.2312882656
 21
94.6629983555
  0
LINE
  5
224
100
AcDbEntity
  8
00_COMPONENTS_1
100
AcDbLine
 62
7
  6
CONTINUOUS
 10
19.2312882656
 20
65.0029983555
 11
19.2312882656
 21
53.9029983555
  0
LINE
  5
225
100
AcDbEntity
  8
00_COMPONENTS_1
100
AcDbLine
 62
7
  6
CONTINUOUS
 10
21.0312882656
 20
105.7629983555
 11
21.0312882656
 21
94.6629983555
  0
LINE
  5
226
100
AcDbEntity
  8
00_COMPONENTS_1
100
AcDbLine
 62
7
  6
CONTINUOUS
 10
21.0312882656
 20
65.0029983555
 11
21.0312882656
 21
53.9029983555
  0
LINE
  5
227
100
AcDbEntity
  8
00_COMPONENTS_1
100
AcDbLine
 62
7
  6
CONTINUOUS
 10
97.7812882656
 20
41.4129983555
 11
90.7812882656
 21
41.4129983555
  0
LINE
  5
228
100
AcDbEntity
  8
00_COMPONENTS_1
100
AcDbLine
 62
7
  6
CONTINUOUS
 10
90.7812882656
 20
41.5766601273
 11
97.7812882656
 21
41.5766601273
  0
LINE
  5
229
100
AcDbEntity
  8
00_COMPONENTS_1
100
AcDbLine
 62
7
  6
CONTINUOUS
 10
90.7812882656
 20
42.533927773
 11
97.7812882656
 21
42.533927773
  0
LINE
  5
22A
100
AcDbEntity
  8
00_COMPONENTS_1
100
AcDbLine
 62
7
  6
CONTINUOUS
 10
90.7812882656
 20
42.8629983555
 11
97.7812882656
 21
42.8629983555
  0
LINE
  5
22B
100
AcDbEntity
  8
00_COMPONENTS_1
100
AcDbLine
 62
7
  6
CONTINUOUS
 10
33.7323319678
 20
43.8629983555
 11
68.7812882656
 21
43.8629983555
  0
LINE
  5
22C
100
AcDbEntity
  8
00_COMPONENTS_1
100
AcDbLine
 62
7
  6
CONTINUOUS
 10
90.7812882656
 20
45.6475539673
 11
97.7812882656
 21
45.6475539673
  0
LINE
  5
22D
100
AcDbEntity
  8
00_COMPONENTS_1
100
AcDbLine
 62
7
  6
CONTINUOUS
 10
90.7812882656
 20
46.9129983555
 11
68.7812882656
 21
46.9129983555
  0
LINE
  5
22E
100
AcDbEntity
  8
00_COMPONENTS_1
100
AcDbLine
 62
7
  6
CONTINUOUS
 10
90.7812882656
 20
47.577940077
 11
97.7812882656
 21
47.577940077
  0
LINE
  5
22F
100
AcDbEntity
  8
00_COMPONENTS_1
100
AcDbLine
 62
7
  6
CONTINUOUS
 10
68.7812882656
 20
48.3310817799
 11
90.7812882656
 21
48.3310817799
  0
LINE
  5
230
100
AcDbEntity
  8
03_AXES_1
100
AcDbLine
 62
2
  6
CONTINUOUS
 10
34.9133406981
 20
49.3629983555
 11
34.1980629187
 21
49.3629983555
  0
LINE
  5
231
100
AcDbEntity
  8
03_AXES_1
100
AcDbLine
 62
2
  6
CONTINUOUS
 10
33.7739022505
 20
49.3629983555
 11
33.7322507834
 21
49.3629983555
  0
LINE
  5
232
100
AcDbEntity
  8
00_COMPONENTS_1
100
AcDbLine
 62
7
  6
CONTINUOUS
 10
33.7322521173
 20
107.1633051399
 11
33.732260438
 21
107.1629944419
  0
LINE
  5
233
100
AcDbEntity
  8
00_COMPONENTS_1
100
AcDbLine
 62
7
  6
CONTINUOUS
 10
33.7322635865
 20
46.1629983555
 11
33.7322562574
 21
46.1633273012
  0
LINE
  5
234
100
AcDbEntity
  8
INTFCLR_18
100
AcDbLine
 62
7
420
3368703
  6
CONTINUOUS
 10
33.7270304366
 20
113.5629826486
 11
33.7270304366
 21
107.1629944419
  0
LINE
  5
235
100
AcDbEntity
  8
INTFCLR_18
100
AcDbLine
 62
7
420
3368703
  6
CONTINUOUS
 10
33.7270304366
 20
46.1629983555
 11
33.7270304366
 21
52.5626694096
  0
LINE
  5
236
100
AcDbEntity
  8
INTFCLR_18
100
AcDbLine
 62
7
420
3368703
  6
CONTINUOUS
 10
33.7321793575
 20
52.5629983555
 11
33.7321793575
 21
46.1633273012
  0
LINE
  5
237
100
AcDbEntity
  8
00_COMPONENTS_1
100
AcDbLine
 62
7
  6
CONTINUOUS
 10
33.7322521173
 20
43.8629983555
 11
33.7322521173
 21
46.1633273012
  0
LINE
  5
238
100
AcDbEntity
  8
00_COMPONENTS_1
100
AcDbLine
 62
7
  6
CONTINUOUS
 10
33.7322521173
 20
52.5626694099
 11
33.7322521173
 21
53.9029983555
  0
LINE
  5
239
100
AcDbEntity
  8
00_COMPONENTS_1
100
AcDbLine
 62
7
  6
CONTINUOUS
 10
33.7322521173
 20
105.7629983555
 11
33.7322521173
 21
107.1633273012
  0
LINE
  5
23A
100
AcDbEntity
  8
00_COMPONENTS_1
100
AcDbLine
 62
7
  6
CONTINUOUS
 10
33.7322521173
 20
113.5626694099
 11
33.7322521173
 21
115.8129983555
  0
LINE
  5
23B
100
AcDbEntity
  8
00_COMPONENTS_1
100
AcDbLine
 62
7
  6
CONTINUOUS
 10
33.7322562387
 20
52.5626694099
 11
33.7322635562
 21
52.5629983555
  0
LINE
  5
23C
100
AcDbEntity
  8
00_COMPONENTS_1
100
AcDbLine
 62
7
  6
CONTINUOUS
 10
33.732260438
 20
113.5633151782
 11
33.7322521173
 21
113.5629826486
  0
LINE
  5
23D
100
AcDbEntity
  8
INTFCLR_18
100
AcDbLine
 62
7
420
3368703
  6
CONTINUOUS
 10
19.0312882656
 20
53.2129983555
 11
33.7321793575
 21
53.2129983555
  0
LINE
  5
23E
100
AcDbEntity
  8
INTFCLR_18
100
AcDbLine
 62
7
420
3368703
  6
CONTINUOUS
 10
92.2812882656
 20
53.5129983555
 11
97.7812882656
 21
53.5129983555
  0
LINE
  5
23F
100
AcDbEntity
  8
INTFCLR_18
100
AcDbLine
 62
7
420
3368703
  6
CONTINUOUS
 10
21.0312882656
 20
53.9029983555
 11
19.0312882656
 21
53.9029983555
  0
LINE
  5
240
100
AcDbEntity
  8
00_COMPONENTS_1
100
AcDbLine
 62
7
  6
CONTINUOUS
 10
19.2312935682
 20
53.9029983555
 11
35.7312882656
 21
53.9029983555
  0
LINE
  5
241
100
AcDbEntity
  8
INTFCLR_18
100
AcDbLine
 62
7
420
3368703
  6
CONTINUOUS
 10
97.3812882656
 20
53.9129983555
 11
96.7812882656
 21
53.9129983555
  0
LINE
  5
242
100
AcDbEntity
  8
00_COMPONENTS_1
100
AcDbLine
 62
7
  6
CONTINUOUS
 10
96.7812882656
 20
53.9129983555
 11
97.3812882656
 21
53.9129983555
  0
LINE
  5
243
100
AcDbEntity
  8
INTFCLR_18
100
AcDbLine
 62
7
420
3368703
  6
CONTINUOUS
 10
96.7812882656
 20
55.0129983555
 11
92.2812882656
 21
55.0129983555
  0
LINE
  5
244
100
AcDbEntity
  8
00_COMPONENTS_1
100
AcDbLine
 62
7
  6
CONTINUOUS
 10
96.7812882656
 20
55.0129983555
 11
97.7812882656
 21
55.0129983555
  0
LINE
  5
245
100
AcDbEntity
  8
00_COMPONENTS_1
100
AcDbLine
 62
7
  6
CONTINUOUS
 10
35.7312882656
 20
115.8129983555
 11
35.7312882656
 21
105.7629983555
  0
LINE
  5
246
100
AcDbEntity
  8
00_COMPONENTS_1
100
AcDbLine
 62
7
  6
CONTINUOUS
 10
35.7312882656
 20
53.9029983555
 11
35.7312882656
 21
43.8629983555
  0
LINE
  5
247
100
AcDbEntity
  8
03_AXES_1
100
AcDbLine
 62
2
  6
CONTINUOUS
 10
20.6143849419
 20
60.7129983555
 11
19.8490057603
 21
60.7129983555
  0
LINE
  5
248
100
AcDbEntity
  8
03_AXES_1
100
AcDbLine
 62
2
  6
CONTINUOUS
 10
19.5235223673
 20
60.7129983555
 11
19.2544674083
 21
60.7129983555
  0
LINE
  5
249
100
AcDbEntity
  8
00_COMPONENTS_1
100
AcDbLine
 62
7
  6
CONTINUOUS
 10
92.8812882656
 20
60.9629983555
 11
92.9812882656
 21
60.9629983555
  0
LINE
  5
24A
100
AcDbEntity
  8
00_COMPONENTS_1
100
AcDbLine
 62
7
  6
CONTINUOUS
 10
93.5812882656
 20
62.3629983555
 11
92.2812882656
 21
62.3629983555
  0
LINE
  5
24B
100
AcDbEntity
  8
00_COMPONENTS_1
100
AcDbLine
 62
7
  6
CONTINUOUS
 10
64.7812882656
 20
63.362998355
 11
90.7812882656
 21
63.362998355
  0
LINE
  5
24C
100
AcDbEntity
  8
00_COMPONENTS_1
100
AcDbLine
 62
7
  6
CONTINUOUS
 10
93.9812882656
 20
63.3629983555
 11
94.2812882656
 21
63.3629983555
  0
LINE
  5
24D
100
AcDbEntity
  8
INTFCLR_18
100
AcDbLine
 62
7
420
3368703
  6
CONTINUOUS
 10
97.7812882656
 20
63.4129983555
 11
92.2812882656
 21
63.4129983555
  0
LINE
  5
24E
100
AcDbEntity
  8
00_COMPONENTS_1
100
AcDbLine
 62
7
  6
CONTINUOUS
 10
21.0312882656
 20
65.0029983555
 11
19.0312882656
 21
65.0029983555
  0
LINE
  5
24F
100
AcDbEntity
  8
00_COMPONENTS_1
100
AcDbLine
 62
7
  6
CONTINUOUS
 10
18.9312882656
 20
65.3129983555
 11
12.2312882656
 21
65.3129983555
  0
LINE
  5
250
100
AcDbEntity
  8
00_COMPONENTS_1
100
AcDbLine
 62
7
  6
CONTINUOUS
 10
12.2312882656
 20
69.3129983555
 11
18.9312882656
 21
69.3129983555
  0
LINE
  5
251
100
AcDbEntity
  8
00_COMPONENTS_1
100
AcDbLine
 62
7
  6
CONTINUOUS
 10
64.7812882656
 20
115.8129983555
 11
64.7812882656
 21
43.8629983555
  0
LINE
  5
252
100
AcDbEntity
  8
00_COMPONENTS_1
100
AcDbLine
 62
7
  6
CONTINUOUS
 10
94.2812882656
 20
63.3629983555
 11
97.7812882656
 21
60.9122719718
  0
LINE
  5
253
100
AcDbEntity
  8
INTFCLR_18
100
AcDbLine
 62
7
420
3368703
  6
CONTINUOUS
 10
68.7812882656
 20
115.8129983555
 11
68.7812882656
 21
43.8629983555
  0
LINE
  5
254
100
AcDbEntity
  8
00_COMPONENTS_1
100
AcDbLine
 62
7
  6
CONTINUOUS
 10
68.7812882656
 20
48.3310817799
 11
68.7812882656
 21
43.8629983555
  0
LINE
  5
255
100
AcDbEntity
  8
00_COMPONENTS_1
100
AcDbLine
 62
7
  6
CONTINUOUS
 10
68.7812882656
 20
110.862998355
 11
68.7812882656
 21
115.8129983555
  0
LINE
  5
256
100
AcDbEntity
  8
00_COMPONENTS_1
100
AcDbLine
 62
7
  6
CONTINUOUS
 10
97.7812882656
 20
100.5629983555
 11
96.7812882656
 21
99.5629983555
  0
LINE
  5
257
100
AcDbEntity
  8
00_COMPONENTS_1
100
AcDbLine
 62
7
  6
CONTINUOUS
 10
18.9312882656
 20
90.6629983555
 11
12.2312882656
 21
90.6629983555
  0
LINE
  5
258
100
AcDbEntity
  8
INTFCLR_18
100
AcDbLine
 62
7
420
3368703
  6
CONTINUOUS
 10
97.7812882656
 20
53.5129983555
 11
97.3812882656
 21
53.9129983555
  0
LINE
  5
259
100
AcDbEntity
  8
00_COMPONENTS_1
100
AcDbLine
 62
7
  6
CONTINUOUS
 10
97.3812882656
 20
53.9129983555
 11
97.7812882656
 21
53.5129983555
  0
LINE
  5
25A
100
AcDbEntity
  8
00_COMPONENTS_1
100
AcDbLine
 62
7
  6
CONTINUOUS
 10
21.0312882656
 20
94.6629983555
 11
19.0312882656
 21
94.6629983555
  0
LINE
  5
25B
100
AcDbEntity
  8
00_COMPONENTS_1
100
AcDbLine
 62
7
  6
CONTINUOUS
 10
12.2312882656
 20
94.6629983555
 11
18.9312882656
 21
94.6629983555
  0
LINE
  5
25C
100
AcDbEntity
  8
00_COMPONENTS_1
100
AcDbLine
 62
7
  6
CONTINUOUS
 10
93.2812882656
 20
95.6629983555
 11
97.7812882656
 21
95.6629983555
  0
LINE
  5
25D
100
AcDbEntity
  8
INTFCLR_18
100
AcDbLine
 62
7
420
3368703
  6
CONTINUOUS
 10
92.2812882656
 20
95.7129983555
 11
93.2812882656
 21
95.7129983555
  0
LINE
  5
25E
100
AcDbEntity
  8
00_COMPONENTS_1
100
AcDbLine
 62
7
  6
CONTINUOUS
 10
64.7812882656
 20
96.362998355
 11
90.7812882656
 21
96.362998355
  0
LINE
  5
25F
100
AcDbEntity
  8
00_COMPONENTS_1
100
AcDbLine
 62
7
  6
CONTINUOUS
 10
91.5812882656
 20
96.5629983555
 11
92.119749804
 21
96.5629983555
  0
LINE
  5
260
100
AcDbEntity
  8
03_AXES_1
100
AcDbLine
 62
2
  6
CONTINUOUS
 10
20.6143849419
 20
99.3129983555
 11
19.8490057603
 21
99.3129983555
  0
LINE
  5
261
100
AcDbEntity
  8
03_AXES_1
100
AcDbLine
 62
2
  6
CONTINUOUS
 10
19.5235223673
 20
99.3129983555
 11
19.2544674083
 21
99.3129983555
  0
LINE
  5
262
100
AcDbEntity
  8
00_COMPONENTS_1
100
AcDbLine
 62
7
  6
CONTINUOUS
 10
96.7812882656
 20
99.5629983555
 11
91.5812882656
 21
99.5629983555
  0
LINE
  5
263
100
AcDbEntity
  8
00_COMPONENTS_1
100
AcDbLine
 62
7
  6
CONTINUOUS
 10
81.7812882656
 20
111.9849202761
 11
81.7812882656
 21
112.8626737758
  0
LINE
  5
264
100
AcDbEntity
  8
00_COMPONENTS_1
100
AcDbLine
 62
7
  6
CONTINUOUS
 10
35.7312882656
 20
105.7629983555
 11
19.2312935682
 21
105.7629983555
  0
LINE
  5
265
100
AcDbEntity
  8
INTFCLR_18
100
AcDbLine
 62
7
420
3368703
  6
CONTINUOUS
 10
33.7270304366
 20
106.8129983555
 11
19.0312882656
 21
106.8129983555
  0
LINE
  5
266
100
AcDbEntity
  8
00_COMPONENTS_1
100
AcDbLine
 62
7
  6
CONTINUOUS
 10
90.7812882656
 20
41.4129983555
 11
90.7812882656
 21
118.3629745131
  0
LINE
  5
267
100
AcDbEntity
  8
INTFCLR_18
100
AcDbLine
 62
7
420
3368703
  6
CONTINUOUS
 10
90.7812882656
 20
41.4129983555
 11
90.7812882656
 21
118.4129983555
  0
LINE
  5
268
100
AcDbEntity
  8
03_AXES_1
100
AcDbLine
 62
2
  6
CONTINUOUS
 10
34.9094820111
 20
110.3629983555
 11
34.2004810121
 21
110.3629983555
  0
LINE
  5
269
100
AcDbEntity
  8
03_AXES_1
100
AcDbLine
 62
2
  6
CONTINUOUS
 10
33.7739022505
 20
110.3629983555
 11
33.7322528197
 21
110.3629983555
  0
LINE
  5
26A
100
AcDbEntity
  8
00_COMPONENTS_1
100
AcDbLine
 62
7
  6
CONTINUOUS
 10
90.7812882656
 20
110.862998355
 11
68.7812882656
 21
110.862998355
  0
LINE
  5
26B
100
AcDbEntity
  8
00_COMPONENTS_1
100
AcDbLine
 62
7
  6
CONTINUOUS
 10
81.7812882656
 20
111.9849202761
 11
90.7812882656
 21
111.9849202761
  0
LINE
  5
26C
100
AcDbEntity
  8
00_COMPONENTS_1
100
AcDbLine
 62
7
  6
CONTINUOUS
 10
81.7812882656
 20
112.8629983551
 11
68.7812882656
 21
112.8629983551
  0
LINE
  5
26D
100
AcDbEntity
  8
INTFCLR_18
100
AcDbLine
 62
7
420
3368703
  6
CONTINUOUS
 10
90.7812882656
 20
112.9219514252
 11
68.7812882656
 21
112.9219514252
  0
LINE
  5
26E
100
AcDbEntity
  8
00_COMPONENTS_1
100
AcDbLine
 62
7
  6
CONTINUOUS
 10
91.5812882656
 20
99.5629983555
 11
91.5812882656
 21
96.5629983555
  0
LINE
  5
26F
100
AcDbEntity
  8
00_COMPONENTS_1
100
AcDbLine
 62
7
  6
CONTINUOUS
 10
92.2772177349
 20
95.7085493777
 11
92.2812882656
 21
61.5629983555
  0
LINE
  5
270
100
AcDbEntity
  8
INTFCLR_18
100
AcDbLine
 62
7
420
3368703
  6
CONTINUOUS
 10
92.2812882656
 20
55.0129983555
 11
92.2812882656
 21
53.5129983555
  0
LINE
  5
271
100
AcDbEntity
  8
00_COMPONENTS_1
100
AcDbLine
 62
7
  6
CONTINUOUS
 10
93.2812882656
 20
99.5629983555
 11
93.2812882656
 21
95.6629983555
  0
LINE
  5
272
100
AcDbEntity
  8
00_COMPONENTS_1
100
AcDbLine
 62
7
  6
CONTINUOUS
 10
93.5812882656
 20
61.5629983555
 11
93.5812882656
 21
62.9629983555
  0
LINE
  5
273
100
AcDbEntity
  8
00_COMPONENTS_1
100
AcDbLine
 62
7
  6
CONTINUOUS
 10
93.5812882656
 20
62.9629983555
 11
93.9812882656
 21
63.3629983555
  0
LINE
  5
274
100
AcDbEntity
  8
00_COMPONENTS_1
100
AcDbLine
 62
7
  6
CONTINUOUS
 10
97.7812882656
 20
115.7791968426
 11
90.7812882656
 21
115.7791968426
  0
LINE
  5
275
100
AcDbEntity
  8
INTFCLR_18
100
AcDbLine
 62
7
420
3368703
  6
CONTINUOUS
 10
19.0312882656
 20
115.8129983555
 11
35.7312882656
 21
115.8129983555
  0
LINE
  5
276
100
AcDbEntity
  8
00_COMPONENTS_1
100
AcDbLine
 62
7
  6
CONTINUOUS
 10
33.7323319678
 20
115.8129983555
 11
68.7812882656
 21
115.8129983555
  0
LINE
  5
277
100
AcDbEntity
  8
00_COMPONENTS_1
100
AcDbLine
 62
7
  6
CONTINUOUS
 10
92.119749804
 20
96.5629983555
 11
92.2772177349
 21
95.7085493777
  0
LINE
  5
278
100
AcDbEntity
  8
00_COMPONENTS_1
100
AcDbLine
 62
7
  6
CONTINUOUS
 10
96.2812882656
 20
54.5129983555
 11
96.2812882656
 21
54.4129983555
  0
LINE
  5
279
100
AcDbEntity
  8
INTFCLR_18
100
AcDbLine
 62
7
420
3368703
  6
CONTINUOUS
 10
96.2812882656
 20
54.4129983555
 11
96.2812882656
 21
54.5129983555
  0
LINE
  5
27A
100
AcDbEntity
  8
INTFCLR_18
100
AcDbLine
 62
7
420
3368703
  6
CONTINUOUS
 10
97.7812882656
 20
100.5629983555
 11
97.7812882656
 21
60.9122719718
  0
LINE
  5
27B
100
AcDbEntity
  8
00_COMPONENTS_1
100
AcDbLine
 62
7
  6
CONTINUOUS
 10
97.7812882656
 20
60.9122719718
 11
97.7812882656
 21
55.0129983555
  0
LINE
  5
27C
100
AcDbEntity
  8
INTFCLR_18
100
AcDbLine
 62
7
420
3368703
  6
CONTINUOUS
 10
97.7812882656
 20
55.0129983555
 11
97.7812882656
 21
53.5129983555
  0
LINE
  5
27D
100
AcDbEntity
  8
INTFCLR_18
100
AcDbLine
 62
7
420
3368703
  6
CONTINUOUS
 10
97.7812882656
 20
47.577940077
 11
97.7812882656
 21
34.528686546
  0
LINE
  5
27E
100
AcDbEntity
  8
00_COMPONENTS_1
100
AcDbLine
 62
7
  6
CONTINUOUS
 10
97.7812882656
 20
41.4129983555
 11
97.7812882656
 21
53.5129983555
  0
LINE
  5
27F
100
AcDbEntity
  8
00_COMPONENTS_1
100
AcDbLine
 62
7
  6
CONTINUOUS
 10
97.7812882656
 20
95.6629983555
 11
97.7812882656
 21
118.3629745131
  0
LINE
  5
280
100
AcDbEntity
  8
INTFCLR_18
100
AcDbLine
 62
7
420
3368703
  6
CONTINUOUS
 10
97.7812882656
 20
118.3629983555
 11
97.7812882656
 21
118.4129983555
  0
LINE
  5
281
100
AcDbEntity
  8
00_COMPONENTS_1
100
AcDbLine
 62
7
  6
CONTINUOUS
 10
97.7812882656
 20
117.6332464644
 11
90.7812882656
 21
117.6332464644
  0
LINE
  5
282
100
AcDbEntity
  8
00_COMPONENTS_1
100
AcDbLine
 62
7
  6
CONTINUOUS
 10
97.7812882656
 20
118.3629983555
 11
90.7812882656
 21
118.3629983555
  0
LINE
  5
283
100
AcDbEntity
  8
INTFCLR_18
100
AcDbLine
 62
7
420
3368703
  6
CONTINUOUS
 10
97.7812882656
 20
118.4129983555
 11
90.7812882656
 21
118.4129983555
  0
ARC
  5
284
100
AcDbEntity
  8
00_COMPONENTS_1
100
AcDbCircle
 62
7
  6
CONTINUOUS
 10
92.9812882656
 20
61.5629983555
 40
0.6
100
AcDbArc
 50
270.0
 51
360.0
  0
ARC
  5
285
100
AcDbEntity
  8
00_COMPONENTS_1
100
AcDbCircle
 62
7
  6
CONTINUOUS
 10
92.8812882656
 20
61.5629983555
 40
0.6
100
AcDbArc
 50
180.0
 51
270.0
  0
ARC
  5
286
100
AcDbEntity
  8
00_COMPONENTS_1
100
AcDbCircle
 62
7
  6
CONTINUOUS
 10
96.7812882656
 20
54.4129983555
 40
0.5
100
AcDbArc
 50
180.0
 51
270.0
  0
ARC
  5
287
100
AcDbEntity
  8
00_COMPONENTS_1
100
AcDbCircle
 62
7
  6
CONTINUOUS
 10
96.7812882656
 20
54.5129983555
 40
0.5
100
AcDbArc
 50
90.0
 51
180.0
  0
ARC
  5
288
100
AcDbEntity
  8
INTFCLR_18
100
AcDbCircle
 62
7
420
3368703
  6
CONTINUOUS
 10
96.7812882656
 20
54.5129983555
 40
0.5
100
AcDbArc
 50
90.0
 51
180.0
  0
ARC
  5
289
100
AcDbEntity
  8
INTFCLR_18
100
AcDbCircle
 62
7
420
3368703
  6
CONTINUOUS
 10
96.7812882656
 20
54.4129983555
 40
0.5
100
AcDbArc
 50
180.0
 51
270.0
  0
SPLINE
  5
28A
100
AcDbEntity
  8
00_COMPONENTS_1
100
AcDbSpline
 62
7
  6
CONTINUOUS
 70
0
 71
3
 72
19
 73
15
 74
0
 42
0.0000001
 43
0.0000001
 44
0.0000000001
 40
0.0
 40
0.0
 40
0.0
 40
0.0
 40
0.0122855016
 40
0.0204647558
 40
0.0304405315
 40
0.0562907634
 40
0.0903621378
 40
0.1326475594
 40
0.1828892985
 40
0.2407390592
 40
0.305701262
 40
0.4546524894
 40
0.6243350653
 40
1.0
 40
1.0
 40
1.0
 40
1.0
 10
20.1932620102
 20
63.9629674808
 30
0.0
 10
20.2068725573
 20
63.9629665446
 30
0.0
 10
20.2290409506
 20
63.9515731497
 30
0.0
 10
20.2518429001
 20
63.9269855761
 30
0.0
 10
20.2796167991
 20
63.8866045731
 30
0.0
 10
20.3122709868
 20
63.8160422635
 30
0.0
 10
20.3489393052
 20
63.7088265914
 30
0.0
 10
20.3848850536
 20
63.5731603639
 30
0.0
 10
20.4198018249
 20
63.4102249023
 30
0.0
 10
20.4530919027
 20
63.2213822394
 30
0.0
 10
20.4967680093
 20
62.9234618118
 30
0.0
 10
20.5427874011
 20
62.5008437944
 30
0.0
 10
20.5986592643
 20
61.7336029591
 30
0.0
 10
20.6143849419
 20
61.1291804101
 30
0.0
 10
20.6143849419
 20
60.7129983555
 30
0.0
  0
SPLINE
  5
28B
100
AcDbEntity
  8
00_COMPONENTS_1
100
AcDbSpline
 62
7
  6
CONTINUOUS
 70
0
 71
3
 72
20
 73
16
 74
0
 42
0.0000001
 43
0.0000001
 44
0.0000000001
 40
0.0
 40
0.0
 40
0.0
 40
0.0
 40
0.011793006
 40
0.019817504
 40
0.0296881109
 40
0.0554189499
 40
0.0894117311
 40
0.131621098
 40
0.1818231889
 40
0.2397041764
 40
0.3047503715
 40
0.4539103956
 40
0.6238197184
 40
0.8082587731
 40
1.0
 40
1.0
 40
1.0
 40
1.0
 10
34.5144632745
 20
46.1628772777
 30
0.0
 10
34.5273069177
 20
46.1628703538
 30
0.0
 10
34.5482391346
 20
46.1744118446
 30
0.0
 10
34.5693837303
 20
46.1985511615
 30
0.0
 10
34.5955133517
 20
46.2385508769
 30
0.0
 10
34.6261788155
 20
46.3081558285
 30
0.0
 10
34.6607874651
 20
46.4137185806
 30
0.0
 10
34.6948096352
 20
46.5471999492
 30
0.0
 10
34.7279168209
 20
46.7075358227
 30
0.0
 10
34.7595032089
 20
46.893457938
 30
0.0
 10
34.8010062525
 20
47.1868932615
 30
0.0
 10
34.8448595586
 20
47.603054359
 30
0.0
 10
34.8835835066
 20
48.1501333285
 30
0.0
 10
34.9078422662
 20
48.7444592164
 30
0.0
 10
34.9133406981
 20
49.1541749006
 30
0.0
 10
34.9133406981
 20
49.3629983555
 30
0.0
  0
SPLINE
  5
28C
100
AcDbEntity
  8
00_COMPONENTS_1
100
AcDbSpline
 62
7
  6
CONTINUOUS
 70
0
 71
3
 72
29
 73
25
 74
0
 42
0.0000001
 43
0.0000001
 44
0.0000000001
 40
0.0
 40
0.0
 40
0.0
 40
0.0
 40
0.0003030492
 40
0.0012100836
 40
0.0027192327
 40
0.0048285667
 40
0.0075361488
 40
0.0108400407
 40
0.019228997
 40
0.0299799209
 40
0.0430757981
 40
0.0584822999
 40
0.0761539724
 40
0.0960451816
 40
0.1181102968
 40
0.1685693202
 40
0.2270350951
 40
0.2929342383
 40
0.3656603591
 40
0.4444803143
 40
0.5286290881
 40
0.6173173357
 40
0.8049866807
 40
1.0
 40
1.0
 40
1.0
 40
1.0
 10
33.7322635565
 20
52.5629983555
 30
0.0
 10
33.7325868456
 20
52.562998112
 30
0.0
 10
33.7319202784
 20
52.5609250561
 30
0.0
 10
33.7327127076
 20
52.5587811613
 30
0.0
 10
33.7324669487
 20
52.553525898
 30
0.0
 10
33.7328392481
 20
52.5469698214
 30
0.0
 10
33.7330176794
 20
52.538236843
 30
0.0
 10
33.7334749159
 20
52.5229153722
 30
0.0
 10
33.7340971284
 20
52.4989584931
 30
0.0
 10
33.7350067796
 20
52.4645914734
 30
0.0
 10
33.7360777596
 20
52.4227267356
 30
0.0
 10
33.7373157652
 20
52.3734855607
 30
0.0
 10
33.7387010124
 20
52.3169950458
 30
0.0
 10
33.7402219138
 20
52.2534029206
 30
0.0
 10
33.7425157734
 20
52.1548419728
 30
0.0
 10
33.7456247828
 20
52.0151380783
 30
0.0
 10
33.7494987646
 20
51.8286781524
 30
0.0
 10
33.7535161936
 20
51.618462082
 30
0.0
 10
33.7575252889
 20
51.3865286445
 30
0.0
 10
33.7613806422
 20
51.1351216008
 30
0.0
 10
33.7649280591
 20
50.8666801777
 30
0.0
 10
33.769147831
 20
50.4821191852
 30
0.0
 10
33.7728760438
 20
49.97927818
 30
0.0
 10
33.7739022505
 20
49.5710362198
 30
0.0
 10
33.7739022505
 20
49.3629983555
 30
0.0
  0
SPLINE
  5
28D
100
AcDbEntity
  8
00_COMPONENTS_1
100
AcDbSpline
 62
7
  6
CONTINUOUS
 70
0
 71
3
 72
19
 73
15
 74
0
 42
0.0000001
 43
0.0000001
 44
0.0000000001
 40
0.0
 40
0.0
 40
0.0
 40
0.0
 40
0.0123123003
 40
0.0204975146
 40
0.0304613796
 40
0.0562587982
 40
0.0903005569
 40
0.1326096199
 40
0.1828853005
 40
0.2407371266
 40
0.3056793958
 40
0.4546197879
 40
0.6243151946
 40
1.0
 40
1.0
 40
1.0
 40
1.0
 10
20.1932592128
 20
96.0630531222
 30
0.0
 10
20.2068984208
 20
96.0631599862
 30
0.0
 10
20.2290014779
 20
96.0746919004
 30
0.0
 10
20.2518188332
 20
96.0992865681
 30
0.0
 10
20.2795996081
 20
96.1395808949
 30
0.0
 10
20.3123007837
 20
96.2100029149
 30
0.0
 10
20.3489672811
 20
96.3171492163
 30
0.0
 10
20.3848843449
 20
96.4528483098
 30
0.0
 10
20.419784659
 20
96.6158469873
 30
0.0
 10
20.4530788401
 20
96.8046979779
 30
0.0
 10
20.4967650177
 20
97.1025712785
 30
0.0
 10
20.5427821983
 20
97.5251506917
 30
0.0
 10
20.5986554449
 20
98.2923811174
 30
0.0
 10
20.6143849419
 20
98.8968128868
 30
0.0
 10
20.6143849419
 20
99.3129983555
 30
0.0
  0
SPLINE
  5
28E
100
AcDbEntity
  8
00_COMPONENTS_1
100
AcDbSpline
 62
7
  6
CONTINUOUS
 70
0
 71
3
 72
21
 73
17
 74
0
 42
0.0000001
 43
0.0000001
 44
0.0000000001
 40
0.0
 40
0.0
 40
0.0
 40
0.0
 40
0.0023732049
 40
0.0065320432
 40
0.0215111215
 40
0.0456568719
 40
0.0788589101
 40
0.1208558003
 40
0.171246952
 40
0.2295908555
 40
0.2953171727
 40
0.3678069537
 40
0.4463732632
 40
0.6186349889
 40
0.805632437
 40
1.0
 40
1.0
 40
1.0
 40
1.0
 10
19.3512473187
 20
96.0630550933
 30
0.0
 10
19.353828974
 20
96.0630555133
 30
0.0
 10
19.3600734345
 20
96.0682169791
 30
0.0
 10
19.3698754487
 20
96.0890899391
 30
0.0
 10
19.3820151385
 20
96.1352413323
 30
0.0
 10
19.3956001103
 20
96.2124712061
 30
0.0
 10
19.4099171728
 20
96.3197378215
 30
0.0
 10
19.4243500762
 20
96.4555560387
 30
0.0
 10
19.4387020676
 20
96.6189221541
 30
0.0
 10
19.452653908
 20
96.8081930017
 30
0.0
 10
19.4659780368
 20
97.0216078741
 30
0.0
 10
19.4784131609
 20
97.2571059589
 30
0.0
 10
19.4939816831
 20
97.6084812637
 30
0.0
 10
19.5094568111
 20
98.0845302253
 30
0.0
 10
19.5209152804
 20
98.6866911311
 30
0.0
 10
19.5235223673
 20
99.1015585229
 30
0.0
 10
19.5235223673
 20
99.3129983555
 30
0.0
  0
SPLINE
  5
28F
100
AcDbEntity
  8
00_COMPONENTS_1
100
AcDbSpline
 62
7
  6
CONTINUOUS
 70
0
 71
3
 72
21
 73
17
 74
0
 42
0.0000001
 43
0.0000001
 44
0.0000000001
 40
0.0
 40
0.0
 40
0.0
 40
0.0
 40
0.0023728425
 40
0.006530649
 40
0.021506611
 40
0.0456506759
 40
0.07885588
 40
0.1208601268
 40
0.1712559299
 40
0.2295969611
 40
0.2953180785
 40
0.3678071247
 40
0.4463769024
 40
0.6186293233
 40
0.8056196719
 40
1.0
 40
1.0
 40
1.0
 40
1.0
 10
19.3512511651
 20
102.5629699862
 30
0.0
 10
19.3538324485
 20
102.5629701373
 30
0.0
 10
19.3600771519
 20
102.5578114934
 30
0.0
 10
19.3698787399
 20
102.5369427178
 30
0.0
 10
19.382015818
 20
102.4907972214
 30
0.0
 10
19.3955976708
 20
102.4135677121
 30
0.0
 10
19.4099147597
 20
102.3062905648
 30
0.0
 10
19.4243508673
 20
102.1704548784
 30
0.0
 10
19.4387027722
 20
102.0070773279
 30
0.0
 10
19.452644839
 20
101.8178078156
 30
0.0
 10
19.4659575381
 20
101.6043999988
 30
0.0
 10
19.4783921826
 20
101.3689025747
 30
0.0
 10
19.4939782612
 20
101.0175321794
 30
0.0
 10
19.509466289
 20
100.5414934347
 30
0.0
 10
19.5209075071
 20
99.9393309538
 30
0.0
 10
19.5235223673
 20
99.524453905
 30
0.0
 10
19.5235223673
 20
99.3129983555
 30
0.0
  0
SPLINE
  5
290
100
AcDbEntity
  8
00_COMPONENTS_1
100
AcDbSpline
 62
7
  6
CONTINUOUS
 70
0
 71
3
 72
29
 73
25
 74
0
 42
0.0000001
 43
0.0000001
 44
0.0000000001
 40
0.0
 40
0.0
 40
0.0
 40
0.0
 40
0.0003003362
 40
0.0012006537
 40
0.0027010435
 40
0.0048015365
 40
0.0075021458
 40
0.0108018095
 40
0.0191860395
 40
0.029928673
 40
0.0430039505
 40
0.0583861133
 40
0.0760470481
 40
0.0959405002
 40
0.1180117931
 40
0.1684690281
 40
0.2269525899
 40
0.2928704074
 40
0.3655930649
 40
0.4444214648
 40
0.5285810459
 40
0.6172823731
 40
0.8049479094
 40
1.0
 40
1.0
 40
1.0
 40
1.0
 10
33.7322630018
 20
107.1632150405
 30
0.0
 10
33.7325833708
 20
107.1632133665
 30
0.0
 10
33.7319216737
 20
107.1652746402
 30
0.0
 10
33.7327078964
 20
107.1673995116
 30
0.0
 10
33.7324620467
 20
107.1726290692
 30
0.0
 10
33.7328322503
 20
107.1791578767
 30
0.0
 10
33.7330100173
 20
107.187869306
 30
0.0
 10
33.7334682341
 20
107.2031724504
 30
0.0
 10
33.7340933306
 20
107.227109415
 30
0.0
 10
33.7350056613
 20
107.2614380869
 30
0.0
 10
33.7360754491
 20
107.3032432474
 30
0.0
 10
33.7373105125
 20
107.3524217428
 30
0.0
 10
33.7386956577
 20
107.4088734028
 30
0.0
 10
33.7402186824
 20
107.4724586971
 30
0.0
 10
33.7425160432
 20
107.5710199668
 30
0.0
 10
33.7456246811
 20
107.7107380733
 30
0.0
 10
33.7494986531
 20
107.8972223675
 30
0.0
 10
33.7535181228
 20
108.1074593717
 30
0.0
 10
33.7575283066
 20
108.3394023292
 30
0.0
 10
33.7613803103
 20
108.5908092482
 30
0.0
 10
33.764930271
 20
108.859266958
 30
0.0
 10
33.7691459972
 20
109.2438233862
 30
0.0
 10
33.7728769122
 20
109.7466815783
 30
0.0
 10
33.7739022505
 20
110.154933213
 30
0.0
 10
33.7739022505
 20
110.3629983555
 30
0.0
  0
SPLINE
  5
291
100
AcDbEntity
  8
00_COMPONENTS_1
100
AcDbSpline
 62
7
  6
CONTINUOUS
 70
0
 71
3
 72
20
 73
16
 74
0
 42
0.0000001
 43
0.0000001
 44
0.0000000001
 40
0.0
 40
0.0
 40
0.0
 40
0.0
 40
0.0117955571
 40
0.0198059008
 40
0.02965232
 40
0.0553300862
 40
0.0893109493
 40
0.1315743153
 40
0.1818365598
 40
0.2397286669
 40
0.3047535917
 40
0.4538892482
 40
0.6238096002
 40
0.8082478753
 40
1.0
 40
1.0
 40
1.0
 40
1.0
 10
34.5144629711
 20
107.1910967234
 30
0.0
 10
34.5271960142
 20
107.1911214791
 30
0.0
 10
34.547910604
 20
107.2025465672
 30
0.0
 10
34.5688950168
 20
107.2264016557
 30
0.0
 10
34.5948024872
 20
107.2659246344
 30
0.0
 10
34.6252185495
 20
107.3348056709
 30
0.0
 10
34.6594921904
 20
107.4394362244
 30
0.0
 10
34.6931422006
 20
107.5718723581
 30
0.0
 10
34.7259051956
 20
107.7309412504
 30
0.0
 10
34.7571964824
 20
107.9152798953
 30
0.0
 10
34.7983175845
 20
108.2060905873
 30
0.0
 10
34.8417323611
 20
108.618547813
 30
0.0
 10
34.8800476735
 20
109.160788529
 30
0.0
 10
34.9040521258
 20
109.7498944473
 30
0.0
 10
34.9094820111
 20
110.1560057867
 30
0.0
 10
34.9094820111
 20
110.3629983555
 30
0.0
  0
SPLINE
  5
292
100
AcDbEntity
  8
00_COMPONENTS_1
100
AcDbSpline
 62
7
  6
CONTINUOUS
 70
0
 71
3
 72
20
 73
16
 74
0
 42
0.0000001
 43
0.0000001
 44
0.0000000001
 40
0.0
 40
0.0
 40
0.0
 40
0.0
 40
0.0117968708
 40
0.019804329
 40
0.0296425749
 40
0.0553273231
 40
0.0893275017
 40
0.1315709387
 40
0.1818330303
 40
0.2397159068
 40
0.3047371365
 40
0.4538793886
 40
0.6237987827
 40
0.808281869
 40
1.0
 40
1.0
 40
1.0
 40
1.0
 10
34.5144561858
 20
113.5349344304
 30
0.0
 10
34.527190863
 20
113.5349280612
 30
0.0
 10
34.5479062688
 20
113.5234887935
 30
0.0
 10
34.5688961836
 20
113.4996585409
 30
0.0
 10
34.5948265258
 20
113.4601516877
 30
0.0
 10
34.6252160719
 20
113.39123323
 30
0.0
 10
34.6594649997
 20
113.2865885227
 30
0.0
 10
34.693143879
 20
113.1541582553
 30
0.0
 10
34.7258950557
 20
112.9951165002
 30
0.0
 10
34.7572107292
 20
112.8107936594
 30
0.0
 10
34.7983196
 20
112.5199830149
 30
0.0
 10
34.841681412
 20
112.1075121836
 30
0.0
 10
34.8800288975
 20
111.5652116884
 30
0.0
 10
34.9040607915
 20
110.9760867187
 30
0.0
 10
34.9094820111
 20
110.5699573751
 30
0.0
 10
34.9094820111
 20
110.3629983555
 30
0.0
  0
SPLINE
  5
293
100
AcDbEntity
  8
00_COMPONENTS_1
100
AcDbSpline
 62
7
  6
CONTINUOUS
 70
0
 71
3
 72
19
 73
15
 74
0
 42
0.0000001
 43
0.0000001
 44
0.0000000001
 40
0.0
 40
0.0
 40
0.0
 40
0.0
 40
0.3756954977
 40
0.5453652286
 40
0.6943030989
 40
0.7592678622
 40
0.8171242875
 40
0.8673726339
 40
0.9096564295
 40
0.9437128556
 40
0.9695484478
 40
0.9795226205
 40
0.9877056692
 40
1.0
 40
1.0
 40
1.0
 40
1.0
 10
20.6143849419
 20
99.3129983555
 30
0.0
 10
20.6143849419
 20
99.7292055788
 30
0.0
 10
20.5986656057
 20
100.3336353349
 30
0.0
 10
20.5427797319
 20
101.1008645957
 30
0.0
 10
20.4967325506
 20
101.5234438709
 30
0.0
 10
20.4530713753
 20
101.8213553192
 30
0.0
 10
20.4197905997
 20
102.01021337
 30
0.0
 10
20.3848782983
 20
102.1731595728
 30
0.0
 10
20.3489353225
 20
102.3088120354
 30
0.0
 10
20.3122609948
 20
102.4159880975
 30
0.0
 10
20.2795948206
 20
102.4865037159
 30
0.0
 10
20.2518231482
 20
102.5268686192
 30
0.0
 10
20.2290229419
 20
102.5514684882
 30
0.0
 10
20.2068788576
 20
102.5629242075
 30
0.0
 10
20.1932588606
 20
102.5629600785
 30
0.0
  0
SPLINE
  5
294
100
AcDbEntity
  8
00_COMPONENTS_1
100
AcDbSpline
 62
7
  6
CONTINUOUS
 70
0
 71
3
 72
29
 73
25
 74
0
 42
0.0000001
 43
0.0000001
 44
0.0000000001
 40
0.0
 40
0.0
 40
0.0
 40
0.0
 40
0.1950609713
 40
0.382712358
 40
0.4714509574
 40
0.5556794798
 40
0.6345683862
 40
0.7072983655
 40
0.7731961819
 40
0.8317056936
 40
0.8822709671
 40
0.9043980471
 40
0.9243269546
 40
0.9419874474
 40
0.9573328399
 40
0.9703469096
 40
0.981015454
 40
0.9893242686
 40
0.9925893424
 40
0.9952597971
 40
0.9973357778
 40
0.9988175878
 40
0.9997055373
 40
1.0
 40
1.0
 40
1.0
 40
1.0
 10
33.7739022505
 20
110.3629983555
 30
0.0
 10
33.7739022505
 20
110.5710273943
 30
0.0
 10
33.7728821816
 20
110.9791840056
 30
0.0
 10
33.7691443873
 20
111.481966136
 30
0.0
 10
33.7649269319
 20
111.8665364868
 30
0.0
 10
33.7613775004
 20
112.1351132067
 30
0.0
 10
33.7575292086
 20
112.3866109811
 30
0.0
 10
33.7535186206
 20
112.6185541304
 30
0.0
 10
33.7494951328
 20
112.8287591454
 30
0.0
 10
33.7456183206
 20
113.0153241051
 30
0.0
 10
33.7425140294
 20
113.1552141194
 30
0.0
 10
33.7402192289
 20
113.25396645
 30
0.0
 10
33.7386979507
 20
113.3176346787
 30
0.0
 10
33.737314173
 20
113.3740722398
 30
0.0
 10
33.7360788966
 20
113.4231346151
 30
0.0
 10
33.7350079768
 20
113.4647479977
 30
0.0
 10
33.7340949042
 20
113.4988416374
 30
0.0
 10
33.7334676115
 20
113.5225830001
 30
0.0
 10
33.7330108131
 20
113.537724025
 30
0.0
 10
33.7328294248
 20
113.5463575284
 30
0.0
 10
33.7324686909
 20
113.5527573484
 30
0.0
 10
33.7326921554
 20
113.5580377738
 30
0.0
 10
33.7319457812
 20
113.55992966
 30
0.0
 10
33.7325634134
 20
113.5621676648
 30
0.0
 10
33.7322617606
 20
113.5620803366
 30
0.0
  0
SPLINE
  5
295
100
AcDbEntity
  8
00_COMPONENTS_1
100
AcDbSpline
 62
7
  6
CONTINUOUS
 70
0
 71
3
 72
19
 73
15
 74
0
 42
0.0000001
 43
0.0000001
 44
0.0000000001
 40
0.0
 40
0.0
 40
0.0
 40
0.0
 40
0.3756545153
 40
0.5453341649
 40
0.6942835924
 40
0.7592464101
 40
0.8170963113
 40
0.8673402363
 40
0.9096291347
 40
0.9437033732
 40
0.9695583853
 40
0.9795361874
 40
0.9877164138
 40
1.0
 40
1.0
 40
1.0
 40
1.0
 10
20.6143849419
 20
60.7129983555
 30
0.0
 10
20.6143849419
 20
60.2968284047
 30
0.0
 10
20.5986677885
 20
59.692421313
 30
0.0
 10
20.5427934009
 20
58.9251981656
 30
0.0
 10
20.4967641991
 20
58.5025866484
 30
0.0
 10
20.4530997389
 20
58.2046661732
 30
0.0
 10
20.4198140363
 20
58.0158196136
 30
0.0
 10
20.3848947991
 20
57.8528782984
 30
0.0
 10
20.3489441022
 20
57.7172037177
 30
0.0
 10
20.3122648732
 20
57.6099787472
 30
0.0
 10
20.2796060457
 20
57.539407521
 30
0.0
 10
20.2518315721
 20
57.4990165268
 30
0.0
 10
20.2290352541
 20
57.4744231064
 30
0.0
 10
20.2068691615
 20
57.4630239618
 30
0.0
 10
20.1932607547
 20
57.4630236513
 30
0.0
  0
SPLINE
  5
296
100
AcDbEntity
  8
00_COMPONENTS_1
100
AcDbSpline
 62
7
  6
CONTINUOUS
 70
0
 71
3
 72
21
 73
17
 74
0
 42
0.0000001
 43
0.0000001
 44
0.0000000001
 40
0.0
 40
0.0
 40
0.0
 40
0.0
 40
0.1943421421
 40
0.3813592106
 40
0.5536049783
 40
0.6321686232
 40
0.7046741872
 40
0.7703955269
 40
0.8287376716
 40
0.8791433401
 40
0.9211309741
 40
0.9543486939
 40
0.9784887756
 40
0.9934547341
 40
0.9976226081
 40
1.0
 40
1.0
 40
1.0
 40
1.0
 10
19.5235223673
 20
60.7129983555
 30
0.0
 10
19.5235223673
 20
60.5015831733
 30
0.0
 10
19.5209140587
 20
60.0867162082
 30
0.0
 10
19.5094581525
 20
59.4845703958
 30
0.0
 10
19.4939819601
 20
59.0085135324
 30
0.0
 10
19.4784028275
 20
58.6571368096
 30
0.0
 10
19.4659742965
 20
58.4216261887
 30
0.0
 10
19.4526514735
 20
58.2081982577
 30
0.0
 10
19.4386969957
 20
58.0189165575
 30
0.0
 10
19.4243562363
 20
57.8555430237
 30
0.0
 10
19.4099201794
 20
57.7197009584
 30
0.0
 10
19.3956037981
 20
57.6124299695
 30
0.0
 10
19.3820346444
 20
57.5352044463
 30
0.0
 10
19.3698651026
 20
57.4890599954
 30
0.0
 10
19.3600760932
 20
57.4681970748
 30
0.0
 10
19.3538333018
 20
57.4629992773
 30
0.0
 10
19.3512470552
 20
57.4629984117
 30
0.0
  0
SPLINE
  5
297
100
AcDbEntity
  8
00_COMPONENTS_1
100
AcDbSpline
 62
7
  6
CONTINUOUS
 70
0
 71
3
 72
21
 73
17
 74
0
 42
0.0000001
 43
0.0000001
 44
0.0000000001
 40
0.0
 40
0.0
 40
0.0
 40
0.0
 40
0.1943661504
 40
0.3813577877
 40
0.5536194943
 40
0.6321876287
 40
0.7046783326
 40
0.7704059551
 40
0.8287498512
 40
0.8791410911
 40
0.9211388756
 40
0.9543425504
 40
0.9784910189
 40
0.9934696051
 40
0.9976274017
 40
1.0
 40
1.0
 40
1.0
 40
1.0
 10
19.5235223673
 20
60.7129983555
 30
0.0
 10
19.5235223673
 20
60.9244368092
 30
0.0
 10
19.5209160189
 20
61.3392966571
 30
0.0
 10
19.5094570393
 20
61.9414501307
 30
0.0
 10
19.4939817553
 20
62.4174950706
 30
0.0
 10
19.4784146553
 20
62.7688736734
 30
0.0
 10
19.4659791905
 20
63.0043763339
 30
0.0
 10
19.4526550552
 20
63.2177937844
 30
0.0
 10
19.4387027885
 20
63.4070662625
 30
0.0
 10
19.4243502899
 20
63.570433503
 30
0.0
 10
19.4099173466
 20
63.7062547241
 30
0.0
 10
19.3955997232
 20
63.8135270022
 30
0.0
 10
19.3820160716
 20
63.8907615989
 30
0.0
 10
19.3698765016
 20
63.9369140758
 30
0.0
 10
19.3600742473
 20
63.9577850508
 30
0.0
 10
19.3538283161
 20
63.9629426586
 30
0.0
 10
19.351247319
 20
63.9629414146
 30
0.0
  0
SPLINE
  5
298
100
AcDbEntity
  8
00_COMPONENTS_1
100
AcDbSpline
 62
7
  6
CONTINUOUS
 70
0
 71
3
 72
20
 73
16
 74
0
 42
0.0000001
 43
0.0000001
 44
0.0000000001
 40
0.0
 40
0.0
 40
0.0
 40
0.0
 40
0.1917504211
 40
0.3761926934
 40
0.5461042002
 40
0.6952366014
 40
0.7602660611
 40
0.8181574836
 40
0.8684105568
 40
0.9106684113
 40
0.9446587718
 40
0.9703507787
 40
0.9802008938
 40
0.9882106358
 40
1.0
 40
1.0
 40
1.0
 40
1.0
 10
34.9133406981
 20
49.3629983555
 30
0.0
 10
34.9133406981
 20
49.5718253535
 30
0.0
 10
34.9078487183
 20
49.9815418817
 30
0.0
 10
34.8835999427
 20
50.575865664
 30
0.0
 10
34.8448831852
 20
51.1229039797
 30
0.0
 10
34.8010173641
 20
51.5390049687
 30
0.0
 10
34.7594921202
 20
51.8323905717
 30
0.0
 10
34.7278944384
 20
52.0183538862
 30
0.0
 10
34.6948060428
 20
52.1788098249
 30
0.0
 10
34.6608216461
 20
52.3124059099
 30
0.0
 10
34.6262227189
 20
52.4179776453
 30
0.0
 10
34.5955324396
 20
52.4875004155
 30
0.0
 10
34.5693884416
 20
52.5273920517
 30
0.0
 10
34.5482183717
 20
52.5514565191
 30
0.0
 10
34.5273024459
 20
52.5629494781
 30
0.0
 10
34.5144631649
 20
52.5629496957
 30
0.0
  0
SPLINE
  5
299
100
AcDbEntity
  8
00_COMPONENTS_1
100
AcDbSpline
 62
7
  6
CONTINUOUS
 70
0
 71
3
 72
29
 73
25
 74
0
 42
0.0000001
 43
0.0000001
 44
0.0000000001
 40
0.0
 40
0.0
 40
0.0
 40
0.0
 40
0.1950132046
 40
0.382682022
 40
0.4713700578
 40
0.5555187446
 40
0.6343387521
 40
0.7070649186
 40
0.7729641736
 40
0.8314301619
 40
0.8818893124
 40
0.9039544989
 40
0.9238457908
 40
0.9415175403
 40
0.9569240961
 40
0.9700199916
 40
0.980770936
 40
0.9891599213
 40
0.9924638277
 40
0.9951714227
 40
0.9972807667
 40
0.9987899219
 40
0.9996969569
 40
1.0
 40
1.0
 40
1.0
 40
1.0
 10
33.7739022505
 20
49.3629983555
 30
0.0
 10
33.7739022505
 20
49.1549606136
 30
0.0
 10
33.7728760509
 20
48.7467193387
 30
0.0
 10
33.7691478501
 20
48.2438792448
 30
0.0
 10
33.7649281182
 20
47.8593191336
 30
0.0
 10
33.7613806904
 20
47.5908779737
 30
0.0
 10
33.7575253585
 20
47.3394709181
 30
0.0
 10
33.7535162625
 20
47.1075372567
 30
0.0
 10
33.7494987923
 20
46.8973207913
 30
0.0
 10
33.7456247685
 20
46.7108603836
 30
0.0
 10
33.7425157527
 20
46.57115605
 30
0.0
 10
33.7402218929
 20
46.4725948023
 30
0.0
 10
33.7387009915
 20
46.4090024309
 30
0.0
 10
33.7373157479
 20
46.3525116873
 30
0.0
 10
33.7360777505
 20
46.3032703543
 30
0.0
 10
33.7350067886
 20
46.2614055131
 30
0.0
 10
33.7340971495
 20
46.2270384317
 30
0.0
 10
33.7334749423
 20
46.2030814589
 30
0.0
 10
33.7330177072
 20
46.1877599664
 30
0.0
 10
33.7328392769
 20
46.1790268669
 30
0.0
 10
33.7324669758
 20
46.172470969
 30
0.0
 10
33.732712738
 20
46.1672152137
 30
0.0
 10
33.7319203066
 20
46.1650721481
 30
0.0
 10
33.7325868687
 20
46.1629982466
 30
0.0
 10
33.7322635859
 20
46.1629983555
 30
0.0
  0
SPLINE
  5
29A
100
AcDbEntity
  8
00_COMPONENTS_1
100
AcDbSpline
 62
7
  6
CONTINUOUS
 70
0
 71
3
 72
21
 73
17
 74
0
 42
0.0000001
 43
0.0000001
 44
0.0000000001
 40
0.0
 40
0.0
 40
0.0
 40
0.0
 40
0.0023308233
 40
0.006420976
 40
0.0212275608
 40
0.0452234834
 40
0.0783259375
 40
0.1202307718
 40
0.1705865112
 40
0.2289133204
 40
0.2946493081
 40
0.3671952461
 40
0.4458206806
 40
0.6182328567
 40
0.8054503166
 40
1.0
 40
1.0
 40
1.0
 40
1.0
 10
19.3512470552
 20
57.4629984117
 30
0.0
 10
19.3487150933
 20
57.4629975643
 30
0.0
 10
19.3426187173
 20
57.4681940351
 30
0.0
 10
19.3338548377
 20
57.4891869184
 30
0.0
 10
19.3237524402
 20
57.5352904166
 30
0.0
 10
19.3136955585
 20
57.6125050496
 30
0.0
 10
19.3040622761
 20
57.7197559681
 30
0.0
 10
19.2953213966
 20
57.8556198739
 30
0.0
 10
19.2874776649
 20
58.0190348627
 30
0.0
 10
19.280578074
 20
58.2083768643
 30
0.0
 10
19.2745903283
 20
58.4218715823
 30
0.0
 10
19.2694983714
 20
58.6574426893
 30
0.0
 10
19.2636462778
 20
59.0089024802
 30
0.0
 10
19.2585551452
 20
59.4849533172
 30
0.0
 10
19.2551860099
 20
60.0869476892
 30
0.0
 10
19.2544674083
 20
60.5016599799
 30
0.0
 10
19.2544674083
 20
60.7129983555
 30
0.0
  0
SPLINE
  5
29B
100
AcDbEntity
  8
00_COMPONENTS_1
100
AcDbSpline
 62
7
  6
CONTINUOUS
 70
0
 71
3
 72
21
 73
17
 74
0
 42
0.0000001
 43
0.0000001
 44
0.0000000001
 40
0.0
 40
0.0
 40
0.0
 40
0.0
 40
0.1945751395
 40
0.3817470542
 40
0.5541651508
 40
0.6327999416
 40
0.7053333776
 40
0.771076497
 40
0.8294076062
 40
0.8797587001
 40
0.9216832133
 40
0.9547741197
 40
0.9787765601
 40
0.9935916335
 40
0.9976721979
 40
1.0
 40
1.0
 40
1.0
 40
1.0
 10
19.2544674083
 20
99.3129983555
 30
0.0
 10
19.2544674083
 20
99.5243635805
 30
0.0
 10
19.255191913
 20
99.9390524492
 30
0.0
 10
19.2585449849
 20
100.5410292229
 30
0.0
 10
19.2636411368
 20
101.017045363
 30
0.0
 10
19.2695045584
 20
101.368506643
 30
0.0
 10
19.2746002458
 20
101.6040810914
 30
0.0
 10
19.2805744105
 20
101.8175741398
 30
0.0
 10
19.2874654062
 20
102.0069233034
 30
0.0
 10
19.2953248426
 20
102.1703576383
 30
0.0
 10
19.3040551043
 20
102.3062261452
 30
0.0
 10
19.3137022851
 20
102.4134899169
 30
0.0
 10
19.323774701
 20
102.4907098135
 30
0.0
 10
19.3338297056
 20
102.5368186195
 30
0.0
 10
19.3426227506
 20
102.5578140162
 30
0.0
 10
19.3487224947
 20
102.5629698381
 30
0.0
 10
19.3512511651
 20
102.5629699862
 30
0.0
  0
SPLINE
  5
29C
100
AcDbEntity
  8
00_COMPONENTS_1
100
AcDbSpline
 62
7
  6
CONTINUOUS
 70
0
 71
3
 72
18
 73
14
 74
0
 42
0.0000001
 43
0.0000001
 44
0.0000000001
 40
0.0
 40
0.0
 40
0.0
 40
0.0
 40
0.3770715039
 40
0.5473401638
 40
0.6966761098
 40
0.7617148295
 40
0.8195528067
 40
0.8696841935
 40
0.9117622659
 40
0.9455467244
 40
0.9593260268
 40
0.9710733523
 40
1.0
 40
1.0
 40
1.0
 40
1.0
 10
19.8490057603
 20
60.7129983555
 30
0.0
 10
19.8490057603
 20
61.1287809371
 30
0.0
 10
19.8591846679
 20
61.732447308
 30
0.0
 10
19.8979332488
 20
62.4997180769
 30
0.0
 10
19.9313383591
 20
62.9226378501
 30
0.0
 10
19.9645518306
 20
63.2209731606
 30
0.0
 10
19.9906716021
 20
63.4099896714
 30
0.0
 10
20.0189539745
 20
63.5730043934
 30
0.0
 10
20.0492786515
 20
63.708792585
 30
0.0
 10
20.0771333913
 20
63.8034070807
 30
0.0
 10
20.1016508456
 20
63.8647592166
 30
0.0
 10
20.127118247
 20
63.9168060429
 30
0.0
 10
20.1613656825
 20
63.9629696748
 30
0.0
 10
20.1932620102
 20
63.9629674808
 30
0.0
  0
SPLINE
  5
29D
100
AcDbEntity
  8
00_COMPONENTS_1
100
AcDbSpline
 62
7
  6
CONTINUOUS
 70
0
 71
3
 72
21
 73
17
 74
0
 42
0.0000001
 43
0.0000001
 44
0.0000000001
 40
0.0
 40
0.0
 40
0.0
 40
0.0
 40
0.194565964
 40
0.3817527195
 40
0.5541836996
 40
0.6328154144
 40
0.7053488008
 40
0.7710929285
 40
0.8294227975
 40
0.8797662825
 40
0.921681715
 40
0.9547694406
 40
0.9787739649
 40
0.9935914341
 40
0.9976723087
 40
1.0
 40
1.0
 40
1.0
 40
1.0
 10
19.2544674083
 20
99.3129983555
 30
0.0
 10
19.2544674083
 20
99.1016449449
 30
0.0
 10
19.2551870287
 20
98.6869535254
 30
0.0
 10
19.2585561026
 20
98.0849619444
 30
0.0
 10
19.2636466604
 20
97.6089231858
 30
0.0
 10
19.2694967871
 20
97.257454149
 30
0.0
 10
19.2745934576
 20
97.0218840587
 30
0.0
 10
19.28057676
 20
96.8083934298
 30
0.0
 10
19.2874729956
 20
96.6190546608
 30
0.0
 10
19.2953282774
 20
96.4556410946
 30
0.0
 10
19.3040521093
 20
96.3197949774
 30
0.0
 10
19.3136967037
 20
96.212543015
 30
0.0
 10
19.3237694071
 20
96.1353224084
 30
0.0
 10
19.3338259127
 20
96.0892089312
 30
0.0
 10
19.3426184028
 20
96.0682107834
 30
0.0
 10
19.3487187907
 20
96.063054682
 30
0.0
 10
19.3512473187
 20
96.0630550933
 30
0.0
  0
SPLINE
  5
29E
100
AcDbEntity
  8
00_COMPONENTS_1
100
AcDbSpline
 62
7
  6
CONTINUOUS
 70
0
 71
3
 72
18
 73
14
 74
0
 42
0.0000001
 43
0.0000001
 44
0.0000000001
 40
0.0
 40
0.0
 40
0.0
 40
0.0
 40
0.3770458786
 40
0.5472888949
 40
0.6966349054
 40
0.7617220149
 40
0.8195728968
 40
0.8696598403
 40
0.9117005489
 40
0.9455164705
 40
0.9593313143
 40
0.9711108675
 40
1.0
 40
1.0
 40
1.0
 40
1.0
 10
19.8490057603
 20
99.3129983555
 30
0.0
 10
19.8490057603
 20
98.8972405167
 30
0.0
 10
19.8591838843
 20
98.2936255621
 30
0.0
 10
19.8979330672
 20
97.526393794
 30
0.0
 10
19.9313347193
 20
97.1034341184
 30
0.0
 10
19.9645351047
 20
96.8050157805
 30
0.0
 10
19.9906521418
 20
96.6159779946
 30
0.0
 10
20.0189436321
 20
96.4530409903
 30
0.0
 10
20.0492912593
 20
96.3173111601
 30
0.0
 10
20.0771370307
 20
96.2226681215
 30
0.0
 10
20.1016480008
 20
96.1611836213
 30
0.0
 10
20.1270149396
 20
96.1090936881
 30
0.0
 10
20.1614049603
 20
96.0628035423
 30
0.0
 10
20.1932592128
 20
96.0630531222
 30
0.0
  0
SPLINE
  5
29F
100
AcDbEntity
  8
00_COMPONENTS_1
100
AcDbSpline
 62
7
  6
CONTINUOUS
 70
0
 71
3
 72
20
 73
16
 74
0
 42
0.0000001
 43
0.0000001
 44
0.0000000001
 40
0.0
 40
0.0
 40
0.0
 40
0.0
 40
0.1922519086
 40
0.3771734319
 40
0.5475190657
 40
0.6969456263
 40
0.7620157516
 40
0.8198350053
 40
0.8698926559
 40
0.9118685107
 40
0.9455337173
 40
0.9708745607
 40
0.980546561
 40
0.9883905067
 40
1.0
 40
1.0
 40
1.0
 40
1.0
 10
34.1980629187
 20
49.3629983555
 30
0.0
 10
34.1980629187
 20
49.1544297686
 30
0.0
 10
34.201472598
 20
48.7452368887
 30
0.0
 10
34.2168152297
 20
48.1514112075
 30
0.0
 10
34.2422260685
 20
47.6044346071
 30
0.0
 10
34.27249325
 20
47.1879417383
 30
0.0
 10
34.3028192618
 20
46.8940529342
 30
0.0
 10
34.3267241082
 20
46.7079282908
 30
0.0
 10
34.3527515063
 20
46.5474240699
 30
0.0
 10
34.3805325879
 20
46.4138304479
 30
0.0
 10
34.410023079
 20
46.3082527733
 30
0.0
 10
34.4372254787
 20
46.2385731238
 30
0.0
 10
34.4613821927
 20
46.1985410783
 30
0.0
 10
34.4813471369
 20
46.1743167232
 30
0.0
 10
34.5018684697
 20
46.1628840675
 30
0.0
 10
34.5144632745
 20
46.1628772777
 30
0.0
  0
SPLINE
  5
2A0
100
AcDbEntity
  8
00_COMPONENTS_1
100
AcDbSpline
 62
7
  6
CONTINUOUS
 70
0
 71
3
 72
21
 73
17
 74
0
 42
0.0000001
 43
0.0000001
 44
0.0000000001
 40
0.0
 40
0.0
 40
0.0
 40
0.0
 40
0.0023283567
 40
0.0064102655
 40
0.0212281177
 40
0.0452298647
 40
0.0783159943
 40
0.1202306629
 40
0.1705741577
 40
0.2289040158
 40
0.2946467594
 40
0.3671791557
 40
0.4458090364
 40
0.6182400502
 40
0.8054326166
 40
1.0
 40
1.0
 40
1.0
 40
1.0
 10
19.351247319
 20
63.9629414146
 30
0.0
 10
19.3487180705
 20
63.9629401955
 30
0.0
 10
19.3426190471
 20
63.9577803665
 30
0.0
 10
19.3338266603
 20
63.9367804117
 30
0.0
 10
19.3237705105
 20
63.8906680343
 30
0.0
 10
19.3136959576
 20
63.813452327
 30
0.0
 10
19.3040524616
 20
63.7062058174
 30
0.0
 10
19.2953283419
 20
63.5703624491
 30
0.0
 10
19.2874732742
 20
63.4069498109
 30
0.0
 10
19.2805774058
 20
63.2176126968
 30
0.0
 10
19.2745938661
 20
63.004124837
 30
0.0
 10
19.2694973382
 20
62.7685595069
 30
0.0
 10
19.2636468035
 20
62.4170937928
 30
0.0
 10
19.2585560285
 20
61.9410510624
 30
0.0
 10
19.2551871963
 20
61.3390520757
 30
0.0
 10
19.2544674083
 20
60.9243531373
 30
0.0
 10
19.2544674083
 20
60.7129983555
 30
0.0
  0
SPLINE
  5
2A1
100
AcDbEntity
  8
00_COMPONENTS_1
100
AcDbSpline
 62
7
  6
CONTINUOUS
 70
0
 71
3
 72
21
 73
17
 74
0
 42
0.0000001
 43
0.0000001
 44
0.0000000001
 40
0.0
 40
0.0
 40
0.0
 40
0.0
 40
0.0054670894
 40
0.0118033625
 40
0.0196339217
 40
0.0292871911
 40
0.0545891115
 40
0.0882424119
 40
0.1302393326
 40
0.1803235927
 40
0.2381447166
 40
0.3031895248
 40
0.4525526405
 40
0.6228630801
 40
0.80777587
 40
1.0
 40
1.0
 40
1.0
 40
1.0
 10
34.5144631649
 20
52.5629496957
 30
0.0
 10
34.5085310569
 20
52.5629497962
 30
0.0
 10
34.4956302926
 20
52.5598707387
 30
0.0
 10
34.4780580017
 20
52.5472467891
 30
0.0
 10
34.4612712293
 20
52.5273878289
 30
0.0
 10
34.4373101364
 20
52.4874748952
 30
0.0
 10
34.4099508825
 20
52.4178441709
 30
0.0
 10
34.3805342783
 20
52.3122867369
 30
0.0
 10
34.3527482152
 20
52.1786218
 30
0.0
 10
34.3267422309
 20
52.0180342689
 30
0.0
 10
34.3028343086
 20
51.8318734766
 30
0.0
 10
34.2724975948
 20
51.5380298707
 30
0.0
 10
34.2422140515
 20
51.1216007987
 30
0.0
 10
34.2168040002
 20
50.5746464548
 30
0.0
 10
34.2014732765
 20
49.9807961831
 30
0.0
 10
34.1980629187
 20
49.5715726475
 30
0.0
 10
34.1980629187
 20
49.3629983555
 30
0.0
  0
SPLINE
  5
2A2
100
AcDbEntity
  8
00_COMPONENTS_1
100
AcDbSpline
 62
7
  6
CONTINUOUS
 70
0
 71
3
 72
18
 73
14
 74
0
 42
0.0000001
 43
0.0000001
 44
0.0000000001
 40
0.0
 40
0.0
 40
0.0
 40
0.0
 40
0.0289315266
 40
0.0406823042
 40
0.0544652358
 40
0.088257127
 40
0.1303487919
 40
0.1804903728
 40
0.2383346083
 40
0.3033809157
 40
0.4527226467
 40
0.6229807626
 40
1.0
 40
1.0
 40
1.0
 40
1.0
 10
20.1932607547
 20
57.4630236513
 30
0.0
 10
20.1613589838
 20
57.4630229235
 30
0.0
 10
20.1271122893
 20
57.5092012605
 30
0.0
 10
20.101631348
 20
57.5612550486
 30
0.0
 10
20.0771029207
 20
57.6226206658
 30
0.0
 10
20.0492421069
 20
57.7172623886
 30
0.0
 10
20.0189410099
 20
57.8530916178
 30
0.0
 10
19.9906652549
 20
58.0161408883
 30
0.0
 10
19.964529409
 20
58.2051822397
 30
0.0
 10
19.9312966776
 20
58.5035380099
 30
0.0
 10
19.8979293753
 20
58.9264651254
 30
0.0
 10
19.8591883458
 20
59.6936741505
 30
0.0
 10
19.8490057603
 20
60.2972725788
 30
0.0
 10
19.8490057603
 20
60.7129983555
 30
0.0
  0
SPLINE
  5
2A3
100
AcDbEntity
  8
00_COMPONENTS_1
100
AcDbSpline
 62
7
  6
CONTINUOUS
 70
0
 71
3
 72
21
 73
17
 74
0
 42
0.0000001
 43
0.0000001
 44
0.0000000001
 40
0.0
 40
0.0
 40
0.0
 40
0.0
 40
0.1922164086
 40
0.3771229078
 40
0.5474277397
 40
0.6967948722
 40
0.7618459217
 40
0.819667523
 40
0.8697421603
 40
0.9117317232
 40
0.9453935914
 40
0.9707113937
 40
0.9803699371
 40
0.9882015938
 40
0.9945350185
 40
1.0
 40
1.0
 40
1.0
 40
1.0
 10
34.2004810121
 20
110.3629983555
 30
0.0
 10
34.2004810121
 20
110.156256064
 30
0.0
 10
34.203870843
 20
109.7506256648
 30
0.0
 10
34.2191033081
 20
109.1619896839
 30
0.0
 10
34.2443498221
 20
108.6198287162
 30
0.0
 10
34.274428438
 20
108.2070400083
 30
0.0
 10
34.3045435959
 20
107.9157585665
 30
0.0
 10
34.3282725028
 20
107.7312324297
 30
0.0
 10
34.3540850587
 20
107.5720723307
 30
0.0
 10
34.3816636188
 20
107.4395927556
 30
0.0
 10
34.4108457684
 20
107.3349461281
 30
0.0
 10
34.4379727903
 20
107.2658932075
 30
0.0
 10
34.4617294619
 20
107.2263045886
 30
0.0
 10
34.4783693968
 20
107.206613539
 30
0.0
 10
34.4957953067
 20
107.1941127463
 30
0.0
 10
34.5085850095
 20
107.1910852954
 30
0.0
 10
34.5144629711
 20
107.1910967234
 30
0.0
  0
SPLINE
  5
2A4
100
AcDbEntity
  8
00_COMPONENTS_1
100
AcDbSpline
 62
7
  6
CONTINUOUS
 70
0
 71
3
 72
18
 73
14
 74
0
 42
0.0000001
 43
0.0000001
 44
0.0000000001
 40
0.0
 40
0.0
 40
0.0
 40
0.0
 40
0.0289350218
 40
0.0407026492
 40
0.0544991108
 40
0.0882813818
 40
0.1303132722
 40
0.1804160833
 40
0.2383073909
 40
0.3034409161
 40
0.4527799145
 40
0.6229641305
 40
1.0
 40
1.0
 40
1.0
 40
1.0
 10
20.1932588606
 20
102.5629600785
 30
0.0
 10
20.161353641
 20
102.5630441071
 30
0.0
 10
20.1270870259
 20
102.5167365406
 30
0.0
 10
20.1016465707
 20
102.4646442542
 30
0.0
 10
20.0771319308
 20
102.4032442041
 30
0.0
 10
20.0492653178
 20
102.3086746963
 30
0.0
 10
20.0189160759
 20
102.1729781457
 30
0.0
 10
19.9906215907
 20
102.0099905966
 30
0.0
 10
19.9645232939
 20
101.8208387713
 30
0.0
 10
19.9313669304
 20
101.5223320284
 30
0.0
 10
19.8979275222
 20
101.0994045492
 30
0.0
 10
19.859154037
 20
100.3322687162
 30
0.0
 10
19.8490057603
 20
99.7287386313
 30
0.0
 10
19.8490057603
 20
99.3129983555
 30
0.0
  0
SPLINE
  5
2A5
100
AcDbEntity
  8
00_COMPONENTS_1
100
AcDbSpline
 62
7
  6
CONTINUOUS
 70
0
 71
3
 72
20
 73
16
 74
0
 42
0.0000001
 43
0.0000001
 44
0.0000000001
 40
0.0
 40
0.0
 40
0.0
 40
0.0
 40
0.1922437759
 40
0.377202407
 40
0.5475236435
 40
0.696922943
 40
0.761974069
 40
0.8198109817
 40
0.8699255071
 40
0.9119332419
 40
0.9456136492
 40
0.9709142673
 40
0.9805612568
 40
0.988393349
 40
1.0
 40
1.0
 40
1.0
 40
1.0
 10
34.2004810121
 20
110.3629983555
 30
0.0
 10
34.2004810121
 20
110.569726881
 30
0.0
 10
34.2038583508
 20
110.9753581395
 30
0.0
 10
34.2191145931
 20
111.5639739745
 30
0.0
 10
34.2443802087
 20
112.1061282637
 30
0.0
 10
34.2744010073
 20
112.5188868519
 30
0.0
 10
34.3045231566
 20
112.8101582324
 30
0.0
 10
34.3282627524
 20
112.994702408
 30
0.0
 10
34.3540636319
 20
113.1539133909
 30
0.0
 10
34.3816548262
 20
113.2864368179
 30
0.0
 10
34.4108717544
 20
113.3910983999
 30
0.0
 10
34.437866886
 20
113.4601024569
 30
0.0
 10
34.4618533347
 20
113.499663297
 30
0.0
 10
34.481652905
 20
113.5236033518
 30
0.0
 10
34.5019750247
 20
113.5349406728
 30
0.0
 10
34.5144561858
 20
113.5349344304
 30
0.0
  0
ENDSEC
  0
SECTION
  2
OBJECTS
  0
DICTIONARY
  5
C
100
AcDbDictionary
280
0
281
1
  3
ACAD_GROUP
350
D
  3
ACAD_MLINESTYLE
350
17
  3
ACAD_LAYOUT
350
1A
  3
ACAD_PLOTSETTINGS
350
19
  3
ACAD_PLOTSTYLENAME
350
E
  0
DICTIONARY
  5
D
102
{ACAD_REACTORS
330
C
102
}
100
AcDbDictionary
280
0
281
1
  0
ACDBDICTIONARYWDFLT
  5
E
102
{ACAD_REACTORS
330
C
102
}
100
AcDbDictionary
281
1
  3
Normal
350
F
100
AcDbDictionaryWithDefault
340
F
  0
DICTIONARY
  5
17
102
{ACAD_REACTORS
330
C
102
}
100
AcDbDictionary
280
0
281
1
  3
Standard
350
18
  0
DICTIONARY
  5
19
102
{ACAD_REACTORS
330
C
102
}
100
AcDbDictionary
281
1
  0
DICTIONARY
  5
1A
102
{ACAD_REACTORS
330
C
102
}
100
AcDbDictionary
281
1
  3
Model
350
2A6
  3
Layout1
350
2A7
  0
ACDBPLACEHOLDER
  5
F
102
{ACAD_REACTORS
330
E
102
}
  0
MLINESTYLE
  5
18
102
{ACAD_REACTORS
330
17
102
}
100
AcDbMlineStyle
  2
STANDARD
 70
0
  3

 62
256
 51
90.0
 52
90.0
 71
2
 49
0.5
 62
256
  6
BYLAYER
 49
-0.5
 62
256
  6
BYLAYER
  0
LAYOUT
  5
2A6
102
{ACAD_REACTORS
330
1A
102
}
100
AcDbPlotSettings
  1

  2
none_device
  4

  6

 40
0.0
 41
0.0
 42
0.0
 43
0.0
 44
210.0
 45
297.0
 46
0.0
 47
0.0
 48
0.0
 49
0.0
140
0.0
141
0.0
142
1.0
143
1.0
 70
1024
 72
1
 73
0
 74
0
  7

 75
0
147
1.0
148
0.0
149
0.0
100
AcDbLayout
  1
Model
 70
0
 71
0
 10
0.0
 20
0.0
 11
210.0
 21
297.0
 12
0.0
 22
0.0
 32
0.0
 14
0.0
 24
0.0
 34
0.0
 15
0.0
 25
0.0
 35
0.0
146
0.0
 13
0.0
 23
0.0
 33
0.0
 16
1.0
 26
0.0
 36
0.0
 17
0.0
 27
1.0
 37
0.0
 76
0
330
216
345
0
346
0
  0
LAYOUT
  5
2A7
102
{ACAD_REACTORS
330
1A
102
}
100
AcDbPlotSettings
  1

  2
none_device
  4

  6

 40
0.0
 41
0.0
 42
0.0
 43
0.0
 44
210.0
 45
297.0
 46
0.0
 47
0.0
 48
0.0
 49
0.0
140
0.0
141
0.0
142
1.0
143
1.0
 70
0
 72
1
 73
0
 74
0
  7

 75
0
147
1.0
148
0.0
149
0.0
100
AcDbLayout
  1
Layout1
 70
0
 71
1
 10
0.0
 20
0.0
 11
210.0
 21
297.0
 12
0.0
 22
0.0
 32
0.0
 14
0.0
 24
0.0
 34
0.0
 15
0.0
 25
0.0
 35
0.0
146
0.0
 13
0.0
 23
0.0
 33
0.0
 16
1.0
 26
0.0
 36
0.0
 17
0.0
 27
1.0
 37
0.0
 76
0
330
217
345
0
346
0
  0
ENDSEC
  0
EOF
