999
DXF file: C:\SESA671053\Gen2D\CAD\MCADPP0003369_3D-simplified\drw0001_4.dxf
999
Pro/ENGINEER 2019471 by Parametric Technology Corporation
  0
SECTION
  2
HEADER
  9
$ACADVER
  1
AC1024
  9
$DWGCODEPAGE
  3
ANSI_1252
  9
$EXTMAX
 10
73.7811045738
 20
104.347562183
 30
0.0
  9
$EXTMIN
 10
0.0
 20
0.0
 30
0.0
  9
$LIMMIN
 10
0.0
 20
0.0
  9
$LIMMAX
 10
73.7811045738
 20
104.347562183
  9
$VIEWCTR
 10
36.8905522869
 20
52.1737810915
  9
$VIEWSIZE
 40
104.347562183
  9
$CLAYER
  8
0
  9
$LTSCALE
 40
6.8019151645
  9
$CELTYPE
  6
BYLAYER
  9
$DIMSCALE
 40
1.0
  9
$DIMASZ
 40
0.878346483
  9
$DIMEXO
 40
1.0
  9
$DIMDLI
 40
4.6995050228
  9
$DIMEXE
 40
1.0
  9
$DIMCEN
 40
1.1130406633
  9
$DIMLFAC
 40
1.0
  9
$DIMBLK
  1
_FILLED
  9
$DIMALT
 70
0
  9
$DIMALTF
 40
0.0393700787
  9
$DIMTXT
 40
1.2296850762
  9
$DIMTOL
 70
1
  9
$DIMLIM
 70
0
  9
$DIMTFAC
 40
1.0
  9
$DIMTP
 40
0.01
  9
$DIMTM
 40
0.01
  9
$DIMGAP
 40
0.625
  9
$DIMDSEP
 70
46
  9
$AUNITS
 70
0
  9
$PDMODE
 70
3
  9
$PDSIZE
 40
0.3125
  9
$HANDSEED
  5
3D3
  9
$TILEMODE
 70
1
  9
$MEASUREMENT
 70
1
  9
$INSUNITS
 70
4
  0
ENDSEC
  0
SECTION
  2
CLASSES
  0
CLASS
  1
ACDBDICTIONARYWDFLT
  2
AcDbDictionaryWithDefault
  3
AutoCAD 2000
 90
0
 91
1
280
0
281
0
  0
CLASS
  1
ACDBPLACEHOLDER
  2
AcDbPlaceHolder
  3
AutoCAD 2000
 90
0
 91
1
280
0
281
0
  0
CLASS
  1
LAYOUT
  2
AcDbLayout
  3
AutoCAD 2000
 90
0
 91
0
280
0
281
0
  0
ENDSEC
  0
SECTION
  2
TABLES
  0
TABLE
  2
VPORT
  5
8
100
AcDbSymbolTable
 70
2
  0
VPORT
  5
1F4
100
AcDbSymbolTableRecord
100
AcDbViewportTableRecord
  2
*ACTIVE
 70
0
 10
0.0
 20
0.0
 11
1.0
 21
1.0
 12
36.8905522869
 22
52.1737810915
 13
0.0
 23
0.0
 14
1.0
 24
1.0
 15
0.0
 25
0.0
 16
0.0
 26
0.0
 36
1.0
 17
0.0
 27
0.0
 37
0.0
 40
104.347562183
 41
0.7070707071
 42
50.0
 43
0.0
 44
0.0
 50
0.0
 51
0.0
 71
0
 72
100
 73
1
 74
1
 75
0
 76
0
 77
0
 78
0
  0
ENDTAB
  0
TABLE
  2
LTYPE
  5
5
100
AcDbSymbolTable
 70
6
  0
LTYPE
  5
14
100
AcDbSymbolTableRecord
100
AcDbLinetypeTableRecord
  2
BYBLOCK
 70
0
  3

 72
65
 73
0
 40
0.0
  0
LTYPE
  5
15
100
AcDbSymbolTableRecord
100
AcDbLinetypeTableRecord
  2
BYLAYER
 70
0
  3

 72
65
 73
0
 40
0.0
  0
LTYPE
  5
16
100
AcDbSymbolTableRecord
100
AcDbLinetypeTableRecord
  2
CONTINUOUS
 70
64
  3
Solid line
 72
65
 73
0
 40
0.0
  0
LTYPE
  5
1F5
100
AcDbSymbolTableRecord
100
AcDbLinetypeTableRecord
  2
CENTER
 70
64
  3
____ _ ____ _ ____ _ ____ _ ____ _ ____ _ ____
 72
65
 73
4
 40
0.6
 49
0.375
 74
0
 49
-0.075
 74
0
 49
0.075
 74
0
 49
-0.075
 74
0
  0
LTYPE
  5
1F6
100
AcDbSymbolTableRecord
100
AcDbLinetypeTableRecord
  2
HIDDEN
 70
64
  3
- - - - - - - - - - - - - - - - - - - -
 72
65
 73
2
 40
0.2
 49
0.1
 74
0
 49
-0.1
 74
0
  0
LTYPE
  5
1F7
100
AcDbSymbolTableRecord
100
AcDbLinetypeTableRecord
  2
PHANTOM
 70
64
  3
_____ _ _ _____ _ _ _____ _ _ _____
 72
65
 73
6
 40
0.8
 49
0.45
 74
0
 49
-0.05
 74
0
 49
0.1
 74
0
 49
-0.05
 74
0
 49
0.1
 74
0
 49
-0.05
 74
0
  0
LTYPE
  5
1F8
100
AcDbSymbolTableRecord
100
AcDbLinetypeTableRecord
  2
DOT
 70
64
  3
. . . . . . . . . . . . . . . . . . . .
 72
65
 73
2
 40
0.2
 49
0.1
 74
0
 49
-0.1
 74
0
  0
LTYPE
  5
1F9
100
AcDbSymbolTableRecord
100
AcDbLinetypeTableRecord
  2
DASHED
 70
64
  3
- - - - - - - - - - - - - - - - - - - -
 72
65
 73
2
 40
0.2
 49
0.1
 74
0
 49
-0.1
 74
0
  0
ENDTAB
  0
TABLE
  2
LAYER
  5
2
100
AcDbSymbolTable
 70
36
  0
LAYER
  5
10
100
AcDbSymbolTableRecord
100
AcDbLayerTableRecord
  2
0
 70
0
 62
7
  6
CONTINUOUS
370
-3
390
F
  0
LAYER
  5
1FA
100
AcDbSymbolTableRecord
100
AcDbLayerTableRecord
  2
DEFAULT_1
 70
0
 62
7
  6
CENTER
370
-3
390
F
  0
LAYER
  5
1FB
100
AcDbSymbolTableRecord
100
AcDbLayerTableRecord
  2
DEFAULT_2
 70
0
 62
8
  6
HIDDEN
370
-3
390
F
  0
LAYER
  5
1FC
100
AcDbSymbolTableRecord
100
AcDbLayerTableRecord
  2
DEFAULT_3
 70
0
 62
7
  6
PHANTOM
370
-3
390
F
  0
LAYER
  5
1FD
100
AcDbSymbolTableRecord
100
AcDbLayerTableRecord
  2
00_COMPONENTS
 70
0
 62
7
  6
CONTINUOUS
370
-3
390
F
  0
LAYER
  5
1FE
100
AcDbSymbolTableRecord
100
AcDbLayerTableRecord
  2
00_COMPONENTS_1
 70
0
 62
7
  6
CONTINUOUS
370
-3
390
F
  0
LAYER
  5
1FF
100
AcDbSymbolTableRecord
100
AcDbLayerTableRecord
  2
01_1_DEFAULT_DATUMS
 70
0
 62
7
  6
CONTINUOUS
370
-3
390
F
  0
LAYER
  5
200
100
AcDbSymbolTableRecord
100
AcDbLayerTableRecord
  2
01_PLANES
 70
0
 62
7
  6
CONTINUOUS
370
-3
390
F
  0
LAYER
  5
201
100
AcDbSymbolTableRecord
100
AcDbLayerTableRecord
  2
02_COORD_SYS
 70
0
 62
7
  6
CONTINUOUS
370
-3
390
F
  0
LAYER
  5
202
100
AcDbSymbolTableRecord
100
AcDbLayerTableRecord
  2
03_AXES
 70
0
 62
7
  6
CONTINUOUS
370
-3
390
F
  0
LAYER
  5
203
100
AcDbSymbolTableRecord
100
AcDbLayerTableRecord
  2
03_AXES_1
 70
0
 62
7
  6
CONTINUOUS
370
-3
390
F
  0
LAYER
  5
204
100
AcDbSymbolTableRecord
100
AcDbLayerTableRecord
  2
04_POINTS
 70
0
 62
7
  6
CONTINUOUS
370
-3
390
F
  0
LAYER
  5
205
100
AcDbSymbolTableRecord
100
AcDbLayerTableRecord
  2
05_CURVES
 70
0
 62
7
  6
CONTINUOUS
370
-3
390
F
  0
LAYER
  5
206
100
AcDbSymbolTableRecord
100
AcDbLayerTableRecord
  2
06_SURFS
 70
0
 62
7
  6
CONTINUOUS
370
-3
390
F
  0
LAYER
  5
207
100
AcDbSymbolTableRecord
100
AcDbLayerTableRecord
  2
07_COSMETICS
 70
0
 62
7
  6
CONTINUOUS
370
-3
390
F
  0
LAYER
  5
208
100
AcDbSymbolTableRecord
100
AcDbLayerTableRecord
  2
10_NOTES
 70
0
 62
7
  6
CONTINUOUS
370
-3
390
F
  0
LAYER
  5
209
100
AcDbSymbolTableRecord
100
AcDbLayerTableRecord
  2
11_NOTES_PUB
 70
0
 62
7
  6
CONTINUOUS
370
-3
390
F
  0
LAYER
  5
20A
100
AcDbSymbolTableRecord
100
AcDbLayerTableRecord
  2
13_REF_GTOL
 70
0
 62
7
  6
CONTINUOUS
370
-3
390
F
  0
LAYER
  5
20B
100
AcDbSymbolTableRecord
100
AcDbLayerTableRecord
  2
16_MISC
 70
0
 62
7
  6
CONTINUOUS
370
-3
390
F
  0
LAYER
  5
20C
100
AcDbSymbolTableRecord
100
AcDbLayerTableRecord
  2
17_NO_PRINT
 70
0
 62
7
  6
CONTINUOUS
370
-3
390
F
  0
LAYER
  5
20D
100
AcDbSymbolTableRecord
100
AcDbLayerTableRecord
  2
18_DATUM_CAMS_JOINTS
 70
0
 62
7
  6
CONTINUOUS
370
-3
390
F
  0
LAYER
  5
20E
100
AcDbSymbolTableRecord
100
AcDbLayerTableRecord
  2
19_DATUM_FUNCTIONAL
 70
0
 62
7
  6
CONTINUOUS
370
-3
390
F
  0
LAYER
  5
20F
100
AcDbSymbolTableRecord
100
AcDbLayerTableRecord
  2
20_DATUM_KINEMATIC_SCHEME
 70
0
 62
7
  6
CONTINUOUS
370
-3
390
F
  0
LAYER
  5
210
100
AcDbSymbolTableRecord
100
AcDbLayerTableRecord
  2
INTFCLR_18
 70
0
 62
7
  6
CONTINUOUS
370
-3
390
F
  0
LAYER
  5
211
100
AcDbSymbolTableRecord
100
AcDbLayerTableRecord
  2
INTF_BLANK
 70
0
 62
7
  6
CONTINUOUS
370
-3
390
F
  0
LAYER
  5
212
100
AcDbSymbolTableRecord
100
AcDbLayerTableRecord
  2
INTF_YELLOW
 70
0
 62
7
  6
CONTINUOUS
370
-3
390
F
  0
LAYER
  5
213
100
AcDbSymbolTableRecord
100
AcDbLayerTableRecord
  2
_BLACK_HOLE
 70
0
 62
7
  6
CONTINUOUS
370
-3
390
F
  0
ENDTAB
  0
TABLE
  2
STYLE
  5
3
100
AcDbSymbolTable
 70
1
  0
STYLE
  5
11
100
AcDbSymbolTableRecord
100
AcDbTextStyleTableRecord
  2
STANDARD
 70
0
 40
0.0
 41
0.8
 50
0.0
 71
0
 42
0.2
  3
txt
  4

  0
STYLE
  5
214
100
AcDbSymbolTableRecord
100
AcDbTextStyleTableRecord
  2
TEXTSTYLE_1
 70
0
 40
0.0
 41
0.8
 50
0.0
 71
0
 42
0.2
  3
gdt
  4

  0
ENDTAB
  0
TABLE
  2
VIEW
  5
6
100
AcDbSymbolTable
 70
0
  0
ENDTAB
  0
TABLE
  2
UCS
  5
7
100
AcDbSymbolTable
 70
0
  0
ENDTAB
  0
TABLE
  2
APPID
  5
9
100
AcDbSymbolTable
 70
1
  0
APPID
  5
215
100
AcDbSymbolTableRecord
100
AcDbRegAppTableRecord
  2
ACAD
 70
0
  0
ENDTAB
  0
TABLE
  2
BLOCK_RECORD
  5
1
100
AcDbSymbolTable
 70
0
  0
BLOCK_RECORD
  5
216
100
AcDbSymbolTableRecord
100
AcDbBlockTableRecord
  2
*Model_Space
  0
BLOCK_RECORD
  5
217
100
AcDbSymbolTableRecord
100
AcDbBlockTableRecord
  2
*Paper_Space
  0
BLOCK_RECORD
  5
218
100
AcDbSymbolTableRecord
100
AcDbBlockTableRecord
  2
_FILLED
  0
ENDTAB
  0
TABLE
  2
DIMSTYLE
  5
A
100
AcDbSymbolTable
 70
1
100
AcDbDimStyleTable
 71
0
  0
DIMSTYLE
105
219
100
AcDbSymbolTableRecord
100
AcDbDimStyleTableRecord
  2
STANDARD
 70
0
  3

  4

 40
1.0
 41
0.878346483
 42
1.0
 43
0.38
 44
1.0
 45
0.0
 46
0.0
 47
0.01
 48
0.01
140
1.2296850762
141
0.09
142
0.0
143
25.4
144
1.0
145
0.0
146
1.0
147
0.625
 71
1
 72
0
 73
0
 74
0
 75
0
 76
0
 77
1
 78
8
 79
2
170
0
171
1
172
0
173
0
174
0
175
0
176
0
177
0
178
0
270
2
179
2
271
2
272
2
273
2
274
2
275
0
280
0
281
0
282
0
283
1
284
8
285
0
286
0
287
3
288
0
340
11
278
46
341
218
342
218
343
218
344
218
  0
ENDTAB
  0
ENDSEC
  0
SECTION
  2
BLOCKS
  0
BLOCK
  5
20
100
AcDbEntity
  8
0
100
AcDbBlockBegin
  2
*Model_Space
 70
0
 10
0.0
 20
0.0
 30
0.0
  3
*Model_Space
  1

  0
ENDBLK
  5
21
100
AcDbEntity
  8
0
100
AcDbBlockEnd
  0
BLOCK
  5
1C
100
AcDbEntity
  8
0
100
AcDbBlockBegin
  2
*Paper_Space
 70
0
 10
0.0
 20
0.0
 30
0.0
  3
*Paper_Space
  1

  0
ENDBLK
  5
1D
100
AcDbEntity
  8
0
100
AcDbBlockEnd
  0
BLOCK
  5
21A
100
AcDbEntity
  8
0
100
AcDbBlockBegin
  2
_FILLED
 70
64
 10
0.0
 20
0.0
  3
_FILLED
  1

  0
SOLID
  5
21B
100
AcDbEntity
  8
0
  6
BYBLOCK
 62
0
100
AcDbTrace
 10
0.0
 20
0.0
 11
-1.0
 21
0.25
 12
-1.0
 22
-0.25
 13
-1.0
 23
-0.25
  0
ENDBLK
  5
21C
100
AcDbEntity
  8
0
  6
BYBLOCK
 62
0
100
AcDbBlockEnd
  0
ENDSEC
  0
SECTION
  2
ENTITIES
  0
LINE
  5
21D
100
AcDbEntity
  8
INTFCLR_18
100
AcDbLine
 62
7
420
3368703
  6
CONTINUOUS
 10
67.4795867335
 20
9.9123242008
 11
8.2173237556
 21
9.9123242008
  0
LINE
  5
21E
100
AcDbEntity
  8
00_COMPONENTS_1
100
AcDbLine
 62
7
  6
CONTINUOUS
 10
20.7243953455
 20
16.7966360104
 11
18.7268969099
 21
16.7966360104
  0
LINE
  5
21F
100
AcDbEntity
  8
INTFCLR_18
100
AcDbLine
 62
7
420
3368703
  6
CONTINUOUS
 10
10.0987748138
 20
16.7966360104
 11
64.1525174416
 21
16.7966360104
  0
LINE
  5
220
100
AcDbEntity
  8
00_COMPONENTS_1
100
AcDbLine
 62
7
  6
CONTINUOUS
 10
14.7256461277
 20
19.2466360104
 11
59.5256461277
 21
19.2466360104
  0
LINE
  5
221
100
AcDbEntity
  8
INTFCLR_18
100
AcDbLine
 62
7
420
3368703
  6
CONTINUOUS
 10
8.2173237556
 20
19.3304375233
 11
14.7256461277
 21
19.3304375233
  0
LINE
  5
222
100
AcDbEntity
  8
INTFCLR_18
100
AcDbLine
 62
7
420
3368703
  6
CONTINUOUS
 10
8.2173237556
 20
9.9123242008
 11
8.2173237556
 21
19.3304375233
  0
LINE
  5
223
100
AcDbEntity
  8
INTFCLR_18
100
AcDbLine
 62
7
420
3368703
  6
CONTINUOUS
 10
10.0987748138
 20
93.7065697575
 11
10.0987748138
 21
16.7966360104
  0
LINE
  5
224
100
AcDbEntity
  8
INTFCLR_18
100
AcDbLine
 62
7
420
3368703
  6
CONTINUOUS
 10
59.5256461277
 20
22.9615777319
 11
67.4795867335
 21
22.9615777319
  0
LINE
  5
225
100
AcDbEntity
  8
00_COMPONENTS_1
100
AcDbLine
 62
7
  6
CONTINUOUS
 10
54.084189074
 20
24.1666360104
 11
51.7556461277
 21
24.1666360104
  0
LINE
  5
226
100
AcDbEntity
  8
00_COMPONENTS_1
100
AcDbLine
 62
7
  6
CONTINUOUS
 10
50.4956461277
 20
24.1666360104
 11
48.1671031814
 21
24.1666360104
  0
LINE
  5
227
100
AcDbEntity
  8
00_COMPONENTS_1
100
AcDbLine
 62
7
  6
CONTINUOUS
 10
40.084189074
 20
24.1666360104
 11
37.7556461277
 21
24.1666360104
  0
LINE
  5
228
100
AcDbEntity
  8
00_COMPONENTS_1
100
AcDbLine
 62
7
  6
CONTINUOUS
 10
36.4956461277
 20
24.1666360104
 11
34.1671031814
 21
24.1666360104
  0
LINE
  5
229
100
AcDbEntity
  8
00_COMPONENTS_1
100
AcDbLine
 62
7
  6
CONTINUOUS
 10
26.084189074
 20
24.1666360104
 11
23.7556461277
 21
24.1666360104
  0
LINE
  5
22A
100
AcDbEntity
  8
00_COMPONENTS_1
100
AcDbLine
 62
7
  6
CONTINUOUS
 10
22.4956461277
 20
24.1666360104
 11
20.1671031814
 21
24.1666360104
  0
LINE
  5
22B
100
AcDbEntity
  8
INTFCLR_18
100
AcDbLine
 62
7
420
3368703
  6
CONTINUOUS
 10
20.1671031814
 20
24.1666360104
 11
22.4956461277
 21
24.1666360104
  0
LINE
  5
22C
100
AcDbEntity
  8
INTFCLR_18
100
AcDbLine
 62
7
420
3368703
  6
CONTINUOUS
 10
23.7556461277
 20
24.1666360104
 11
26.084189074
 21
24.1666360104
  0
LINE
  5
22D
100
AcDbEntity
  8
INTFCLR_18
100
AcDbLine
 62
7
420
3368703
  6
CONTINUOUS
 10
34.1671031814
 20
24.1666360104
 11
36.4956461277
 21
24.1666360104
  0
LINE
  5
22E
100
AcDbEntity
  8
INTFCLR_18
100
AcDbLine
 62
7
420
3368703
  6
CONTINUOUS
 10
37.7556461277
 20
24.1666360104
 11
40.084189074
 21
24.1666360104
  0
LINE
  5
22F
100
AcDbEntity
  8
INTFCLR_18
100
AcDbLine
 62
7
420
3368703
  6
CONTINUOUS
 10
48.1671031814
 20
24.1666360104
 11
50.4956461277
 21
24.1666360104
  0
LINE
  5
230
100
AcDbEntity
  8
INTFCLR_18
100
AcDbLine
 62
7
420
3368703
  6
CONTINUOUS
 10
51.7556461277
 20
24.1666360104
 11
54.084189074
 21
24.1666360104
  0
LINE
  5
231
100
AcDbEntity
  8
INTFCLR_18
100
AcDbLine
 62
7
420
3368703
  6
CONTINUOUS
 10
54.084189074
 20
25.4266360104
 11
51.7556461277
 21
25.4266360104
  0
LINE
  5
232
100
AcDbEntity
  8
INTFCLR_18
100
AcDbLine
 62
7
420
3368703
  6
CONTINUOUS
 10
50.4956461277
 20
25.4266360104
 11
48.1671031814
 21
25.4266360104
  0
LINE
  5
233
100
AcDbEntity
  8
INTFCLR_18
100
AcDbLine
 62
7
420
3368703
  6
CONTINUOUS
 10
40.084189074
 20
25.4266360104
 11
37.7556461277
 21
25.4266360104
  0
LINE
  5
234
100
AcDbEntity
  8
INTFCLR_18
100
AcDbLine
 62
7
420
3368703
  6
CONTINUOUS
 10
36.4956461277
 20
25.4266360104
 11
34.1671031814
 21
25.4266360104
  0
LINE
  5
235
100
AcDbEntity
  8
INTFCLR_18
100
AcDbLine
 62
7
420
3368703
  6
CONTINUOUS
 10
26.084189074
 20
25.4266360104
 11
23.7556461277
 21
25.4266360104
  0
LINE
  5
236
100
AcDbEntity
  8
INTFCLR_18
100
AcDbLine
 62
7
420
3368703
  6
CONTINUOUS
 10
22.4956461277
 20
25.4266360104
 11
20.1671031814
 21
25.4266360104
  0
LINE
  5
237
100
AcDbEntity
  8
00_COMPONENTS_1
100
AcDbLine
 62
7
  6
CONTINUOUS
 10
20.1671031814
 20
25.4266360104
 11
22.4956461277
 21
25.4266360104
  0
LINE
  5
238
100
AcDbEntity
  8
00_COMPONENTS_1
100
AcDbLine
 62
7
  6
CONTINUOUS
 10
23.7556461277
 20
25.4266360104
 11
26.084189074
 21
25.4266360104
  0
LINE
  5
239
100
AcDbEntity
  8
00_COMPONENTS_1
100
AcDbLine
 62
7
  6
CONTINUOUS
 10
34.1671031814
 20
25.4266360104
 11
36.4956461277
 21
25.4266360104
  0
LINE
  5
23A
100
AcDbEntity
  8
00_COMPONENTS_1
100
AcDbLine
 62
7
  6
CONTINUOUS
 10
37.7556461277
 20
25.4266360104
 11
40.084189074
 21
25.4266360104
  0
LINE
  5
23B
100
AcDbEntity
  8
00_COMPONENTS_1
100
AcDbLine
 62
7
  6
CONTINUOUS
 10
48.1671031814
 20
25.4266360104
 11
50.4956461277
 21
25.4266360104
  0
LINE
  5
23C
100
AcDbEntity
  8
00_COMPONENTS_1
100
AcDbLine
 62
7
  6
CONTINUOUS
 10
51.7556461277
 20
25.4266360104
 11
54.084189074
 21
25.4266360104
  0
LINE
  5
23D
100
AcDbEntity
  8
INTFCLR_18
100
AcDbLine
 62
7
420
3368703
  6
CONTINUOUS
 10
14.7256461277
 20
93.7966360104
 11
14.7256461277
 21
16.7966360104
  0
LINE
  5
23E
100
AcDbEntity
  8
00_COMPONENTS_1
100
AcDbLine
 62
7
  6
CONTINUOUS
 10
14.7256461277
 20
19.2466360104
 11
14.7256461277
 21
91.1966360104
  0
LINE
  5
23F
100
AcDbEntity
  8
INTFCLR_18
100
AcDbLine
 62
7
420
3368703
  6
CONTINUOUS
 10
14.8256461277
 20
70.0466360104
 11
14.8256461277
 21
66.0466360104
  0
LINE
  5
240
100
AcDbEntity
  8
INTFCLR_18
100
AcDbLine
 62
7
420
3368703
  6
CONTINUOUS
 10
14.8256461277
 20
44.6966360104
 11
14.8256461277
 21
40.6966360104
  0
LINE
  5
241
100
AcDbEntity
  8
00_COMPONENTS_1
100
AcDbLine
 62
7
  6
CONTINUOUS
 10
14.8256461277
 20
44.6966360104
 11
14.8256461277
 21
66.0466360104
  0
LINE
  5
242
100
AcDbEntity
  8
INTFCLR_18
100
AcDbLine
 62
7
420
3368703
  6
CONTINUOUS
 10
59.5256461277
 20
29.2866360104
 11
14.72564527
 21
29.2866360104
  0
LINE
  5
243
100
AcDbEntity
  8
00_COMPONENTS_1
100
AcDbLine
 62
7
  6
CONTINUOUS
 10
14.7256461277
 20
29.2866360104
 11
59.5256461277
 21
29.2866360104
  0
LINE
  5
244
100
AcDbEntity
  8
INTFCLR_18
100
AcDbLine
 62
7
420
3368703
  6
CONTINUOUS
 10
22.4956461277
 20
88.7553054749
 11
22.4956461277
 21
86.4266360104
  0
LINE
  5
245
100
AcDbEntity
  8
INTFCLR_18
100
AcDbLine
 62
7
420
3368703
  6
CONTINUOUS
 10
22.4956461277
 20
85.1666360104
 11
22.4956461277
 21
82.8379665459
  0
LINE
  5
246
100
AcDbEntity
  8
INTFCLR_18
100
AcDbLine
 62
7
420
3368703
  6
CONTINUOUS
 10
22.4956461277
 20
27.7525190876
 11
22.4956461277
 21
25.4266360104
  0
LINE
  5
247
100
AcDbEntity
  8
INTFCLR_18
100
AcDbLine
 62
7
420
3368703
  6
CONTINUOUS
 10
22.4956461277
 20
24.1666360104
 11
22.4956461277
 21
21.8407529333
  0
LINE
  5
248
100
AcDbEntity
  8
00_COMPONENTS_1
100
AcDbLine
 62
7
  6
CONTINUOUS
 10
22.4956461277
 20
21.8407529333
 11
22.4956461277
 21
24.1666360104
  0
LINE
  5
249
100
AcDbEntity
  8
00_COMPONENTS_1
100
AcDbLine
 62
7
  6
CONTINUOUS
 10
22.4956461277
 20
25.4266360104
 11
22.4956461277
 21
27.7525190876
  0
LINE
  5
24A
100
AcDbEntity
  8
00_COMPONENTS_1
100
AcDbLine
 62
7
  6
CONTINUOUS
 10
22.4956461277
 20
82.8379665459
 11
22.4956461277
 21
85.1666360104
  0
LINE
  5
24B
100
AcDbEntity
  8
00_COMPONENTS_1
100
AcDbLine
 62
7
  6
CONTINUOUS
 10
22.4956461277
 20
86.4266360104
 11
22.4956461277
 21
88.7553054749
  0
LINE
  5
24C
100
AcDbEntity
  8
00_COMPONENTS_1
100
AcDbLine
 62
7
  6
CONTINUOUS
 10
23.7556461277
 20
88.7553054749
 11
23.7556461277
 21
86.4266360104
  0
LINE
  5
24D
100
AcDbEntity
  8
00_COMPONENTS_1
100
AcDbLine
 62
7
  6
CONTINUOUS
 10
23.7556461277
 20
85.1666360104
 11
23.7556461277
 21
82.8379665459
  0
LINE
  5
24E
100
AcDbEntity
  8
00_COMPONENTS_1
100
AcDbLine
 62
7
  6
CONTINUOUS
 10
23.7556461277
 20
27.7525190876
 11
23.7556461277
 21
25.4266360104
  0
LINE
  5
24F
100
AcDbEntity
  8
00_COMPONENTS_1
100
AcDbLine
 62
7
  6
CONTINUOUS
 10
23.7556461277
 20
24.1666360104
 11
23.7556461277
 21
21.8407529333
  0
LINE
  5
250
100
AcDbEntity
  8
INTFCLR_18
100
AcDbLine
 62
7
420
3368703
  6
CONTINUOUS
 10
23.7556461277
 20
21.8407529333
 11
23.7556461277
 21
24.1666360104
  0
LINE
  5
251
100
AcDbEntity
  8
INTFCLR_18
100
AcDbLine
 62
7
420
3368703
  6
CONTINUOUS
 10
23.7556461277
 20
25.4266360104
 11
23.7556461277
 21
27.7525190876
  0
LINE
  5
252
100
AcDbEntity
  8
INTFCLR_18
100
AcDbLine
 62
7
420
3368703
  6
CONTINUOUS
 10
23.7556461277
 20
82.8379665459
 11
23.7556461277
 21
85.1666360104
  0
LINE
  5
253
100
AcDbEntity
  8
INTFCLR_18
100
AcDbLine
 62
7
420
3368703
  6
CONTINUOUS
 10
23.7556461277
 20
86.4266360104
 11
23.7556461277
 21
88.7553054749
  0
LINE
  5
254
100
AcDbEntity
  8
00_COMPONENTS_1
100
AcDbLine
 62
7
  6
CONTINUOUS
 10
56.5098713203
 20
35.4666360104
 11
54.1556461277
 21
35.4666360104
  0
LINE
  5
255
100
AcDbEntity
  8
00_COMPONENTS_1
100
AcDbLine
 62
7
  6
CONTINUOUS
 10
52.8956461277
 20
35.4666360104
 11
50.5414209351
 21
35.4666360104
  0
LINE
  5
256
100
AcDbEntity
  8
00_COMPONENTS_1
100
AcDbLine
 62
7
  6
CONTINUOUS
 10
45.9098713203
 20
35.4666360104
 11
43.5825252605
 21
35.4666360104
  0
LINE
  5
257
100
AcDbEntity
  8
00_COMPONENTS_1
100
AcDbLine
 62
7
  6
CONTINUOUS
 10
42.2956461277
 20
35.4666360104
 11
39.9414209351
 21
35.4666360104
  0
LINE
  5
258
100
AcDbEntity
  8
00_COMPONENTS_1
100
AcDbLine
 62
7
  6
CONTINUOUS
 10
35.3098713203
 20
35.4666360104
 11
32.9556461277
 21
35.4666360104
  0
LINE
  5
259
100
AcDbEntity
  8
00_COMPONENTS_1
100
AcDbLine
 62
7
  6
CONTINUOUS
 10
31.6956461277
 20
35.4666360104
 11
29.3414209351
 21
35.4666360104
  0
LINE
  5
25A
100
AcDbEntity
  8
INTFCLR_18
100
AcDbLine
 62
7
420
3368703
  6
CONTINUOUS
 10
29.3414209351
 20
35.4666360104
 11
31.6956461277
 21
35.4666360104
  0
LINE
  5
25B
100
AcDbEntity
  8
INTFCLR_18
100
AcDbLine
 62
7
420
3368703
  6
CONTINUOUS
 10
32.9556461277
 20
35.4666360104
 11
35.3098713203
 21
35.4666360104
  0
LINE
  5
25C
100
AcDbEntity
  8
INTFCLR_18
100
AcDbLine
 62
7
420
3368703
  6
CONTINUOUS
 10
39.9414209351
 20
35.4666360104
 11
42.2956461277
 21
35.4666360104
  0
LINE
  5
25D
100
AcDbEntity
  8
INTFCLR_18
100
AcDbLine
 62
7
420
3368703
  6
CONTINUOUS
 10
43.5825252605
 20
35.4666360104
 11
45.9098713203
 21
35.4666360104
  0
LINE
  5
25E
100
AcDbEntity
  8
INTFCLR_18
100
AcDbLine
 62
7
420
3368703
  6
CONTINUOUS
 10
50.5414209351
 20
35.4666360104
 11
52.8956461277
 21
35.4666360104
  0
LINE
  5
25F
100
AcDbEntity
  8
INTFCLR_18
100
AcDbLine
 62
7
420
3368703
  6
CONTINUOUS
 10
54.1556461277
 20
35.4666360104
 11
56.5098713203
 21
35.4666360104
  0
LINE
  5
260
100
AcDbEntity
  8
INTFCLR_18
100
AcDbLine
 62
7
420
3368703
  6
CONTINUOUS
 10
56.5098713203
 20
36.7266360104
 11
54.1556461277
 21
36.7266360104
  0
LINE
  5
261
100
AcDbEntity
  8
INTFCLR_18
100
AcDbLine
 62
7
420
3368703
  6
CONTINUOUS
 10
52.8956461277
 20
36.7266360104
 11
50.5414209351
 21
36.7266360104
  0
LINE
  5
262
100
AcDbEntity
  8
INTFCLR_18
100
AcDbLine
 62
7
420
3368703
  6
CONTINUOUS
 10
45.9098713203
 20
36.7266360104
 11
43.5825252605
 21
36.7266360104
  0
LINE
  5
263
100
AcDbEntity
  8
INTFCLR_18
100
AcDbLine
 62
7
420
3368703
  6
CONTINUOUS
 10
42.2956461277
 20
36.7266360104
 11
39.9414209351
 21
36.7266360104
  0
LINE
  5
264
100
AcDbEntity
  8
INTFCLR_18
100
AcDbLine
 62
7
420
3368703
  6
CONTINUOUS
 10
35.3098713203
 20
36.7266360104
 11
32.9556461277
 21
36.7266360104
  0
LINE
  5
265
100
AcDbEntity
  8
INTFCLR_18
100
AcDbLine
 62
7
420
3368703
  6
CONTINUOUS
 10
31.6956461277
 20
36.7266360104
 11
29.3414209351
 21
36.7266360104
  0
LINE
  5
266
100
AcDbEntity
  8
00_COMPONENTS_1
100
AcDbLine
 62
7
  6
CONTINUOUS
 10
29.3414209351
 20
36.7266360104
 11
31.6956461277
 21
36.7266360104
  0
LINE
  5
267
100
AcDbEntity
  8
00_COMPONENTS_1
100
AcDbLine
 62
7
  6
CONTINUOUS
 10
32.9556461277
 20
36.7266360104
 11
35.3098713203
 21
36.7266360104
  0
LINE
  5
268
100
AcDbEntity
  8
00_COMPONENTS_1
100
AcDbLine
 62
7
  6
CONTINUOUS
 10
39.9414209351
 20
36.7266360104
 11
42.2956461277
 21
36.7266360104
  0
LINE
  5
269
100
AcDbEntity
  8
00_COMPONENTS_1
100
AcDbLine
 62
7
  6
CONTINUOUS
 10
43.5825252605
 20
36.7266360104
 11
45.9098713203
 21
36.7266360104
  0
LINE
  5
26A
100
AcDbEntity
  8
00_COMPONENTS_1
100
AcDbLine
 62
7
  6
CONTINUOUS
 10
50.5414209351
 20
36.7266360104
 11
52.8956461277
 21
36.7266360104
  0
LINE
  5
26B
100
AcDbEntity
  8
00_COMPONENTS_1
100
AcDbLine
 62
7
  6
CONTINUOUS
 10
54.1556461277
 20
36.7266360104
 11
56.5098713203
 21
36.7266360104
  0
LINE
  5
26C
100
AcDbEntity
  8
03_AXES_1
100
AcDbLine
 62
2
  6
CONTINUOUS
 10
26.6256461277
 20
91.554580127
 11
26.6256461277
 21
91.8459198399
  0
LINE
  5
26D
100
AcDbEntity
  8
00_COMPONENTS_1
100
AcDbLine
 62
7
  6
CONTINUOUS
 10
59.5256461277
 20
40.3866360104
 11
14.7256461277
 21
40.3866360104
  0
LINE
  5
26E
100
AcDbEntity
  8
00_COMPONENTS_1
100
AcDbLine
 62
7
  6
CONTINUOUS
 10
55.4256461277
 20
40.6966360104
 11
18.8256461277
 21
40.6966360104
  0
LINE
  5
26F
100
AcDbEntity
  8
INTFCLR_18
100
AcDbLine
 62
7
420
3368703
  6
CONTINUOUS
 10
14.8256461277
 20
40.6966360104
 11
18.8256461277
 21
40.6966360104
  0
LINE
  5
270
100
AcDbEntity
  8
INTFCLR_18
100
AcDbLine
 62
7
420
3368703
  6
CONTINUOUS
 10
55.4256461277
 20
40.6966360104
 11
59.4256461277
 21
40.6966360104
  0
LINE
  5
271
100
AcDbEntity
  8
00_COMPONENTS_1
100
AcDbLine
 62
7
  6
CONTINUOUS
 10
50.6708998277
 20
91.748118308
 11
51.1487081469
 21
92.575706593
  0
LINE
  5
272
100
AcDbEntity
  8
INTFCLR_18
100
AcDbLine
 62
7
420
3368703
  6
CONTINUOUS
 10
50.6708998277
 20
91.748118308
 11
51.1487081468
 21
92.575706593
  0
LINE
  5
273
100
AcDbEntity
  8
INTFCLR_18
100
AcDbLine
 62
7
420
3368703
  6
CONTINUOUS
 10
48.6556461277
 20
44.5366360104
 11
46.8256461277
 21
44.5366360104
  0
LINE
  5
274
100
AcDbEntity
  8
INTFCLR_18
100
AcDbLine
 62
7
420
3368703
  6
CONTINUOUS
 10
31.6956461277
 20
77.680861203
 11
31.6956461277
 21
75.3266360104
  0
LINE
  5
275
100
AcDbEntity
  8
INTFCLR_18
100
AcDbLine
 62
7
420
3368703
  6
CONTINUOUS
 10
31.6956461277
 20
74.0666360104
 11
31.6956461277
 21
71.7124108178
  0
LINE
  5
276
100
AcDbEntity
  8
INTFCLR_18
100
AcDbLine
 62
7
420
3368703
  6
CONTINUOUS
 10
31.6956461277
 20
39.080861203
 11
31.6956461277
 21
36.7266360104
  0
LINE
  5
277
100
AcDbEntity
  8
INTFCLR_18
100
AcDbLine
 62
7
420
3368703
  6
CONTINUOUS
 10
31.6956461277
 20
35.4666360104
 11
31.6956461277
 21
33.1124108178
  0
LINE
  5
278
100
AcDbEntity
  8
00_COMPONENTS_1
100
AcDbLine
 62
7
  6
CONTINUOUS
 10
31.6956461277
 20
33.1124108178
 11
31.6956461277
 21
35.4666360104
  0
LINE
  5
279
100
AcDbEntity
  8
00_COMPONENTS_1
100
AcDbLine
 62
7
  6
CONTINUOUS
 10
31.6956461277
 20
36.7266360104
 11
31.6956461277
 21
39.080861203
  0
LINE
  5
27A
100
AcDbEntity
  8
00_COMPONENTS_1
100
AcDbLine
 62
7
  6
CONTINUOUS
 10
31.6956461277
 20
71.7124108178
 11
31.6956461277
 21
74.0666360104
  0
LINE
  5
27B
100
AcDbEntity
  8
00_COMPONENTS_1
100
AcDbLine
 62
7
  6
CONTINUOUS
 10
31.6956461277
 20
75.3266360104
 11
31.6956461277
 21
77.680861203
  0
LINE
  5
27C
100
AcDbEntity
  8
00_COMPONENTS_1
100
AcDbLine
 62
7
  6
CONTINUOUS
 10
32.9556461277
 20
77.680861203
 11
32.9556461277
 21
75.3266360104
  0
LINE
  5
27D
100
AcDbEntity
  8
00_COMPONENTS_1
100
AcDbLine
 62
7
  6
CONTINUOUS
 10
32.9556461277
 20
74.0666360104
 11
32.9556461277
 21
71.7124108178
  0
LINE
  5
27E
100
AcDbEntity
  8
00_COMPONENTS_1
100
AcDbLine
 62
7
  6
CONTINUOUS
 10
32.9556461277
 20
39.080861203
 11
32.9556461277
 21
36.7266360104
  0
LINE
  5
27F
100
AcDbEntity
  8
00_COMPONENTS_1
100
AcDbLine
 62
7
  6
CONTINUOUS
 10
32.9556461277
 20
35.4666360104
 11
32.9556461277
 21
33.1124108178
  0
LINE
  5
280
100
AcDbEntity
  8
INTFCLR_18
100
AcDbLine
 62
7
420
3368703
  6
CONTINUOUS
 10
32.9556461277
 20
33.1124108178
 11
32.9556461277
 21
35.4666360104
  0
LINE
  5
281
100
AcDbEntity
  8
INTFCLR_18
100
AcDbLine
 62
7
420
3368703
  6
CONTINUOUS
 10
32.9556461277
 20
36.7266360104
 11
32.9556461277
 21
39.080861203
  0
LINE
  5
282
100
AcDbEntity
  8
INTFCLR_18
100
AcDbLine
 62
7
420
3368703
  6
CONTINUOUS
 10
32.9556461277
 20
71.7124108178
 11
32.9556461277
 21
74.0666360104
  0
LINE
  5
283
100
AcDbEntity
  8
INTFCLR_18
100
AcDbLine
 62
7
420
3368703
  6
CONTINUOUS
 10
32.9556461277
 20
75.3266360104
 11
32.9556461277
 21
77.680861203
  0
LINE
  5
284
100
AcDbEntity
  8
INTFCLR_18
100
AcDbLine
 62
7
420
3368703
  6
CONTINUOUS
 10
36.4956461277
 20
88.7553054749
 11
36.4956461277
 21
86.4266360104
  0
LINE
  5
285
100
AcDbEntity
  8
INTFCLR_18
100
AcDbLine
 62
7
420
3368703
  6
CONTINUOUS
 10
36.4956461277
 20
85.1666360104
 11
36.4956461277
 21
82.8379665459
  0
LINE
  5
286
100
AcDbEntity
  8
INTFCLR_18
100
AcDbLine
 62
7
420
3368703
  6
CONTINUOUS
 10
36.4956461277
 20
27.7525190876
 11
36.4956461277
 21
25.4266360104
  0
LINE
  5
287
100
AcDbEntity
  8
INTFCLR_18
100
AcDbLine
 62
7
420
3368703
  6
CONTINUOUS
 10
36.4956461277
 20
24.1666360104
 11
36.4956461277
 21
21.8407529333
  0
LINE
  5
288
100
AcDbEntity
  8
00_COMPONENTS_1
100
AcDbLine
 62
7
  6
CONTINUOUS
 10
36.4956461277
 20
21.8407529333
 11
36.4956461277
 21
24.1666360104
  0
LINE
  5
289
100
AcDbEntity
  8
00_COMPONENTS_1
100
AcDbLine
 62
7
  6
CONTINUOUS
 10
36.4956461277
 20
25.4266360104
 11
36.4956461277
 21
27.7525190876
  0
LINE
  5
28A
100
AcDbEntity
  8
00_COMPONENTS_1
100
AcDbLine
 62
7
  6
CONTINUOUS
 10
36.4956461277
 20
82.8379665459
 11
36.4956461277
 21
85.1666360104
  0
LINE
  5
28B
100
AcDbEntity
  8
00_COMPONENTS_1
100
AcDbLine
 62
7
  6
CONTINUOUS
 10
36.4956461277
 20
86.4266360104
 11
36.4956461277
 21
88.7553054749
  0
LINE
  5
28C
100
AcDbEntity
  8
00_COMPONENTS_1
100
AcDbLine
 62
7
  6
CONTINUOUS
 10
37.7556461277
 20
88.7553054749
 11
37.7556461277
 21
86.4266360104
  0
LINE
  5
28D
100
AcDbEntity
  8
00_COMPONENTS_1
100
AcDbLine
 62
7
  6
CONTINUOUS
 10
37.7556461277
 20
85.1666360104
 11
37.7556461277
 21
82.8379665459
  0
LINE
  5
28E
100
AcDbEntity
  8
00_COMPONENTS_1
100
AcDbLine
 62
7
  6
CONTINUOUS
 10
37.7556461277
 20
27.7525190876
 11
37.7556461277
 21
25.4266360104
  0
LINE
  5
28F
100
AcDbEntity
  8
00_COMPONENTS_1
100
AcDbLine
 62
7
  6
CONTINUOUS
 10
37.7556461277
 20
24.1666360104
 11
37.7556461277
 21
21.8407529333
  0
LINE
  5
290
100
AcDbEntity
  8
INTFCLR_18
100
AcDbLine
 62
7
420
3368703
  6
CONTINUOUS
 10
37.7556461277
 20
21.8407529333
 11
37.7556461277
 21
24.1666360104
  0
LINE
  5
291
100
AcDbEntity
  8
INTFCLR_18
100
AcDbLine
 62
7
420
3368703
  6
CONTINUOUS
 10
37.7556461277
 20
25.4266360104
 11
37.7556461277
 21
27.7525190876
  0
LINE
  5
292
100
AcDbEntity
  8
INTFCLR_18
100
AcDbLine
 62
7
420
3368703
  6
CONTINUOUS
 10
37.7556461277
 20
82.8379665459
 11
37.7556461277
 21
85.1666360104
  0
LINE
  5
293
100
AcDbEntity
  8
INTFCLR_18
100
AcDbLine
 62
7
420
3368703
  6
CONTINUOUS
 10
37.7556461277
 20
86.4266360104
 11
37.7556461277
 21
88.7553054749
  0
LINE
  5
294
100
AcDbEntity
  8
INTFCLR_18
100
AcDbLine
 62
7
420
3368703
  6
CONTINUOUS
 10
42.2956461277
 20
77.680861203
 11
42.2956461277
 21
75.3266360104
  0
LINE
  5
295
100
AcDbEntity
  8
INTFCLR_18
100
AcDbLine
 62
7
420
3368703
  6
CONTINUOUS
 10
42.2956461277
 20
74.0666360104
 11
42.2956461277
 21
71.7124108178
  0
LINE
  5
296
100
AcDbEntity
  8
INTFCLR_18
100
AcDbLine
 62
7
420
3368703
  6
CONTINUOUS
 10
42.2956461277
 20
39.080861203
 11
42.2956461277
 21
36.7266360104
  0
LINE
  5
297
100
AcDbEntity
  8
INTFCLR_18
100
AcDbLine
 62
7
420
3368703
  6
CONTINUOUS
 10
42.2956461277
 20
35.4666360104
 11
42.2956461277
 21
33.1124108178
  0
LINE
  5
298
100
AcDbEntity
  8
00_COMPONENTS_1
100
AcDbLine
 62
7
  6
CONTINUOUS
 10
42.2956461277
 20
33.1124108178
 11
42.2956461277
 21
35.4666360104
  0
LINE
  5
299
100
AcDbEntity
  8
00_COMPONENTS_1
100
AcDbLine
 62
7
  6
CONTINUOUS
 10
42.2956461277
 20
36.7266360104
 11
42.2956461277
 21
39.080861203
  0
LINE
  5
29A
100
AcDbEntity
  8
00_COMPONENTS_1
100
AcDbLine
 62
7
  6
CONTINUOUS
 10
42.2956461277
 20
71.7124108178
 11
42.2956461277
 21
74.0666360104
  0
LINE
  5
29B
100
AcDbEntity
  8
00_COMPONENTS_1
100
AcDbLine
 62
7
  6
CONTINUOUS
 10
42.2956461277
 20
75.3266360104
 11
42.2956461277
 21
77.680861203
  0
LINE
  5
29C
100
AcDbEntity
  8
00_COMPONENTS_1
100
AcDbLine
 62
7
  6
CONTINUOUS
 10
43.5825252605
 20
77.6750600576
 11
43.5825252605
 21
75.3266360104
  0
LINE
  5
29D
100
AcDbEntity
  8
00_COMPONENTS_1
100
AcDbLine
 62
7
  6
CONTINUOUS
 10
43.5825252605
 20
74.0666360104
 11
43.5825252605
 21
71.7182119632
  0
LINE
  5
29E
100
AcDbEntity
  8
00_COMPONENTS_1
100
AcDbLine
 62
7
  6
CONTINUOUS
 10
43.5825252605
 20
39.0750600576
 11
43.5825252605
 21
36.7266360104
  0
LINE
  5
29F
100
AcDbEntity
  8
00_COMPONENTS_1
100
AcDbLine
 62
7
  6
CONTINUOUS
 10
43.5825252605
 20
35.4666360104
 11
43.5825252605
 21
33.1182119632
  0
LINE
  5
2A0
100
AcDbEntity
  8
INTFCLR_18
100
AcDbLine
 62
7
420
3368703
  6
CONTINUOUS
 10
43.5825252605
 20
33.1182119632
 11
43.5825252605
 21
35.4666360104
  0
LINE
  5
2A1
100
AcDbEntity
  8
INTFCLR_18
100
AcDbLine
 62
7
420
3368703
  6
CONTINUOUS
 10
43.5825252605
 20
36.7266360104
 11
43.5825252605
 21
39.0750600576
  0
LINE
  5
2A2
100
AcDbEntity
  8
INTFCLR_18
100
AcDbLine
 62
7
420
3368703
  6
CONTINUOUS
 10
43.5825252605
 20
71.7182119632
 11
43.5825252605
 21
74.0666360104
  0
LINE
  5
2A3
100
AcDbEntity
  8
INTFCLR_18
100
AcDbLine
 62
7
420
3368703
  6
CONTINUOUS
 10
43.5825252605
 20
75.3266360104
 11
43.5825252605
 21
77.6750600576
  0
LINE
  5
2A4
100
AcDbEntity
  8
00_COMPONENTS_1
100
AcDbLine
 62
7
  6
CONTINUOUS
 10
23.5803924277
 20
18.7451537128
 11
23.1025841086
 21
17.9175654278
  0
LINE
  5
2A5
100
AcDbEntity
  8
INTFCLR_18
100
AcDbLine
 62
7
420
3368703
  6
CONTINUOUS
 10
50.4956461277
 20
88.7553054749
 11
50.4956461277
 21
86.4266360104
  0
LINE
  5
2A6
100
AcDbEntity
  8
INTFCLR_18
100
AcDbLine
 62
7
420
3368703
  6
CONTINUOUS
 10
50.4956461277
 20
85.1666360104
 11
50.4956461277
 21
82.8379665459
  0
LINE
  5
2A7
100
AcDbEntity
  8
INTFCLR_18
100
AcDbLine
 62
7
420
3368703
  6
CONTINUOUS
 10
50.4956461277
 20
27.7525190876
 11
50.4956461277
 21
25.4266360104
  0
LINE
  5
2A8
100
AcDbEntity
  8
INTFCLR_18
100
AcDbLine
 62
7
420
3368703
  6
CONTINUOUS
 10
50.4956461277
 20
24.1666360104
 11
50.4956461277
 21
21.8407529333
  0
LINE
  5
2A9
100
AcDbEntity
  8
00_COMPONENTS_1
100
AcDbLine
 62
7
  6
CONTINUOUS
 10
50.4956461277
 20
21.8407529333
 11
50.4956461277
 21
24.1666360104
  0
LINE
  5
2AA
100
AcDbEntity
  8
00_COMPONENTS_1
100
AcDbLine
 62
7
  6
CONTINUOUS
 10
50.4956461277
 20
25.4266360104
 11
50.4956461277
 21
27.7525190876
  0
LINE
  5
2AB
100
AcDbEntity
  8
00_COMPONENTS_1
100
AcDbLine
 62
7
  6
CONTINUOUS
 10
50.4956461277
 20
82.8379665459
 11
50.4956461277
 21
85.1666360104
  0
LINE
  5
2AC
100
AcDbEntity
  8
00_COMPONENTS_1
100
AcDbLine
 62
7
  6
CONTINUOUS
 10
50.4956461277
 20
86.4266360104
 11
50.4956461277
 21
88.7553054749
  0
LINE
  5
2AD
100
AcDbEntity
  8
00_COMPONENTS_1
100
AcDbLine
 62
7
  6
CONTINUOUS
 10
51.7556461277
 20
88.7553054749
 11
51.7556461277
 21
86.4266360104
  0
LINE
  5
2AE
100
AcDbEntity
  8
00_COMPONENTS_1
100
AcDbLine
 62
7
  6
CONTINUOUS
 10
51.7556461277
 20
85.1666360104
 11
51.7556461277
 21
82.8379665459
  0
LINE
  5
2AF
100
AcDbEntity
  8
00_COMPONENTS_1
100
AcDbLine
 62
7
  6
CONTINUOUS
 10
51.7556461277
 20
27.7525190876
 11
51.7556461277
 21
25.4266360104
  0
LINE
  5
2B0
100
AcDbEntity
  8
00_COMPONENTS_1
100
AcDbLine
 62
7
  6
CONTINUOUS
 10
51.7556461277
 20
24.1666360104
 11
51.7556461277
 21
21.8407529333
  0
LINE
  5
2B1
100
AcDbEntity
  8
INTFCLR_18
100
AcDbLine
 62
7
420
3368703
  6
CONTINUOUS
 10
51.7556461277
 20
21.8407529333
 11
51.7556461277
 21
24.1666360104
  0
LINE
  5
2B2
100
AcDbEntity
  8
INTFCLR_18
100
AcDbLine
 62
7
420
3368703
  6
CONTINUOUS
 10
51.7556461277
 20
25.4266360104
 11
51.7556461277
 21
27.7525190876
  0
LINE
  5
2B3
100
AcDbEntity
  8
INTFCLR_18
100
AcDbLine
 62
7
420
3368703
  6
CONTINUOUS
 10
51.7556461277
 20
82.8379665459
 11
51.7556461277
 21
85.1666360104
  0
LINE
  5
2B4
100
AcDbEntity
  8
INTFCLR_18
100
AcDbLine
 62
7
420
3368703
  6
CONTINUOUS
 10
51.7556461277
 20
86.4266360104
 11
51.7556461277
 21
88.7553054749
  0
LINE
  5
2B5
100
AcDbEntity
  8
INTFCLR_18
100
AcDbLine
 62
7
420
3368703
  6
CONTINUOUS
 10
52.8956461277
 20
77.680861203
 11
52.8956461277
 21
75.3266360104
  0
LINE
  5
2B6
100
AcDbEntity
  8
INTFCLR_18
100
AcDbLine
 62
7
420
3368703
  6
CONTINUOUS
 10
52.8956461277
 20
74.0666360104
 11
52.8956461277
 21
71.7124108178
  0
LINE
  5
2B7
100
AcDbEntity
  8
INTFCLR_18
100
AcDbLine
 62
7
420
3368703
  6
CONTINUOUS
 10
52.8956461277
 20
39.080861203
 11
52.8956461277
 21
36.7266360104
  0
LINE
  5
2B8
100
AcDbEntity
  8
INTFCLR_18
100
AcDbLine
 62
7
420
3368703
  6
CONTINUOUS
 10
52.8956461277
 20
35.4666360104
 11
52.8956461277
 21
33.1124108178
  0
LINE
  5
2B9
100
AcDbEntity
  8
00_COMPONENTS_1
100
AcDbLine
 62
7
  6
CONTINUOUS
 10
52.8956461277
 20
33.1124108178
 11
52.8956461277
 21
35.4666360104
  0
LINE
  5
2BA
100
AcDbEntity
  8
00_COMPONENTS_1
100
AcDbLine
 62
7
  6
CONTINUOUS
 10
52.8956461277
 20
36.7266360104
 11
52.8956461277
 21
39.080861203
  0
LINE
  5
2BB
100
AcDbEntity
  8
00_COMPONENTS_1
100
AcDbLine
 62
7
  6
CONTINUOUS
 10
52.8956461277
 20
71.7124108178
 11
52.8956461277
 21
74.0666360104
  0
LINE
  5
2BC
100
AcDbEntity
  8
00_COMPONENTS_1
100
AcDbLine
 62
7
  6
CONTINUOUS
 10
52.8956461277
 20
75.3266360104
 11
52.8956461277
 21
77.680861203
  0
LINE
  5
2BD
100
AcDbEntity
  8
00_COMPONENTS_1
100
AcDbLine
 62
7
  6
CONTINUOUS
 10
54.1556461277
 20
77.680861203
 11
54.1556461277
 21
75.3266360104
  0
LINE
  5
2BE
100
AcDbEntity
  8
00_COMPONENTS_1
100
AcDbLine
 62
7
  6
CONTINUOUS
 10
54.1556461277
 20
74.0666360104
 11
54.1556461277
 21
71.7124108178
  0
LINE
  5
2BF
100
AcDbEntity
  8
00_COMPONENTS_1
100
AcDbLine
 62
7
  6
CONTINUOUS
 10
54.1556461277
 20
39.080861203
 11
54.1556461277
 21
36.7266360104
  0
LINE
  5
2C0
100
AcDbEntity
  8
00_COMPONENTS_1
100
AcDbLine
 62
7
  6
CONTINUOUS
 10
54.1556461277
 20
35.4666360104
 11
54.1556461277
 21
33.1124108178
  0
LINE
  5
2C1
100
AcDbEntity
  8
INTFCLR_18
100
AcDbLine
 62
7
420
3368703
  6
CONTINUOUS
 10
54.1556461277
 20
33.1124108178
 11
54.1556461277
 21
35.4666360104
  0
LINE
  5
2C2
100
AcDbEntity
  8
INTFCLR_18
100
AcDbLine
 62
7
420
3368703
  6
CONTINUOUS
 10
54.1556461277
 20
36.7266360104
 11
54.1556461277
 21
39.080861203
  0
LINE
  5
2C3
100
AcDbEntity
  8
INTFCLR_18
100
AcDbLine
 62
7
420
3368703
  6
CONTINUOUS
 10
54.1556461277
 20
71.7124108178
 11
54.1556461277
 21
74.0666360104
  0
LINE
  5
2C4
100
AcDbEntity
  8
INTFCLR_18
100
AcDbLine
 62
7
420
3368703
  6
CONTINUOUS
 10
54.1556461277
 20
75.3266360104
 11
54.1556461277
 21
77.680861203
  0
LINE
  5
2C5
100
AcDbEntity
  8
INTFCLR_18
100
AcDbLine
 62
7
420
3368703
  6
CONTINUOUS
 10
59.4256461277
 20
70.0466360104
 11
55.4256461277
 21
70.0466360104
  0
LINE
  5
2C6
100
AcDbEntity
  8
INTFCLR_18
100
AcDbLine
 62
7
420
3368703
  6
CONTINUOUS
 10
18.8256461277
 20
70.0466360104
 11
14.8256461277
 21
70.0466360104
  0
LINE
  5
2C7
100
AcDbEntity
  8
00_COMPONENTS_1
100
AcDbLine
 62
7
  6
CONTINUOUS
 10
14.7256461277
 20
70.0466360104
 11
59.5256461277
 21
70.0466360104
  0
LINE
  5
2C8
100
AcDbEntity
  8
00_COMPONENTS_1
100
AcDbLine
 62
7
  6
CONTINUOUS
 10
59.4256461277
 20
66.0466360104
 11
59.4256461277
 21
44.6966360104
  0
LINE
  5
2C9
100
AcDbEntity
  8
INTFCLR_18
100
AcDbLine
 62
7
420
3368703
  6
CONTINUOUS
 10
59.4256461277
 20
40.6966360104
 11
59.4256461277
 21
44.6966360104
  0
LINE
  5
2CA
100
AcDbEntity
  8
INTFCLR_18
100
AcDbLine
 62
7
420
3368703
  6
CONTINUOUS
 10
59.4256461277
 20
66.0466360104
 11
59.4256461277
 21
70.0466360104
  0
LINE
  5
2CB
100
AcDbEntity
  8
INTFCLR_18
100
AcDbLine
 62
7
420
3368703
  6
CONTINUOUS
 10
59.5256461277
 20
44.6966360104
 11
59.5256461277
 21
66.0466360104
  0
LINE
  5
2CC
100
AcDbEntity
  8
00_COMPONENTS_1
100
AcDbLine
 62
7
  6
CONTINUOUS
 10
59.5256461277
 20
19.2466360104
 11
59.5256461277
 21
91.1966360104
  0
LINE
  5
2CD
100
AcDbEntity
  8
INTFCLR_18
100
AcDbLine
 62
7
420
3368703
  6
CONTINUOUS
 10
59.5256461277
 20
91.1966360104
 11
59.5256461277
 21
93.7966360104
  0
LINE
  5
2CE
100
AcDbEntity
  8
00_COMPONENTS_1
100
AcDbLine
 62
7
  6
CONTINUOUS
 10
56.5098713203
 20
74.0666360104
 11
54.1556461277
 21
74.0666360104
  0
LINE
  5
2CF
100
AcDbEntity
  8
00_COMPONENTS_1
100
AcDbLine
 62
7
  6
CONTINUOUS
 10
52.8956461277
 20
74.0666360104
 11
50.5414209351
 21
74.0666360104
  0
LINE
  5
2D0
100
AcDbEntity
  8
00_COMPONENTS_1
100
AcDbLine
 62
7
  6
CONTINUOUS
 10
45.9098713203
 20
74.0666360104
 11
43.5825252605
 21
74.0666360104
  0
LINE
  5
2D1
100
AcDbEntity
  8
00_COMPONENTS_1
100
AcDbLine
 62
7
  6
CONTINUOUS
 10
42.2956461277
 20
74.0666360104
 11
39.9414209351
 21
74.0666360104
  0
LINE
  5
2D2
100
AcDbEntity
  8
00_COMPONENTS_1
100
AcDbLine
 62
7
  6
CONTINUOUS
 10
35.3098713203
 20
74.0666360104
 11
32.9556461277
 21
74.0666360104
  0
LINE
  5
2D3
100
AcDbEntity
  8
00_COMPONENTS_1
100
AcDbLine
 62
7
  6
CONTINUOUS
 10
31.6956461277
 20
74.0666360104
 11
29.3414209351
 21
74.0666360104
  0
LINE
  5
2D4
100
AcDbEntity
  8
INTFCLR_18
100
AcDbLine
 62
7
420
3368703
  6
CONTINUOUS
 10
29.3414209351
 20
74.0666360104
 11
31.6956461277
 21
74.0666360104
  0
LINE
  5
2D5
100
AcDbEntity
  8
INTFCLR_18
100
AcDbLine
 62
7
420
3368703
  6
CONTINUOUS
 10
32.9556461277
 20
74.0666360104
 11
35.3098713203
 21
74.0666360104
  0
LINE
  5
2D6
100
AcDbEntity
  8
INTFCLR_18
100
AcDbLine
 62
7
420
3368703
  6
CONTINUOUS
 10
39.9414209351
 20
74.0666360104
 11
42.2956461277
 21
74.0666360104
  0
LINE
  5
2D7
100
AcDbEntity
  8
INTFCLR_18
100
AcDbLine
 62
7
420
3368703
  6
CONTINUOUS
 10
43.5825252605
 20
74.0666360104
 11
45.9098713203
 21
74.0666360104
  0
LINE
  5
2D8
100
AcDbEntity
  8
INTFCLR_18
100
AcDbLine
 62
7
420
3368703
  6
CONTINUOUS
 10
50.5414209351
 20
74.0666360104
 11
52.8956461277
 21
74.0666360104
  0
LINE
  5
2D9
100
AcDbEntity
  8
INTFCLR_18
100
AcDbLine
 62
7
420
3368703
  6
CONTINUOUS
 10
54.1556461277
 20
74.0666360104
 11
56.5098713203
 21
74.0666360104
  0
LINE
  5
2DA
100
AcDbEntity
  8
INTFCLR_18
100
AcDbLine
 62
7
420
3368703
  6
CONTINUOUS
 10
56.5098713203
 20
75.3266360104
 11
54.1556461277
 21
75.3266360104
  0
LINE
  5
2DB
100
AcDbEntity
  8
INTFCLR_18
100
AcDbLine
 62
7
420
3368703
  6
CONTINUOUS
 10
52.8956461277
 20
75.3266360104
 11
50.5414209351
 21
75.3266360104
  0
LINE
  5
2DC
100
AcDbEntity
  8
INTFCLR_18
100
AcDbLine
 62
7
420
3368703
  6
CONTINUOUS
 10
45.9098713203
 20
75.3266360104
 11
43.5825252605
 21
75.3266360104
  0
LINE
  5
2DD
100
AcDbEntity
  8
INTFCLR_18
100
AcDbLine
 62
7
420
3368703
  6
CONTINUOUS
 10
42.2956461277
 20
75.3266360104
 11
39.9414209351
 21
75.3266360104
  0
LINE
  5
2DE
100
AcDbEntity
  8
INTFCLR_18
100
AcDbLine
 62
7
420
3368703
  6
CONTINUOUS
 10
35.3098713203
 20
75.3266360104
 11
32.9556461277
 21
75.3266360104
  0
LINE
  5
2DF
100
AcDbEntity
  8
INTFCLR_18
100
AcDbLine
 62
7
420
3368703
  6
CONTINUOUS
 10
31.6956461277
 20
75.3266360104
 11
29.3414209351
 21
75.3266360104
  0
LINE
  5
2E0
100
AcDbEntity
  8
00_COMPONENTS_1
100
AcDbLine
 62
7
  6
CONTINUOUS
 10
29.3414209351
 20
75.3266360104
 11
31.6956461277
 21
75.3266360104
  0
LINE
  5
2E1
100
AcDbEntity
  8
00_COMPONENTS_1
100
AcDbLine
 62
7
  6
CONTINUOUS
 10
32.9556461277
 20
75.3266360104
 11
35.3098713203
 21
75.3266360104
  0
LINE
  5
2E2
100
AcDbEntity
  8
00_COMPONENTS_1
100
AcDbLine
 62
7
  6
CONTINUOUS
 10
39.9414209351
 20
75.3266360104
 11
42.2956461277
 21
75.3266360104
  0
LINE
  5
2E3
100
AcDbEntity
  8
00_COMPONENTS_1
100
AcDbLine
 62
7
  6
CONTINUOUS
 10
43.5825252605
 20
75.3266360104
 11
45.9098713203
 21
75.3266360104
  0
LINE
  5
2E4
100
AcDbEntity
  8
00_COMPONENTS_1
100
AcDbLine
 62
7
  6
CONTINUOUS
 10
50.5414209351
 20
75.3266360104
 11
52.8956461277
 21
75.3266360104
  0
LINE
  5
2E5
100
AcDbEntity
  8
00_COMPONENTS_1
100
AcDbLine
 62
7
  6
CONTINUOUS
 10
54.1556461277
 20
75.3266360104
 11
56.5098713203
 21
75.3266360104
  0
LINE
  5
2E6
100
AcDbEntity
  8
INTFCLR_18
100
AcDbLine
 62
7
420
3368703
  6
CONTINUOUS
 10
64.1525174416
 20
16.7966360104
 11
64.1525174416
 21
93.7065697575
  0
LINE
  5
2E7
100
AcDbEntity
  8
INTFCLR_18
100
AcDbLine
 62
7
420
3368703
  6
CONTINUOUS
 10
67.4795867335
 20
22.9615777319
 11
67.4795867335
 21
9.9123242008
  0
LINE
  5
2E8
100
AcDbEntity
  8
00_COMPONENTS_1
100
AcDbLine
 62
7
  6
CONTINUOUS
 10
59.5256461277
 20
81.1466360104
 11
14.7256461277
 21
81.1466360104
  0
LINE
  5
2E9
100
AcDbEntity
  8
INTFCLR_18
100
AcDbLine
 62
7
420
3368703
  6
CONTINUOUS
 10
57.2756461277
 20
82.1966360104
 11
48.7756461277
 21
82.1966360104
  0
LINE
  5
2EA
100
AcDbEntity
  8
INTFCLR_18
100
AcDbLine
 62
7
420
3368703
  6
CONTINUOUS
 10
46.6756461277
 20
82.1966360104
 11
38.1756461277
 21
82.1966360104
  0
LINE
  5
2EB
100
AcDbEntity
  8
INTFCLR_18
100
AcDbLine
 62
7
420
3368703
  6
CONTINUOUS
 10
36.0756461277
 20
82.1966360104
 11
27.5756461277
 21
82.1966360104
  0
LINE
  5
2EC
100
AcDbEntity
  8
00_COMPONENTS_1
100
AcDbLine
 62
7
  6
CONTINUOUS
 10
54.0843155922
 20
85.1666360104
 11
51.7556461277
 21
85.1666360104
  0
LINE
  5
2ED
100
AcDbEntity
  8
00_COMPONENTS_1
100
AcDbLine
 62
7
  6
CONTINUOUS
 10
50.4956461277
 20
85.1666360104
 11
48.1669766632
 21
85.1666360104
  0
LINE
  5
2EE
100
AcDbEntity
  8
00_COMPONENTS_1
100
AcDbLine
 62
7
  6
CONTINUOUS
 10
40.0843155922
 20
85.1666360104
 11
37.7556461277
 21
85.1666360104
  0
LINE
  5
2EF
100
AcDbEntity
  8
00_COMPONENTS_1
100
AcDbLine
 62
7
  6
CONTINUOUS
 10
36.4956461277
 20
85.1666360104
 11
34.1669766632
 21
85.1666360104
  0
LINE
  5
2F0
100
AcDbEntity
  8
00_COMPONENTS_1
100
AcDbLine
 62
7
  6
CONTINUOUS
 10
26.0843155922
 20
85.1666360104
 11
23.7556461277
 21
85.1666360104
  0
LINE
  5
2F1
100
AcDbEntity
  8
00_COMPONENTS_1
100
AcDbLine
 62
7
  6
CONTINUOUS
 10
22.4956461277
 20
85.1666360104
 11
20.1669766632
 21
85.1666360104
  0
LINE
  5
2F2
100
AcDbEntity
  8
INTFCLR_18
100
AcDbLine
 62
7
420
3368703
  6
CONTINUOUS
 10
20.1669766632
 20
85.1666360104
 11
22.4956461277
 21
85.1666360104
  0
LINE
  5
2F3
100
AcDbEntity
  8
INTFCLR_18
100
AcDbLine
 62
7
420
3368703
  6
CONTINUOUS
 10
23.7556461277
 20
85.1666360104
 11
26.0843155922
 21
85.1666360104
  0
LINE
  5
2F4
100
AcDbEntity
  8
INTFCLR_18
100
AcDbLine
 62
7
420
3368703
  6
CONTINUOUS
 10
34.1669766632
 20
85.1666360104
 11
36.4956461277
 21
85.1666360104
  0
LINE
  5
2F5
100
AcDbEntity
  8
INTFCLR_18
100
AcDbLine
 62
7
420
3368703
  6
CONTINUOUS
 10
37.7556461277
 20
85.1666360104
 11
40.0843155922
 21
85.1666360104
  0
LINE
  5
2F6
100
AcDbEntity
  8
INTFCLR_18
100
AcDbLine
 62
7
420
3368703
  6
CONTINUOUS
 10
48.1669766632
 20
85.1666360104
 11
50.4956461277
 21
85.1666360104
  0
LINE
  5
2F7
100
AcDbEntity
  8
INTFCLR_18
100
AcDbLine
 62
7
420
3368703
  6
CONTINUOUS
 10
51.7556461277
 20
85.1666360104
 11
54.0843155922
 21
85.1666360104
  0
LINE
  5
2F8
100
AcDbEntity
  8
INTFCLR_18
100
AcDbLine
 62
7
420
3368703
  6
CONTINUOUS
 10
54.0843155922
 20
86.4266360104
 11
51.7556461277
 21
86.4266360104
  0
LINE
  5
2F9
100
AcDbEntity
  8
INTFCLR_18
100
AcDbLine
 62
7
420
3368703
  6
CONTINUOUS
 10
50.4956461277
 20
86.4266360104
 11
48.1669766632
 21
86.4266360104
  0
LINE
  5
2FA
100
AcDbEntity
  8
INTFCLR_18
100
AcDbLine
 62
7
420
3368703
  6
CONTINUOUS
 10
40.0843155922
 20
86.4266360104
 11
37.7556461277
 21
86.4266360104
  0
LINE
  5
2FB
100
AcDbEntity
  8
INTFCLR_18
100
AcDbLine
 62
7
420
3368703
  6
CONTINUOUS
 10
36.4956461277
 20
86.4266360104
 11
34.1669766632
 21
86.4266360104
  0
LINE
  5
2FC
100
AcDbEntity
  8
INTFCLR_18
100
AcDbLine
 62
7
420
3368703
  6
CONTINUOUS
 10
26.0843155922
 20
86.4266360104
 11
23.7556461277
 21
86.4266360104
  0
LINE
  5
2FD
100
AcDbEntity
  8
INTFCLR_18
100
AcDbLine
 62
7
420
3368703
  6
CONTINUOUS
 10
22.4956461277
 20
86.4266360104
 11
20.1669766632
 21
86.4266360104
  0
LINE
  5
2FE
100
AcDbEntity
  8
00_COMPONENTS_1
100
AcDbLine
 62
7
  6
CONTINUOUS
 10
20.1669766632
 20
86.4266360104
 11
22.4956461277
 21
86.4266360104
  0
LINE
  5
2FF
100
AcDbEntity
  8
00_COMPONENTS_1
100
AcDbLine
 62
7
  6
CONTINUOUS
 10
23.7556461277
 20
86.4266360104
 11
26.0843155922
 21
86.4266360104
  0
LINE
  5
300
100
AcDbEntity
  8
00_COMPONENTS_1
100
AcDbLine
 62
7
  6
CONTINUOUS
 10
34.1669766632
 20
86.4266360104
 11
36.4956461277
 21
86.4266360104
  0
LINE
  5
301
100
AcDbEntity
  8
00_COMPONENTS_1
100
AcDbLine
 62
7
  6
CONTINUOUS
 10
37.7556461277
 20
86.4266360104
 11
40.0843155922
 21
86.4266360104
  0
LINE
  5
302
100
AcDbEntity
  8
00_COMPONENTS_1
100
AcDbLine
 62
7
  6
CONTINUOUS
 10
48.1669766632
 20
86.4266360104
 11
50.4956461277
 21
86.4266360104
  0
LINE
  5
303
100
AcDbEntity
  8
00_COMPONENTS_1
100
AcDbLine
 62
7
  6
CONTINUOUS
 10
51.7556461277
 20
86.4266360104
 11
54.0843155922
 21
86.4266360104
  0
LINE
  5
304
100
AcDbEntity
  8
00_COMPONENTS_1
100
AcDbLine
 62
7
  6
CONTINUOUS
 10
59.5256461277
 20
91.1966360104
 11
14.7256461277
 21
91.1966360104
  0
LINE
  5
305
100
AcDbEntity
  8
INTFCLR_18
100
AcDbLine
 62
7
420
3368703
  6
CONTINUOUS
 10
59.5256461277
 20
91.1966360104
 11
14.725646775
 21
91.1966360104
  0
LINE
  5
306
100
AcDbEntity
  8
INTFCLR_18
100
AcDbLine
 62
7
420
3368703
  6
CONTINUOUS
 10
64.1525174416
 20
93.7065697575
 11
10.0987748138
 21
93.7065697575
  0
LINE
  5
307
100
AcDbEntity
  8
INTFCLR_18
100
AcDbLine
 62
7
420
3368703
  6
CONTINUOUS
 10
59.5256461277
 20
93.7966360104
 11
14.7256461277
 21
93.7966360104
  0
ARC
  5
308
100
AcDbEntity
  8
00_COMPONENTS_1
100
AcDbCircle
 62
7
  6
CONTINUOUS
 10
19.6256461277
 20
20.2466360104
 40
2.25
100
AcDbArc
 50
214.5436988154
 51
325.3291897263
  0
ARC
  5
309
100
AcDbEntity
  8
00_COMPONENTS_1
100
AcDbCircle
 62
7
  6
CONTINUOUS
 10
16.7256461277
 20
19.3304375233
 40
2.0
100
AcDbArc
 50
181.9967025168
 51
247.9756871629
  0
ARC
  5
30A
100
AcDbEntity
  8
00_COMPONENTS_1
100
AcDbCircle
 62
7
  6
CONTINUOUS
 10
19.7256461277
 20
26.7466360104
 40
10.0
100
AcDbArc
 50
275.7319679654
 51
281.8652626888
  0
ARC
  5
30B
100
AcDbEntity
  8
00_COMPONENTS_1
100
AcDbCircle
 62
7
  6
CONTINUOUS
 10
19.7256461277
 20
26.7466360104
 40
10.0
100
AcDbArc
 50
247.9756871629
 51
264.2680320346
  0
ARC
  5
30C
100
AcDbEntity
  8
INTFCLR_18
100
AcDbCircle
 62
7
420
3368703
  6
CONTINUOUS
 10
19.7256461277
 20
26.7466360104
 40
10.0
100
AcDbArc
 50
264.9204749259
 51
274.6032107904
  0
ARC
  5
30D
100
AcDbEntity
  8
00_COMPONENTS_1
100
AcDbCircle
 62
7
  6
CONTINUOUS
 10
21.370533301
 20
18.9175654278
 40
2.0
100
AcDbArc
 50
281.8652626888
 51
330.0
  0
ARC
  5
30E
100
AcDbEntity
  8
00_COMPONENTS_1
100
AcDbCircle
 62
7
  6
CONTINUOUS
 10
24.4464178315
 20
18.2451537128
 40
1.0
100
AcDbArc
 50
80.9942443432
 51
150.0000000002
  0
CIRCLE
  5
30F
100
AcDbEntity
  8
00_COMPONENTS_1
100
AcDbCircle
 62
7
  6
CONTINUOUS
 10
23.1715279754
 20
24.7466360104
 40
3.2
  0
CIRCLE
  5
310
100
AcDbEntity
  8
INTFCLR_18
100
AcDbCircle
 62
7
420
3368703
  6
CONTINUOUS
 10
23.1715279754
 20
24.7466360104
 40
3.2
  0
ARC
  5
311
100
AcDbEntity
  8
INTFCLR_18
100
AcDbCircle
 62
7
420
3368703
  6
CONTINUOUS
 10
23.1351957917
 20
24.7524430656
 40
3.0674403391
100
AcDbArc
 50
102.0687212506
 51
102.6574735955
  0
ARC
  5
312
100
AcDbEntity
  8
INTFCLR_18
100
AcDbCircle
 62
7
420
3368703
  6
CONTINUOUS
 10
23.1161067607
 20
24.8407823537
 40
3.0673926139
100
AcDbArc
 50
282.0327217109
 51
282.6574766708
  0
ARC
  5
313
100
AcDbEntity
  8
INTFCLR_18
100
AcDbCircle
 62
7
420
3368703
  6
CONTINUOUS
 10
23.1340366614
 20
24.8352996146
 40
3.0617908543
100
AcDbArc
 50
257.9308579206
 51
259.483599782
  0
ARC
  5
314
100
AcDbEntity
  8
INTFCLR_18
100
AcDbCircle
 62
7
420
3368703
  6
CONTINUOUS
 10
23.1172804366
 20
24.7580997496
 40
3.0616611157
100
AcDbArc
 50
77.9668731929
 51
79.4836219204
  0
ARC
  5
315
100
AcDbEntity
  8
INTFCLR_18
100
AcDbCircle
 62
7
420
3368703
  6
CONTINUOUS
 10
23.1179272008
 20
24.760215796
 40
3.0594567351
100
AcDbArc
 50
72.9693700816
 51
77.9704577296
  0
ARC
  5
316
100
AcDbEntity
  8
INTFCLR_18
100
AcDbCircle
 62
7
420
3368703
  6
CONTINUOUS
 10
23.1333383245
 20
24.8329580276
 40
3.0593550152
100
AcDbArc
 50
252.9693101078
 51
257.9344779413
  0
ARC
  5
317
100
AcDbEntity
  8
INTFCLR_18
100
AcDbCircle
 62
7
420
3368703
  6
CONTINUOUS
 10
23.1184574951
 20
24.8311259387
 40
3.0574557817
100
AcDbArc
 50
282.6541471646
 51
287.0317225886
  0
ARC
  5
318
100
AcDbEntity
  8
INTFCLR_18
100
AcDbCircle
 62
7
420
3368703
  6
CONTINUOUS
 10
23.1328347603
 20
24.7621460821
 40
3.0574557817
100
AcDbArc
 50
102.6541471648
 51
107.0317225888
  0
ARC
  5
319
100
AcDbEntity
  8
INTFCLR_18
100
AcDbCircle
 62
7
420
3368703
  6
CONTINUOUS
 10
23.150722247
 20
24.8010042958
 40
3.0502104666
100
AcDbArc
 50
184.1579192692
 51
192.00308694
  0
ARC
  5
31A
100
AcDbEntity
  8
INTFCLR_18
100
AcDbCircle
 62
7
420
3368703
  6
CONTINUOUS
 10
23.1504929196
 20
24.7923043294
 40
3.0499790888
100
AcDbArc
 50
169.5199219776
 51
175.8424541985
  0
ARC
  5
31B
100
AcDbEntity
  8
INTFCLR_18
100
AcDbCircle
 62
7
420
3368703
  6
CONTINUOUS
 10
23.1444006656
 20
24.7934942586
 40
3.0437720246
100
AcDbArc
 50
167.9947493111
 51
169.5210878734
  0
ARC
  5
31C
100
AcDbEntity
  8
INTFCLR_18
100
AcDbCircle
 62
7
420
3368703
  6
CONTINUOUS
 10
23.1070227403
 20
24.7997522954
 40
3.0436384297
100
AcDbArc
 50
347.9541248088
 51
349.5211102602
  0
ARC
  5
31D
100
AcDbEntity
  8
INTFCLR_18
100
AcDbCircle
 62
7
420
3368703
  6
CONTINUOUS
 10
23.1367465982
 20
24.798168404
 40
3.0359506142
100
AcDbArc
 50
192.0055884497
 51
192.6420677245
  0
ARC
  5
31E
100
AcDbEntity
  8
INTFCLR_18
100
AcDbCircle
 62
7
420
3368703
  6
CONTINUOUS
 10
23.1147074891
 20
24.7951393045
 40
3.035784895
100
AcDbArc
 50
0.0453321293
 51
12.6420789725
  0
ARC
  5
31F
100
AcDbEntity
  8
INTFCLR_18
100
AcDbCircle
 62
7
420
3368703
  6
CONTINUOUS
 10
23.1171435499
 20
24.798744872
 40
3.0335033108
100
AcDbArc
 50
349.5050541849
 51
359.9601685363
  0
ARC
  5
320
100
AcDbEntity
  8
INTFCLR_18
100
AcDbCircle
 62
7
420
3368703
  6
CONTINUOUS
 10
23.133085708
 20
24.7964765569
 40
3.0324395845
100
AcDbArc
 50
179.9969872401
 51
182.8227611909
  0
ARC
  5
321
100
AcDbEntity
  8
INTFCLR_18
100
AcDbCircle
 62
7
420
3368703
  6
CONTINUOUS
 10
23.1255889786
 20
24.8012306856
 40
3.0267515247
100
AcDbArc
 50
259.5231181156
 51
282.0132516582
  0
ARC
  5
322
100
AcDbEntity
  8
INTFCLR_18
100
AcDbCircle
 62
7
420
3368703
  6
CONTINUOUS
 10
23.1257040078
 20
24.792064834
 40
3.026728228
100
AcDbArc
 50
79.5230508352
 51
102.0498350248
  0
ARC
  5
323
100
AcDbEntity
  8
INTFCLR_18
100
AcDbCircle
 62
7
420
3368703
  6
CONTINUOUS
 10
23.125335796
 20
24.7969562523
 40
3.0246896852
100
AcDbArc
 50
175.7599068607
 51
180.0060662447
  0
ARC
  5
324
100
AcDbEntity
  8
INTFCLR_18
100
AcDbCircle
 62
7
420
3368703
  6
CONTINUOUS
 10
23.1168882968
 20
24.7965633829
 40
3.0162958612
100
AcDbArc
 50
185.6726387017
 51
192.0544624571
  0
ARC
  5
325
100
AcDbEntity
  8
INTFCLR_18
100
AcDbCircle
 62
7
420
3368703
  6
CONTINUOUS
 10
23.1150190704
 20
24.8001127499
 40
3.0136564144
100
AcDbArc
 50
162.9270835751
 51
168.0016378398
  0
ARC
  5
326
100
AcDbEntity
  8
INTFCLR_18
100
AcDbCircle
 62
7
420
3368703
  6
CONTINUOUS
 10
23.1364842503
 20
24.793101301
 40
3.0134376311
100
AcDbArc
 50
342.9269590167
 51
347.960895129
  0
ARC
  5
327
100
AcDbEntity
  8
INTFCLR_18
100
AcDbCircle
 62
7
420
3368703
  6
CONTINUOUS
 10
23.113211025
 20
24.7973255559
 40
3.0125708414
100
AcDbArc
 50
167.9424060476
 51
175.7498617462
  0
ARC
  5
328
100
AcDbEntity
  8
INTFCLR_18
100
AcDbCircle
 62
7
420
3368703
  6
CONTINUOUS
 10
23.1395236876
 20
24.7975057634
 40
3.0111225657
100
AcDbArc
 50
347.9400258272
 51
12.0599741728
  0
ARC
  5
329
100
AcDbEntity
  8
INTFCLR_18
100
AcDbCircle
 62
7
420
3368703
  6
CONTINUOUS
 10
23.1116490262
 20
24.7922270192
 40
3.010161185
100
AcDbArc
 50
192.6362719037
 51
197.0747862803
  0
ARC
  5
32A
100
AcDbEntity
  8
INTFCLR_18
100
AcDbCircle
 62
7
420
3368703
  6
CONTINUOUS
 10
23.1396432291
 20
24.8010450016
 40
3.010161185
100
AcDbArc
 50
12.6362719039
 51
17.0747862804
  0
ARC
  5
32B
100
AcDbEntity
  8
INTFCLR_18
100
AcDbCircle
 62
7
420
3368703
  6
CONTINUOUS
 10
23.1081857027
 20
24.7953165485
 40
3.0075126659
100
AcDbArc
 50
182.8240497627
 51
185.6653893729
  0
ARC
  5
32C
100
AcDbEntity
  8
INTFCLR_18
100
AcDbCircle
 62
7
420
3368703
  6
CONTINUOUS
 10
23.0961094289
 20
24.796102511
 40
2.9954633487
100
AcDbArc
 50
175.8394975998
 51
184.1605024002
  0
ARC
  5
32D
100
AcDbEntity
  8
INTFCLR_18
100
AcDbCircle
 62
7
420
3368703
  6
CONTINUOUS
 10
23.1797981066
 20
24.7449886889
 40
2.9487641898
100
AcDbArc
 50
308.3841774267
 51
321.8089902017
  0
ARC
  5
32E
100
AcDbEntity
  8
INTFCLR_18
100
AcDbCircle
 62
7
420
3368703
  6
CONTINUOUS
 10
23.0714941487
 20
24.848283332
 40
2.9487641898
100
AcDbArc
 50
128.3841774266
 51
141.8089902012
  0
ARC
  5
32F
100
AcDbEntity
  8
INTFCLR_18
100
AcDbCircle
 62
7
420
3368703
  6
CONTINUOUS
 10
23.0713421905
 20
24.7446835108
 40
2.9484409349
100
AcDbArc
 50
218.4536249329
 51
231.8374865242
  0
ARC
  5
330
100
AcDbEntity
  8
INTFCLR_18
100
AcDbCircle
 62
7
420
3368703
  6
CONTINUOUS
 10
23.1799500649
 20
24.8485885101
 40
2.9484409349
100
AcDbArc
 50
38.4536249333
 51
51.8374865244
  0
ARC
  5
331
100
AcDbEntity
  8
00_COMPONENTS_1
100
AcDbCircle
 62
7
  6
CONTINUOUS
 10
18.8256461277
 20
44.6966360104
 40
4.0
100
AcDbArc
 50
180.0
 51
270.0
  0
ARC
  5
332
100
AcDbEntity
  8
INTFCLR_18
100
AcDbCircle
 62
7
420
3368703
  6
CONTINUOUS
 10
18.7256461277
 20
44.6966360104
 40
4.0
100
AcDbArc
 50
180.0
 51
270.0
  0
ARC
  5
333
100
AcDbEntity
  8
INTFCLR_18
100
AcDbCircle
 62
7
420
3368703
  6
CONTINUOUS
 10
37.1160964636
 20
24.8408289555
 40
3.0674403394
100
AcDbArc
 50
282.0687212501
 51
282.6574735953
  0
ARC
  5
334
100
AcDbEntity
  8
INTFCLR_18
100
AcDbCircle
 62
7
420
3368703
  6
CONTINUOUS
 10
37.1172555939
 20
24.7579724062
 40
3.0617908543
100
AcDbArc
 50
77.93085792
 51
79.4835997818
  0
ARC
  5
335
100
AcDbEntity
  8
INTFCLR_18
100
AcDbCircle
 62
7
420
3368703
  6
CONTINUOUS
 10
37.1179539309
 20
24.7603139931
 40
3.0593550153
100
AcDbArc
 50
72.9693101077
 51
77.9344779407
  0
ARC
  5
336
100
AcDbEntity
  8
INTFCLR_18
100
AcDbCircle
 62
7
420
3368703
  6
CONTINUOUS
 10
37.1184574951
 20
24.8311259387
 40
3.0574557818
100
AcDbArc
 50
282.6541471645
 51
287.0317225885
  0
ARC
  5
337
100
AcDbEntity
  8
INTFCLR_18
100
AcDbCircle
 62
7
420
3368703
  6
CONTINUOUS
 10
37.1068915898
 20
24.7997777622
 40
3.0437720246
100
AcDbArc
 50
347.994749311
 51
349.5210878732
  0
ARC
  5
338
100
AcDbEntity
  8
INTFCLR_18
100
AcDbCircle
 62
7
420
3368703
  6
CONTINUOUS
 10
37.1145456584
 20
24.795103617
 40
3.0359506129
100
AcDbArc
 50
0.0452098174
 51
12.6420677248
  0
ARC
  5
339
100
AcDbEntity
  8
INTFCLR_18
100
AcDbCircle
 62
7
420
3368703
  6
CONTINUOUS
 10
37.1171435499
 20
24.798744872
 40
3.0335033108
100
AcDbArc
 50
349.5050541849
 51
359.9601685363
  0
ARC
  5
33A
100
AcDbEntity
  8
INTFCLR_18
100
AcDbCircle
 62
7
420
3368703
  6
CONTINUOUS
 10
37.1255882475
 20
24.8012071893
 40
3.0267282305
100
AcDbArc
 50
259.5230508448
 51
282.0498350157
  0
ARC
  5
33B
100
AcDbEntity
  8
INTFCLR_18
100
AcDbCircle
 62
7
420
3368703
  6
CONTINUOUS
 10
37.1253357959
 20
24.7969562523
 40
3.0246896852
100
AcDbArc
 50
175.7599068604
 51
180.0060662446
  0
ARC
  5
33C
100
AcDbEntity
  8
INTFCLR_18
100
AcDbCircle
 62
7
420
3368703
  6
CONTINUOUS
 10
37.1168882977
 20
24.796563383
 40
3.016295862
100
AcDbArc
 50
185.6726387019
 51
192.0544624554
  0
ARC
  5
33D
100
AcDbEntity
  8
INTFCLR_18
100
AcDbCircle
 62
7
420
3368703
  6
CONTINUOUS
 10
37.1148080051
 20
24.8001707198
 40
3.0134376311
100
AcDbArc
 50
162.9269590167
 51
167.960895129
  0
ARC
  5
33E
100
AcDbEntity
  8
INTFCLR_18
100
AcDbCircle
 62
7
420
3368703
  6
CONTINUOUS
 10
37.1132110258
 20
24.7973255559
 40
3.0125708422
100
AcDbArc
 50
167.9424060492
 51
175.7498617458
  0
ARC
  5
33F
100
AcDbEntity
  8
INTFCLR_18
100
AcDbCircle
 62
7
420
3368703
  6
CONTINUOUS
 10
37.1116490263
 20
24.7922270192
 40
3.010161185
100
AcDbArc
 50
192.6362719039
 51
197.0747862804
  0
ARC
  5
340
100
AcDbEntity
  8
INTFCLR_18
100
AcDbCircle
 62
7
420
3368703
  6
CONTINUOUS
 10
37.108185703
 20
24.7953165485
 40
3.0075126662
100
AcDbArc
 50
182.8240497629
 51
185.6653893729
  0
ARC
  5
341
100
AcDbEntity
  8
INTFCLR_18
100
AcDbCircle
 62
7
420
3368703
  6
CONTINUOUS
 10
37.0961094288
 20
24.7971695098
 40
2.9954633486
100
AcDbArc
 50
175.8394975997
 51
184.1605024003
  0
ARC
  5
342
100
AcDbEntity
  8
INTFCLR_18
100
AcDbCircle
 62
7
420
3368703
  6
CONTINUOUS
 10
37.0994092633
 20
24.8236374108
 40
2.985943135
100
AcDbArc
 50
135.4208974551
 51
141.7684821276
  0
ARC
  5
343
100
AcDbEntity
  8
INTFCLR_18
100
AcDbCircle
 62
7
420
3368703
  6
CONTINUOUS
 10
37.0892357527
 20
24.8282264349
 40
2.9755027613
100
AcDbArc
 50
128.4121574196
 51
134.5817990016
  0
ARC
  5
344
100
AcDbEntity
  8
INTFCLR_18
100
AcDbCircle
 62
7
420
3368703
  6
CONTINUOUS
 10
37.0713421905
 20
24.7446835107
 40
2.9484409349
100
AcDbArc
 50
218.4536249332
 51
231.8374865241
  0
ARC
  5
345
100
AcDbEntity
  8
INTFCLR_18
100
AcDbCircle
 62
7
420
3368703
  6
CONTINUOUS
 10
37.0338392659
 20
24.8862229061
 40
2.8953108199
100
AcDbArc
 50
134.6065984545
 51
135.3923097352
  0
CIRCLE
  5
346
100
AcDbEntity
  8
00_COMPONENTS_1
100
AcDbCircle
 62
7
  6
CONTINUOUS
 10
32.3256461277
 20
36.0966360104
 40
3.25
  0
CIRCLE
  5
347
100
AcDbEntity
  8
INTFCLR_18
100
AcDbCircle
 62
7
420
3368703
  6
CONTINUOUS
 10
32.3256461277
 20
36.0966360104
 40
3.25
  0
CIRCLE
  5
348
100
AcDbEntity
  8
00_COMPONENTS_1
100
AcDbCircle
 62
7
  6
CONTINUOUS
 10
32.3256461277
 20
36.0966360104
 40
3.05
  0
CIRCLE
  5
349
100
AcDbEntity
  8
INTFCLR_18
100
AcDbCircle
 62
7
420
3368703
  6
CONTINUOUS
 10
32.3256461277
 20
36.0966360104
 40
3.05
  0
ARC
  5
34A
100
AcDbEntity
  8
00_COMPONENTS_1
100
AcDbCircle
 62
7
  6
CONTINUOUS
 10
18.8256461277
 20
66.0466360104
 40
4.0
100
AcDbArc
 50
90.0
 51
180.0
  0
ARC
  5
34B
100
AcDbEntity
  8
INTFCLR_18
100
AcDbCircle
 62
7
420
3368703
  6
CONTINUOUS
 10
18.7256461277
 20
66.0466360104
 40
4.0
100
AcDbArc
 50
90.0
 51
180.0
  0
CIRCLE
  5
34C
100
AcDbEntity
  8
00_COMPONENTS_1
100
AcDbCircle
 62
7
  6
CONTINUOUS
 10
23.1715279754
 20
85.7466360104
 40
3.1719372046
  0
CIRCLE
  5
34D
100
AcDbEntity
  8
INTFCLR_18
100
AcDbCircle
 62
7
420
3368703
  6
CONTINUOUS
 10
23.1715279754
 20
85.7466360104
 40
3.1719372046
  0
ARC
  5
34E
100
AcDbEntity
  8
00_COMPONENTS_1
100
AcDbCircle
 62
7
  6
CONTINUOUS
 10
23.1256461277
 20
85.7966360104
 40
3.025
100
AcDbArc
 50
146.4010674963
 51
141.165740358
  0
ARC
  5
34F
100
AcDbEntity
  8
INTFCLR_18
100
AcDbCircle
 62
7
420
3368703
  6
CONTINUOUS
 10
23.1256461277
 20
85.7966360104
 40
3.025
100
AcDbArc
 50
141.5846124576
 51
132.5689885939
  0
CIRCLE
  5
350
100
AcDbEntity
  8
00_COMPONENTS_1
100
AcDbCircle
 62
7
  6
CONTINUOUS
 10
32.3256461277
 20
74.6966360104
 40
3.25
  0
CIRCLE
  5
351
100
AcDbEntity
  8
INTFCLR_18
100
AcDbCircle
 62
7
420
3368703
  6
CONTINUOUS
 10
32.3256461277
 20
74.6966360104
 40
3.25
  0
CIRCLE
  5
352
100
AcDbEntity
  8
00_COMPONENTS_1
100
AcDbCircle
 62
7
  6
CONTINUOUS
 10
32.3256461277
 20
74.6966360104
 40
3.05
  0
CIRCLE
  5
353
100
AcDbEntity
  8
INTFCLR_18
100
AcDbCircle
 62
7
420
3368703
  6
CONTINUOUS
 10
32.3256461277
 20
74.6966360104
 40
3.05
  0
ARC
  5
354
100
AcDbEntity
  8
00_COMPONENTS_1
100
AcDbCircle
 62
7
  6
CONTINUOUS
 10
37.1256461277
 20
12.2466360104
 40
80.0
100
AcDbArc
 50
80.9942443416
 51
98.8953371019
  0
ARC
  5
355
100
AcDbEntity
  8
INTFCLR_18
100
AcDbCircle
 62
7
420
3368703
  6
CONTINUOUS
 10
37.1256461277
 20
12.2466360104
 40
80.0
100
AcDbArc
 50
80.9942443416
 51
99.2857129581
  0
CIRCLE
  5
356
100
AcDbEntity
  8
00_COMPONENTS_1
100
AcDbCircle
 62
7
  6
CONTINUOUS
 10
37.1715279754
 20
24.7466360104
 40
3.2
  0
CIRCLE
  5
357
100
AcDbEntity
  8
INTFCLR_18
100
AcDbCircle
 62
7
420
3368703
  6
CONTINUOUS
 10
37.1715279754
 20
24.7466360104
 40
3.2
  0
ARC
  5
358
100
AcDbEntity
  8
INTFCLR_18
100
AcDbCircle
 62
7
420
3368703
  6
CONTINUOUS
 10
37.1351854947
 20
24.7524896671
 40
3.0673926138
100
AcDbArc
 50
102.0327217111
 51
102.657476671
  0
ARC
  5
359
100
AcDbEntity
  8
INTFCLR_18
100
AcDbCircle
 62
7
420
3368703
  6
CONTINUOUS
 10
37.1340118188
 20
24.8351722713
 40
3.0616611157
100
AcDbArc
 50
257.9668731932
 51
259.4836219207
  0
ARC
  5
35A
100
AcDbEntity
  8
INTFCLR_18
100
AcDbCircle
 62
7
420
3368703
  6
CONTINUOUS
 10
37.1333650546
 20
24.8330562249
 40
3.0594567351
100
AcDbArc
 50
252.9693700819
 51
257.9704577298
  0
ARC
  5
35B
100
AcDbEntity
  8
INTFCLR_18
100
AcDbCircle
 62
7
420
3368703
  6
CONTINUOUS
 10
37.1328347603
 20
24.7621460821
 40
3.0574557818
100
AcDbArc
 50
102.6541471648
 51
107.0317225888
  0
ARC
  5
35C
100
AcDbEntity
  8
INTFCLR_18
100
AcDbCircle
 62
7
420
3368703
  6
CONTINUOUS
 10
37.1507067245
 20
24.8010028243
 40
3.0501948783
100
AcDbArc
 50
184.1579128419
 51
192.0436153307
  0
ARC
  5
35D
100
AcDbEntity
  8
INTFCLR_18
100
AcDbCircle
 62
7
420
3368703
  6
CONTINUOUS
 10
37.1504929196
 20
24.7923043294
 40
3.0499790888
100
AcDbArc
 50
169.5199219775
 51
175.8424541984
  0
ARC
  5
35E
100
AcDbEntity
  8
INTFCLR_18
100
AcDbCircle
 62
7
420
3368703
  6
CONTINUOUS
 10
37.144269515
 20
24.7935197254
 40
3.0436384295
100
AcDbArc
 50
167.9541248088
 51
169.5211102603
  0
ARC
  5
35F
100
AcDbEntity
  8
INTFCLR_18
100
AcDbCircle
 62
7
420
3368703
  6
CONTINUOUS
 10
37.136584766
 20
24.7981327163
 40
3.0357848948
100
AcDbArc
 50
192.0462519604
 51
192.6420789725
  0
ARC
  5
360
100
AcDbEntity
  8
INTFCLR_18
100
AcDbCircle
 62
7
420
3368703
  6
CONTINUOUS
 10
37.1330857078
 20
24.7964765569
 40
3.0324395843
100
AcDbArc
 50
179.9969872402
 51
182.8227611911
  0
ARC
  5
361
100
AcDbEntity
  8
INTFCLR_18
100
AcDbCircle
 62
7
420
3368703
  6
CONTINUOUS
 10
37.1257032769
 20
24.7920413364
 40
3.0267515235
100
AcDbArc
 50
79.523118113
 51
102.0132516647
  0
ARC
  5
362
100
AcDbEntity
  8
INTFCLR_18
100
AcDbCircle
 62
7
420
3368703
  6
CONTINUOUS
 10
37.136273185
 20
24.7931592709
 40
3.0136564144
100
AcDbArc
 50
342.927083575
 51
348.0016378396
  0
ARC
  5
363
100
AcDbEntity
  8
INTFCLR_18
100
AcDbCircle
 62
7
420
3368703
  6
CONTINUOUS
 10
37.1396432291
 20
24.8010450016
 40
3.010161185
100
AcDbArc
 50
12.6362719039
 51
17.0747862804
  0
ARC
  5
364
100
AcDbEntity
  8
INTFCLR_18
100
AcDbCircle
 62
7
420
3368703
  6
CONTINUOUS
 10
37.1797981066
 20
24.7449886889
 40
2.9487641898
100
AcDbArc
 50
308.3841774267
 51
321.8089902017
  0
ARC
  5
365
100
AcDbEntity
  8
INTFCLR_18
100
AcDbCircle
 62
7
420
3368703
  6
CONTINUOUS
 10
37.1799500649
 20
24.8485885101
 40
2.9484409349
100
AcDbArc
 50
38.4536249333
 51
51.8374865244
  0
CIRCLE
  5
366
100
AcDbEntity
  8
00_COMPONENTS_1
100
AcDbCircle
 62
7
  6
CONTINUOUS
 10
42.9256461277
 20
36.0966360104
 40
3.25
  0
CIRCLE
  5
367
100
AcDbEntity
  8
INTFCLR_18
100
AcDbCircle
 62
7
420
3368703
  6
CONTINUOUS
 10
42.9256461277
 20
36.0966360104
 40
3.25
  0
CIRCLE
  5
368
100
AcDbEntity
  8
00_COMPONENTS_1
100
AcDbCircle
 62
7
  6
CONTINUOUS
 10
42.9256461277
 20
36.0966360104
 40
3.05
  0
CIRCLE
  5
369
100
AcDbEntity
  8
INTFCLR_18
100
AcDbCircle
 62
7
420
3368703
  6
CONTINUOUS
 10
42.9256461277
 20
36.0966360104
 40
3.05
  0
CIRCLE
  5
36A
100
AcDbEntity
  8
00_COMPONENTS_1
100
AcDbCircle
 62
7
  6
CONTINUOUS
 10
51.1715279754
 20
24.7466360104
 40
3.2
  0
CIRCLE
  5
36B
100
AcDbEntity
  8
INTFCLR_18
100
AcDbCircle
 62
7
420
3368703
  6
CONTINUOUS
 10
51.1715279754
 20
24.7466360104
 40
3.2
  0
ARC
  5
36C
100
AcDbEntity
  8
INTFCLR_18
100
AcDbCircle
 62
7
420
3368703
  6
CONTINUOUS
 10
51.1683787013
 20
24.8083972208
 40
3.0691223823
100
AcDbArc
 50
186.1117112727
 51
192.0697625528
  0
ARC
  5
36D
100
AcDbEntity
  8
INTFCLR_18
100
AcDbCircle
 62
7
420
3368703
  6
CONTINUOUS
 10
51.1160964636
 20
24.8408289553
 40
3.0674403392
100
AcDbArc
 50
282.06872125
 51
282.6574735953
  0
ARC
  5
36E
100
AcDbEntity
  8
INTFCLR_18
100
AcDbCircle
 62
7
420
3368703
  6
CONTINUOUS
 10
51.1351854947
 20
24.752489667
 40
3.0673926139
100
AcDbArc
 50
102.0327217112
 51
102.657476671
  0
ARC
  5
36F
100
AcDbEntity
  8
INTFCLR_18
100
AcDbCircle
 62
7
420
3368703
  6
CONTINUOUS
 10
51.1172555939
 20
24.7579724062
 40
3.0617908543
100
AcDbArc
 50
77.93085792
 51
79.4835997818
  0
ARC
  5
370
100
AcDbEntity
  8
INTFCLR_18
100
AcDbCircle
 62
7
420
3368703
  6
CONTINUOUS
 10
51.1340118188
 20
24.8351722713
 40
3.0616611158
100
AcDbArc
 50
257.9668731932
 51
259.4836219206
  0
ARC
  5
371
100
AcDbEntity
  8
INTFCLR_18
100
AcDbCircle
 62
7
420
3368703
  6
CONTINUOUS
 10
51.1333650546
 20
24.8330562249
 40
3.0594567351
100
AcDbArc
 50
252.9693700819
 51
257.9704577298
  0
ARC
  5
372
100
AcDbEntity
  8
INTFCLR_18
100
AcDbCircle
 62
7
420
3368703
  6
CONTINUOUS
 10
51.1179539309
 20
24.7603139932
 40
3.0593550153
100
AcDbArc
 50
72.9693101077
 51
77.9344779407
  0
ARC
  5
373
100
AcDbEntity
  8
INTFCLR_18
100
AcDbCircle
 62
7
420
3368703
  6
CONTINUOUS
 10
51.1328347603
 20
24.7621460821
 40
3.0574557818
100
AcDbArc
 50
102.6541471648
 51
107.0317225888
  0
ARC
  5
374
100
AcDbEntity
  8
INTFCLR_18
100
AcDbCircle
 62
7
420
3368703
  6
CONTINUOUS
 10
51.1184574951
 20
24.8311259387
 40
3.0574557817
100
AcDbArc
 50
282.6541471645
 51
287.0317225885
  0
ARC
  5
375
100
AcDbEntity
  8
INTFCLR_18
100
AcDbCircle
 62
7
420
3368703
  6
CONTINUOUS
 10
51.1507067245
 20
24.8010028243
 40
3.0501948783
100
AcDbArc
 50
184.1579128419
 51
192.0436153307
  0
ARC
  5
376
100
AcDbEntity
  8
INTFCLR_18
100
AcDbCircle
 62
7
420
3368703
  6
CONTINUOUS
 10
51.1504929196
 20
24.7923043294
 40
3.0499790888
100
AcDbArc
 50
169.5199219775
 51
175.8424541984
  0
ARC
  5
377
100
AcDbEntity
  8
INTFCLR_18
100
AcDbCircle
 62
7
420
3368703
  6
CONTINUOUS
 10
51.1462108938
 20
24.7886707462
 40
3.0466510205
100
AcDbArc
 50
167.9128734962
 51
175.897407469
  0
ARC
  5
378
100
AcDbEntity
  8
INTFCLR_18
100
AcDbCircle
 62
7
420
3368703
  6
CONTINUOUS
 10
51.1068915896
 20
24.7997777622
 40
3.0437720247
100
AcDbArc
 50
347.994749311
 51
349.5210878732
  0
ARC
  5
379
100
AcDbEntity
  8
INTFCLR_18
100
AcDbCircle
 62
7
420
3368703
  6
CONTINUOUS
 10
51.1442695151
 20
24.7935197254
 40
3.0436384296
100
AcDbArc
 50
167.9541248088
 51
169.5211102603
  0
ARC
  5
37A
100
AcDbEntity
  8
INTFCLR_18
100
AcDbCircle
 62
7
420
3368703
  6
CONTINUOUS
 10
51.114545658
 20
24.7951036169
 40
3.0359506134
100
AcDbArc
 50
0.0452098174
 51
12.6420677248
  0
ARC
  5
37B
100
AcDbEntity
  8
INTFCLR_18
100
AcDbCircle
 62
7
420
3368703
  6
CONTINUOUS
 10
51.1365847656
 20
24.7981327162
 40
3.0357848943
100
AcDbArc
 50
192.0462519604
 51
192.6420789726
  0
ARC
  5
37C
100
AcDbEntity
  8
INTFCLR_18
100
AcDbCircle
 62
7
420
3368703
  6
CONTINUOUS
 10
51.1171435499
 20
24.798744872
 40
3.0335033108
100
AcDbArc
 50
349.5050541849
 51
359.9601685363
  0
ARC
  5
37D
100
AcDbEntity
  8
INTFCLR_18
100
AcDbCircle
 62
7
420
3368703
  6
CONTINUOUS
 10
51.125703277
 20
24.7920413334
 40
3.0267515265
100
AcDbArc
 50
79.5231181256
 51
102.0132516546
  0
ARC
  5
37E
100
AcDbEntity
  8
INTFCLR_18
100
AcDbCircle
 62
7
420
3368703
  6
CONTINUOUS
 10
51.1255882475
 20
24.8012071898
 40
3.026728231
100
AcDbArc
 50
259.5230508469
 51
282.0498350141
  0
ARC
  5
37F
100
AcDbEntity
  8
INTFCLR_18
100
AcDbCircle
 62
7
420
3368703
  6
CONTINUOUS
 10
51.136273185
 20
24.7931592709
 40
3.0136564144
100
AcDbArc
 50
342.927083575
 51
348.0016378396
  0
ARC
  5
380
100
AcDbEntity
  8
INTFCLR_18
100
AcDbCircle
 62
7
420
3368703
  6
CONTINUOUS
 10
51.1148080051
 20
24.8001707198
 40
3.0134376312
100
AcDbArc
 50
162.9269590167
 51
167.960895129
  0
ARC
  5
381
100
AcDbEntity
  8
INTFCLR_18
100
AcDbCircle
 62
7
420
3368703
  6
CONTINUOUS
 10
51.1395236876
 20
24.7975057634
 40
3.0111225657
100
AcDbArc
 50
347.9400258272
 51
12.0599741728
  0
ARC
  5
382
100
AcDbEntity
  8
INTFCLR_18
100
AcDbCircle
 62
7
420
3368703
  6
CONTINUOUS
 10
51.1396432291
 20
24.8010450016
 40
3.010161185
100
AcDbArc
 50
12.6362719039
 51
17.0747862804
  0
ARC
  5
383
100
AcDbEntity
  8
INTFCLR_18
100
AcDbCircle
 62
7
420
3368703
  6
CONTINUOUS
 10
51.1116490263
 20
24.7922270192
 40
3.010161185
100
AcDbArc
 50
192.6362719039
 51
197.0747862804
  0
ARC
  5
384
100
AcDbEntity
  8
INTFCLR_18
100
AcDbCircle
 62
7
420
3368703
  6
CONTINUOUS
 10
51.0961094288
 20
24.7971695098
 40
2.9954633486
100
AcDbArc
 50
175.8394975997
 51
184.1605024003
  0
ARC
  5
385
100
AcDbEntity
  8
INTFCLR_18
100
AcDbCircle
 62
7
420
3368703
  6
CONTINUOUS
 10
51.060106463
 20
24.7965488903
 40
2.9602040924
100
AcDbArc
 50
175.9302694427
 51
186.106804057
  0
ARC
  5
386
100
AcDbEntity
  8
INTFCLR_18
100
AcDbCircle
 62
7
420
3368703
  6
CONTINUOUS
 10
51.0714941487
 20
24.848283332
 40
2.9487641898
100
AcDbArc
 50
128.3841774268
 51
141.8089902016
  0
ARC
  5
387
100
AcDbEntity
  8
INTFCLR_18
100
AcDbCircle
 62
7
420
3368703
  6
CONTINUOUS
 10
51.1797981066
 20
24.7449886889
 40
2.9487641898
100
AcDbArc
 50
308.3841774266
 51
321.8089902017
  0
ARC
  5
388
100
AcDbEntity
  8
INTFCLR_18
100
AcDbCircle
 62
7
420
3368703
  6
CONTINUOUS
 10
51.1799500649
 20
24.8485885101
 40
2.9484409349
100
AcDbArc
 50
38.4536249333
 51
51.8374865244
  0
ARC
  5
389
100
AcDbEntity
  8
INTFCLR_18
100
AcDbCircle
 62
7
420
3368703
  6
CONTINUOUS
 10
51.0713421905
 20
24.7446835107
 40
2.9484409349
100
AcDbArc
 50
218.4536249332
 51
231.8374865241
  0
CIRCLE
  5
38A
100
AcDbEntity
  8
00_COMPONENTS_1
100
AcDbCircle
 62
7
  6
CONTINUOUS
 10
46.8256461277
 20
44.5366360104
 40
1.83
  0
CIRCLE
  5
38B
100
AcDbEntity
  8
00_COMPONENTS_1
100
AcDbCircle
 62
7
  6
CONTINUOUS
 10
46.8256461277
 20
44.5366360104
 40
0.7
  0
CIRCLE
  5
38C
100
AcDbEntity
  8
00_COMPONENTS_1
100
AcDbCircle
 62
7
  6
CONTINUOUS
 10
53.5256461277
 20
36.0966360104
 40
3.25
  0
CIRCLE
  5
38D
100
AcDbEntity
  8
INTFCLR_18
100
AcDbCircle
 62
7
420
3368703
  6
CONTINUOUS
 10
53.5256461277
 20
36.0966360104
 40
3.25
  0
CIRCLE
  5
38E
100
AcDbEntity
  8
00_COMPONENTS_1
100
AcDbCircle
 62
7
  6
CONTINUOUS
 10
53.5256461277
 20
36.0966360104
 40
3.05
  0
CIRCLE
  5
38F
100
AcDbEntity
  8
INTFCLR_18
100
AcDbCircle
 62
7
420
3368703
  6
CONTINUOUS
 10
53.5256461277
 20
36.0966360104
 40
3.05
  0
ARC
  5
390
100
AcDbEntity
  8
00_COMPONENTS_1
100
AcDbCircle
 62
7
  6
CONTINUOUS
 10
55.4256461277
 20
44.6966360104
 40
4.0
100
AcDbArc
 50
270.0
 51
360.0
  0
ARC
  5
391
100
AcDbEntity
  8
INTFCLR_18
100
AcDbCircle
 62
7
420
3368703
  6
CONTINUOUS
 10
55.5256461277
 20
44.6966360104
 40
4.0
100
AcDbArc
 50
270.0
 51
360.0
  0
CIRCLE
  5
392
100
AcDbEntity
  8
00_COMPONENTS_1
100
AcDbCircle
 62
7
  6
CONTINUOUS
 10
42.9256461277
 20
74.6966360104
 40
3.25
  0
CIRCLE
  5
393
100
AcDbEntity
  8
INTFCLR_18
100
AcDbCircle
 62
7
420
3368703
  6
CONTINUOUS
 10
42.9256461277
 20
74.6966360104
 40
3.25
  0
CIRCLE
  5
394
100
AcDbEntity
  8
00_COMPONENTS_1
100
AcDbCircle
 62
7
  6
CONTINUOUS
 10
42.9256461277
 20
74.6966360104
 40
3.05
  0
CIRCLE
  5
395
100
AcDbEntity
  8
INTFCLR_18
100
AcDbCircle
 62
7
420
3368703
  6
CONTINUOUS
 10
42.9256461277
 20
74.6966360104
 40
3.05
  0
ARC
  5
396
100
AcDbEntity
  8
00_COMPONENTS_1
100
AcDbCircle
 62
7
  6
CONTINUOUS
 10
37.1256461277
 20
98.2466360104
 40
80.0
100
AcDbArc
 50
260.9942443416
 51
278.8953371019
  0
CIRCLE
  5
397
100
AcDbEntity
  8
00_COMPONENTS_1
100
AcDbCircle
 62
7
  6
CONTINUOUS
 10
37.1715279754
 20
85.7466360104
 40
3.2
  0
CIRCLE
  5
398
100
AcDbEntity
  8
INTFCLR_18
100
AcDbCircle
 62
7
420
3368703
  6
CONTINUOUS
 10
37.1715279754
 20
85.7466360104
 40
3.2
  0
CIRCLE
  5
399
100
AcDbEntity
  8
00_COMPONENTS_1
100
AcDbCircle
 62
7
  6
CONTINUOUS
 10
37.1256461277
 20
85.7966360104
 40
3.025
  0
CIRCLE
  5
39A
100
AcDbEntity
  8
INTFCLR_18
100
AcDbCircle
 62
7
420
3368703
  6
CONTINUOUS
 10
37.1256461277
 20
85.7966360104
 40
3.025
  0
CIRCLE
  5
39B
100
AcDbEntity
  8
00_COMPONENTS_1
100
AcDbCircle
 62
7
  6
CONTINUOUS
 10
53.5256461277
 20
74.6966360104
 40
3.25
  0
CIRCLE
  5
39C
100
AcDbEntity
  8
INTFCLR_18
100
AcDbCircle
 62
7
420
3368703
  6
CONTINUOUS
 10
53.5256461277
 20
74.6966360104
 40
3.25
  0
CIRCLE
  5
39D
100
AcDbEntity
  8
00_COMPONENTS_1
100
AcDbCircle
 62
7
  6
CONTINUOUS
 10
53.5256461277
 20
74.6966360104
 40
3.05
  0
CIRCLE
  5
39E
100
AcDbEntity
  8
INTFCLR_18
100
AcDbCircle
 62
7
420
3368703
  6
CONTINUOUS
 10
53.5256461277
 20
74.6966360104
 40
3.05
  0
ARC
  5
39F
100
AcDbEntity
  8
00_COMPONENTS_1
100
AcDbCircle
 62
7
  6
CONTINUOUS
 10
55.4256461277
 20
66.0466360104
 40
4.0
100
AcDbArc
 50
0.0
 51
90.0
  0
ARC
  5
3A0
100
AcDbEntity
  8
INTFCLR_18
100
AcDbCircle
 62
7
420
3368703
  6
CONTINUOUS
 10
55.5256461277
 20
66.0466360104
 40
4.0
100
AcDbArc
 50
0.0
 51
90.0
  0
CIRCLE
  5
3A1
100
AcDbEntity
  8
00_COMPONENTS_1
100
AcDbCircle
 62
7
  6
CONTINUOUS
 10
51.1715279754
 20
85.7466360104
 40
3.1719372046
  0
CIRCLE
  5
3A2
100
AcDbEntity
  8
INTFCLR_18
100
AcDbCircle
 62
7
420
3368703
  6
CONTINUOUS
 10
51.1715279754
 20
85.7466360104
 40
3.1719372046
  0
ARC
  5
3A3
100
AcDbEntity
  8
00_COMPONENTS_1
100
AcDbCircle
 62
7
  6
CONTINUOUS
 10
51.1256461277
 20
85.7966360104
 40
3.025
100
AcDbArc
 50
170.6638911125
 51
167.9793353053
  0
ARC
  5
3A4
100
AcDbEntity
  8
INTFCLR_18
100
AcDbCircle
 62
7
420
3368703
  6
CONTINUOUS
 10
51.1256461277
 20
85.7966360104
 40
3.025
100
AcDbArc
 50
112.3051221853
 51
167.977322849
  0
ARC
  5
3A5
100
AcDbEntity
  8
INTFCLR_18
100
AcDbCircle
 62
7
420
3368703
  6
CONTINUOUS
 10
51.1256461277
 20
85.7966360104
 40
3.025
100
AcDbArc
 50
170.8963599118
 51
105.6
  0
ARC
  5
3A6
100
AcDbEntity
  8
00_COMPONENTS_1
100
AcDbCircle
 62
7
  6
CONTINUOUS
 10
52.8807589544
 20
91.575706593
 40
2.0
100
AcDbArc
 50
101.8652626888
 51
149.9999999997
  0
ARC
  5
3A7
100
AcDbEntity
  8
INTFCLR_18
100
AcDbCircle
 62
7
420
3368703
  6
CONTINUOUS
 10
52.8807589544
 20
91.575706593
 40
2.0
100
AcDbArc
 50
101.8652626886
 51
150.0
  0
ARC
  5
3A8
100
AcDbEntity
  8
00_COMPONENTS_1
100
AcDbCircle
 62
7
  6
CONTINUOUS
 10
49.8048744239
 20
92.248118308
 40
1.0
100
AcDbArc
 50
260.9942443417
 51
329.9999999984
  0
ARC
  5
3A9
100
AcDbEntity
  8
INTFCLR_18
100
AcDbCircle
 62
7
420
3368703
  6
CONTINUOUS
 10
49.8048744239
 20
92.248118308
 40
1.0
100
AcDbArc
 50
260.9942443416
 51
330.0
  0
ARC
  5
3AA
100
AcDbEntity
  8
00_COMPONENTS_1
100
AcDbCircle
 62
7
  6
CONTINUOUS
 10
54.5256461277
 20
83.7466360104
 40
10.0
100
AcDbArc
 50
67.975687163
 51
101.8652626887
  0
ARC
  5
3AB
100
AcDbEntity
  8
INTFCLR_18
100
AcDbCircle
 62
7
420
3368703
  6
CONTINUOUS
 10
54.5256461277
 20
83.7466360104
 40
10.0
100
AcDbArc
 50
67.975687163
 51
101.8652626886
  0
ARC
  5
3AC
100
AcDbEntity
  8
00_COMPONENTS_1
100
AcDbCircle
 62
7
  6
CONTINUOUS
 10
54.6256461277
 20
90.2466360104
 40
2.25
100
AcDbArc
 50
33.349480823
 51
146.5264500706
  0
ARC
  5
3AD
100
AcDbEntity
  8
00_COMPONENTS_1
100
AcDbCircle
 62
7
  6
CONTINUOUS
 10
57.5256461277
 20
91.1628344975
 40
2.0
100
AcDbArc
 50
0.8071861829
 51
67.9756871629
  0
ARC
  5
3AE
100
AcDbEntity
  8
INTFCLR_18
100
AcDbCircle
 62
7
420
3368703
  6
CONTINUOUS
 10
57.5256461277
 20
91.1628344975
 40
2.0
100
AcDbArc
 50
0.9682710254
 51
67.975687163
  0
SPLINE
  5
3AF
100
AcDbEntity
  8
INTFCLR_18
100
AcDbSpline
 62
7
420
3368703
  6
CONTINUOUS
 70
0
 71
3
 72
8
 73
4
 74
0
 42
0.0000001
 43
0.0000001
 44
0.0000000001
 40
0.0
 40
0.0
 40
0.0
 40
0.0
 40
1.0
 40
1.0
 40
1.0
 40
1.0
 10
50.4956461277
 20
21.8407529333
 30
0.0
 10
50.9156461277
 20
21.7514050657
 30
0.0
 10
51.3356461277
 20
21.7514050657
 30
0.0
 10
51.7556461277
 20
21.8407529333
 30
0.0
  0
SPLINE
  5
3B0
100
AcDbEntity
  8
INTFCLR_18
100
AcDbSpline
 62
7
420
3368703
  6
CONTINUOUS
 70
0
 71
3
 72
8
 73
4
 74
0
 42
0.0000001
 43
0.0000001
 44
0.0000000001
 40
0.0
 40
0.0
 40
0.0
 40
0.0
 40
1.0
 40
1.0
 40
1.0
 40
1.0
 10
51.7556461277
 20
27.7525190876
 30
0.0
 10
51.3356461277
 20
27.8418669551
 30
0.0
 10
50.9156461277
 20
27.8418669551
 30
0.0
 10
50.4956461277
 20
27.7525190876
 30
0.0
  0
SPLINE
  5
3B1
100
AcDbEntity
  8
INTFCLR_18
100
AcDbSpline
 62
7
420
3368703
  6
CONTINUOUS
 70
0
 71
3
 72
8
 73
4
 74
0
 42
0.0000001
 43
0.0000001
 44
0.0000000001
 40
0.0
 40
0.0
 40
0.0
 40
0.0
 40
1.0
 40
1.0
 40
1.0
 40
1.0
 10
36.4956461277
 20
21.8407529333
 30
0.0
 10
36.9156461277
 20
21.7514050657
 30
0.0
 10
37.3356461277
 20
21.7514050657
 30
0.0
 10
37.7556461277
 20
21.8407529333
 30
0.0
  0
SPLINE
  5
3B2
100
AcDbEntity
  8
INTFCLR_18
100
AcDbSpline
 62
7
420
3368703
  6
CONTINUOUS
 70
0
 71
3
 72
8
 73
4
 74
0
 42
0.0000001
 43
0.0000001
 44
0.0000000001
 40
0.0
 40
0.0
 40
0.0
 40
0.0
 40
1.0
 40
1.0
 40
1.0
 40
1.0
 10
37.7556461277
 20
27.7525190876
 30
0.0
 10
37.3356461277
 20
27.8418669551
 30
0.0
 10
36.9156461277
 20
27.8418669551
 30
0.0
 10
36.4956461277
 20
27.7525190876
 30
0.0
  0
SPLINE
  5
3B3
100
AcDbEntity
  8
INTFCLR_18
100
AcDbSpline
 62
7
420
3368703
  6
CONTINUOUS
 70
0
 71
3
 72
8
 73
4
 74
0
 42
0.0000001
 43
0.0000001
 44
0.0000000001
 40
0.0
 40
0.0
 40
0.0
 40
0.0
 40
1.0
 40
1.0
 40
1.0
 40
1.0
 10
40.084189074
 20
24.1666360104
 30
0.0
 10
40.173793685
 20
24.5866360104
 30
0.0
 10
40.173793685
 20
25.0066360104
 30
0.0
 10
40.084189074
 20
25.4266360104
 30
0.0
  0
SPLINE
  5
3B4
100
AcDbEntity
  8
INTFCLR_18
100
AcDbSpline
 62
7
420
3368703
  6
CONTINUOUS
 70
0
 71
3
 72
8
 73
4
 74
0
 42
0.0000001
 43
0.0000001
 44
0.0000000001
 40
0.0
 40
0.0
 40
0.0
 40
0.0
 40
1.0
 40
1.0
 40
1.0
 40
1.0
 10
22.4956461277
 20
21.8407529333
 30
0.0
 10
22.9156461277
 20
21.7514050657
 30
0.0
 10
23.3356461277
 20
21.7514050657
 30
0.0
 10
23.7556461277
 20
21.8407529333
 30
0.0
  0
SPLINE
  5
3B5
100
AcDbEntity
  8
INTFCLR_18
100
AcDbSpline
 62
7
420
3368703
  6
CONTINUOUS
 70
0
 71
3
 72
8
 73
4
 74
0
 42
0.0000001
 43
0.0000001
 44
0.0000000001
 40
0.0
 40
0.0
 40
0.0
 40
0.0
 40
1.0
 40
1.0
 40
1.0
 40
1.0
 10
23.7556461277
 20
27.7525190876
 30
0.0
 10
23.3356461277
 20
27.8418669551
 30
0.0
 10
22.9156461277
 20
27.8418669551
 30
0.0
 10
22.4956461277
 20
27.7525190876
 30
0.0
  0
SPLINE
  5
3B6
100
AcDbEntity
  8
INTFCLR_18
100
AcDbSpline
 62
7
420
3368703
  6
CONTINUOUS
 70
0
 71
3
 72
9
 73
5
 74
0
 42
0.0000001
 43
0.0000001
 44
0.0000000001
 40
0.0
 40
0.0
 40
0.0
 40
0.0
 40
0.2150318264
 40
1.0
 40
1.0
 40
1.0
 40
1.0
 10
20.2341687677
 20
23.9083844307
 30
0.0
 10
20.2572249441
 20
23.8333528436
 30
0.0
 10
20.3792492044
 20
23.4853120228
 30
0.0
 10
20.5733640456
 20
23.1486258877
 30
0.0
 10
20.762383414
 20
22.9111041384
 30
0.0
  0
SPLINE
  5
3B7
100
AcDbEntity
  8
INTFCLR_18
100
AcDbSpline
 62
7
420
3368703
  6
CONTINUOUS
 70
0
 71
3
 72
9
 73
5
 74
0
 42
0.0000001
 43
0.0000001
 44
0.0000000001
 40
0.0
 40
0.0
 40
0.0
 40
0.0
 40
0.7822211536
 40
1.0
 40
1.0
 40
1.0
 40
1.0
 10
21.2495179158
 20
22.4264384292
 30
0.0
 10
21.4840022886
 20
22.2418025951
 30
0.0
 10
21.8166084904
 20
22.0514308698
 30
0.0
 10
22.161985591
 20
21.9308423057
 30
0.0
 10
22.2373025037
 20
21.907761809
 30
0.0
  0
SPLINE
  5
3B8
100
AcDbEntity
  8
INTFCLR_18
100
AcDbSpline
 62
7
420
3368703
  6
CONTINUOUS
 70
0
 71
3
 72
9
 73
5
 74
0
 42
0.0000001
 43
0.0000001
 44
0.0000000001
 40
0.0
 40
0.0
 40
0.0
 40
0.0
 40
0.2156170348
 40
1.0
 40
1.0
 40
1.0
 40
1.0
 10
24.0139897516
 20
21.907761809
 30
0.0
 10
24.0893066644
 20
21.9308423057
 30
0.0
 10
24.4381465723
 20
22.0526399105
 30
0.0
 10
24.7739582115
 20
22.2456270061
 30
0.0
 10
25.0107781915
 20
22.4335557618
 30
0.0
  0
SPLINE
  5
3B9
100
AcDbEntity
  8
INTFCLR_18
100
AcDbSpline
 62
7
420
3368703
  6
CONTINUOUS
 70
0
 71
3
 72
9
 73
5
 74
0
 42
0.0000001
 43
0.0000001
 44
0.0000000001
 40
0.0
 40
0.0
 40
0.0
 40
0.0
 40
0.782405827
 40
1.0
 40
1.0
 40
1.0
 40
1.0
 10
25.4973908723
 20
22.9218117858
 30
0.0
 10
25.6824899301
 20
23.1565569629
 30
0.0
 10
25.8734799849
 20
23.4894104837
 30
0.0
 10
25.9940673113
 20
23.8333528436
 30
0.0
 10
26.0171234877
 20
23.9083844307
 30
0.0
  0
SPLINE
  5
3BA
100
AcDbEntity
  8
INTFCLR_18
100
AcDbSpline
 62
7
420
3368703
  6
CONTINUOUS
 70
0
 71
3
 72
9
 73
5
 74
0
 42
0.0000001
 43
0.0000001
 44
0.0000000001
 40
0.0
 40
0.0
 40
0.0
 40
0.0
 40
0.2150318264
 40
1.0
 40
1.0
 40
1.0
 40
1.0
 10
26.0171234877
 20
25.6848875901
 30
0.0
 10
25.9940673113
 20
25.7599191773
 30
0.0
 10
25.872043051
 20
26.107959998
 30
0.0
 10
25.6779282098
 20
26.4446461331
 30
0.0
 10
25.4889088414
 20
26.6821678824
 30
0.0
  0
SPLINE
  5
3BB
100
AcDbEntity
  8
INTFCLR_18
100
AcDbSpline
 62
7
420
3368703
  6
CONTINUOUS
 70
0
 71
3
 72
9
 73
5
 74
0
 42
0.0000001
 43
0.0000001
 44
0.0000000001
 40
0.0
 40
0.0
 40
0.0
 40
0.0
 40
0.7822211536
 40
1.0
 40
1.0
 40
1.0
 40
1.0
 10
25.0017743396
 20
27.1668335917
 30
0.0
 10
24.7672899668
 20
27.3514694257
 30
0.0
 10
24.434683765
 20
27.541841151
 30
0.0
 10
24.0893066644
 20
27.6624297151
 30
0.0
 10
24.0139897516
 20
27.6855102118
 30
0.0
  0
SPLINE
  5
3BC
100
AcDbEntity
  8
INTFCLR_18
100
AcDbSpline
 62
7
420
3368703
  6
CONTINUOUS
 70
0
 71
3
 72
9
 73
5
 74
0
 42
0.0000001
 43
0.0000001
 44
0.0000000001
 40
0.0
 40
0.0
 40
0.0
 40
0.0
 40
0.2156170348
 40
1.0
 40
1.0
 40
1.0
 40
1.0
 10
22.2373025037
 20
27.6855102118
 30
0.0
 10
22.161985591
 20
27.6624297151
 30
0.0
 10
21.8131456831
 20
27.5406321103
 30
0.0
 10
21.4773340439
 20
27.3476450147
 30
0.0
 10
21.2405140639
 20
27.159716259
 30
0.0
  0
SPLINE
  5
3BD
100
AcDbEntity
  8
INTFCLR_18
100
AcDbSpline
 62
7
420
3368703
  6
CONTINUOUS
 70
0
 71
3
 72
9
 73
5
 74
0
 42
0.0000001
 43
0.0000001
 44
0.0000000001
 40
0.0
 40
0.0
 40
0.0
 40
0.0
 40
0.782405827
 40
1.0
 40
1.0
 40
1.0
 40
1.0
 10
20.7539013831
 20
26.671460235
 30
0.0
 10
20.5688023253
 20
26.4367150579
 30
0.0
 10
20.3778122705
 20
26.1038615371
 30
0.0
 10
20.2572249441
 20
25.7599191773
 30
0.0
 10
20.2341687677
 20
25.6848875901
 30
0.0
  0
SPLINE
  5
3BE
100
AcDbEntity
  8
INTFCLR_18
100
AcDbSpline
 62
7
420
3368703
  6
CONTINUOUS
 70
0
 71
3
 72
9
 73
5
 74
0
 42
0.0000001
 43
0.0000001
 44
0.0000000001
 40
0.0
 40
0.0
 40
0.0
 40
0.0
 40
0.2150318264
 40
1.0
 40
1.0
 40
1.0
 40
1.0
 10
40.0171234877
 20
25.6848875901
 30
0.0
 10
39.9940673113
 20
25.7599191773
 30
0.0
 10
39.872043051
 20
26.107959998
 30
0.0
 10
39.6779282098
 20
26.4446461331
 30
0.0
 10
39.4889088414
 20
26.6821678824
 30
0.0
  0
SPLINE
  5
3BF
100
AcDbEntity
  8
INTFCLR_18
100
AcDbSpline
 62
7
420
3368703
  6
CONTINUOUS
 70
0
 71
3
 72
9
 73
5
 74
0
 42
0.0000001
 43
0.0000001
 44
0.0000000001
 40
0.0
 40
0.0
 40
0.0
 40
0.0
 40
0.7822211536
 40
1.0
 40
1.0
 40
1.0
 40
1.0
 10
39.0017743396
 20
27.1668335916
 30
0.0
 10
38.7672899668
 20
27.3514694257
 30
0.0
 10
38.434683765
 20
27.541841151
 30
0.0
 10
38.0893066644
 20
27.6624297151
 30
0.0
 10
38.0139897516
 20
27.6855102118
 30
0.0
  0
SPLINE
  5
3C0
100
AcDbEntity
  8
INTFCLR_18
100
AcDbSpline
 62
7
420
3368703
  6
CONTINUOUS
 70
0
 71
3
 72
9
 73
5
 74
0
 42
0.0000001
 43
0.0000001
 44
0.0000000001
 40
0.0
 40
0.0
 40
0.0
 40
0.0
 40
0.2156170348
 40
1.0
 40
1.0
 40
1.0
 40
1.0
 10
36.2373025037
 20
27.6855102118
 30
0.0
 10
36.161985591
 20
27.6624297151
 30
0.0
 10
35.8131456831
 20
27.5406321103
 30
0.0
 10
35.4773340439
 20
27.3476450147
 30
0.0
 10
35.2405140639
 20
27.159716259
 30
0.0
  0
SPLINE
  5
3C1
100
AcDbEntity
  8
INTFCLR_18
100
AcDbSpline
 62
7
420
3368703
  6
CONTINUOUS
 70
0
 71
3
 72
9
 73
5
 74
0
 42
0.0000001
 43
0.0000001
 44
0.0000000001
 40
0.0
 40
0.0
 40
0.0
 40
0.0
 40
0.782405827
 40
1.0
 40
1.0
 40
1.0
 40
1.0
 10
34.7539013831
 20
26.671460235
 30
0.0
 10
34.5688023253
 20
26.4367150579
 30
0.0
 10
34.3778122705
 20
26.1038615371
 30
0.0
 10
34.2572249441
 20
25.7599191773
 30
0.0
 10
34.2341687677
 20
25.6848875901
 30
0.0
  0
SPLINE
  5
3C2
100
AcDbEntity
  8
INTFCLR_18
100
AcDbSpline
 62
7
420
3368703
  6
CONTINUOUS
 70
0
 71
3
 72
9
 73
5
 74
0
 42
0.0000001
 43
0.0000001
 44
0.0000000001
 40
0.0
 40
0.0
 40
0.0
 40
0.0
 40
0.2150318264
 40
1.0
 40
1.0
 40
1.0
 40
1.0
 10
34.2341687677
 20
23.9083844307
 30
0.0
 10
34.2572249441
 20
23.8333528436
 30
0.0
 10
34.3792492044
 20
23.4853120228
 30
0.0
 10
34.5733640456
 20
23.1486258877
 30
0.0
 10
34.762383414
 20
22.9111041384
 30
0.0
  0
SPLINE
  5
3C3
100
AcDbEntity
  8
INTFCLR_18
100
AcDbSpline
 62
7
420
3368703
  6
CONTINUOUS
 70
0
 71
3
 72
9
 73
5
 74
0
 42
0.0000001
 43
0.0000001
 44
0.0000000001
 40
0.0
 40
0.0
 40
0.0
 40
0.0
 40
0.7822211536
 40
1.0
 40
1.0
 40
1.0
 40
1.0
 10
35.2495179158
 20
22.4264384292
 30
0.0
 10
35.4840022886
 20
22.2418025951
 30
0.0
 10
35.8166084904
 20
22.0514308698
 30
0.0
 10
36.161985591
 20
21.9308423057
 30
0.0
 10
36.2373025037
 20
21.907761809
 30
0.0
  0
SPLINE
  5
3C4
100
AcDbEntity
  8
INTFCLR_18
100
AcDbSpline
 62
7
420
3368703
  6
CONTINUOUS
 70
0
 71
3
 72
9
 73
5
 74
0
 42
0.0000001
 43
0.0000001
 44
0.0000000001
 40
0.0
 40
0.0
 40
0.0
 40
0.0
 40
0.2156170348
 40
1.0
 40
1.0
 40
1.0
 40
1.0
 10
38.0139897516
 20
21.907761809
 30
0.0
 10
38.0893066644
 20
21.9308423057
 30
0.0
 10
38.4381465723
 20
22.0526399105
 30
0.0
 10
38.7739582115
 20
22.2456270061
 30
0.0
 10
39.0107781915
 20
22.4335557618
 30
0.0
  0
SPLINE
  5
3C5
100
AcDbEntity
  8
INTFCLR_18
100
AcDbSpline
 62
7
420
3368703
  6
CONTINUOUS
 70
0
 71
3
 72
9
 73
5
 74
0
 42
0.0000001
 43
0.0000001
 44
0.0000000001
 40
0.0
 40
0.0
 40
0.0
 40
0.0
 40
0.782405827
 40
1.0
 40
1.0
 40
1.0
 40
1.0
 10
39.4973908723
 20
22.9218117858
 30
0.0
 10
39.6824899301
 20
23.1565569629
 30
0.0
 10
39.8734799849
 20
23.4894104837
 30
0.0
 10
39.9940673113
 20
23.8333528436
 30
0.0
 10
40.0171234877
 20
23.9083844307
 30
0.0
  0
SPLINE
  5
3C6
100
AcDbEntity
  8
INTFCLR_18
100
AcDbSpline
 62
7
420
3368703
  6
CONTINUOUS
 70
0
 71
3
 72
9
 73
5
 74
0
 42
0.0000001
 43
0.0000001
 44
0.0000000001
 40
0.0
 40
0.0
 40
0.0
 40
0.0
 40
0.2150318264
 40
1.0
 40
1.0
 40
1.0
 40
1.0
 10
54.0171234877
 20
25.6848875901
 30
0.0
 10
53.9940673113
 20
25.7599191773
 30
0.0
 10
53.872043051
 20
26.107959998
 30
0.0
 10
53.6779282098
 20
26.4446461331
 30
0.0
 10
53.4889088414
 20
26.6821678824
 30
0.0
  0
SPLINE
  5
3C7
100
AcDbEntity
  8
INTFCLR_18
100
AcDbSpline
 62
7
420
3368703
  6
CONTINUOUS
 70
0
 71
3
 72
9
 73
5
 74
0
 42
0.0000001
 43
0.0000001
 44
0.0000000001
 40
0.0
 40
0.0
 40
0.0
 40
0.0
 40
0.7822211536
 40
1.0
 40
1.0
 40
1.0
 40
1.0
 10
53.0017743396
 20
27.1668335916
 30
0.0
 10
52.7672899668
 20
27.3514694257
 30
0.0
 10
52.434683765
 20
27.541841151
 30
0.0
 10
52.0893066644
 20
27.6624297151
 30
0.0
 10
52.0139897516
 20
27.6855102118
 30
0.0
  0
SPLINE
  5
3C8
100
AcDbEntity
  8
INTFCLR_18
100
AcDbSpline
 62
7
420
3368703
  6
CONTINUOUS
 70
0
 71
3
 72
9
 73
5
 74
0
 42
0.0000001
 43
0.0000001
 44
0.0000000001
 40
0.0
 40
0.0
 40
0.0
 40
0.0
 40
0.2156170348
 40
1.0
 40
1.0
 40
1.0
 40
1.0
 10
50.2373025037
 20
27.6855102118
 30
0.0
 10
50.161985591
 20
27.6624297151
 30
0.0
 10
49.8131456831
 20
27.5406321103
 30
0.0
 10
49.4773340439
 20
27.3476450147
 30
0.0
 10
49.2405140639
 20
27.159716259
 30
0.0
  0
SPLINE
  5
3C9
100
AcDbEntity
  8
INTFCLR_18
100
AcDbSpline
 62
7
420
3368703
  6
CONTINUOUS
 70
0
 71
3
 72
9
 73
5
 74
0
 42
0.0000001
 43
0.0000001
 44
0.0000000001
 40
0.0
 40
0.0
 40
0.0
 40
0.0
 40
0.782405827
 40
1.0
 40
1.0
 40
1.0
 40
1.0
 10
48.7539013831
 20
26.671460235
 30
0.0
 10
48.5688023253
 20
26.4367150579
 30
0.0
 10
48.3778122705
 20
26.1038615371
 30
0.0
 10
48.2572249441
 20
25.7599191773
 30
0.0
 10
48.2341687677
 20
25.6848875901
 30
0.0
  0
SPLINE
  5
3CA
100
AcDbEntity
  8
INTFCLR_18
100
AcDbSpline
 62
7
420
3368703
  6
CONTINUOUS
 70
0
 71
3
 72
9
 73
5
 74
0
 42
0.0000001
 43
0.0000001
 44
0.0000000001
 40
0.0
 40
0.0
 40
0.0
 40
0.0
 40
0.2150318264
 40
1.0
 40
1.0
 40
1.0
 40
1.0
 10
48.2341687677
 20
23.9083844307
 30
0.0
 10
48.2572249441
 20
23.8333528436
 30
0.0
 10
48.3792492044
 20
23.4853120228
 30
0.0
 10
48.5733640456
 20
23.1486258877
 30
0.0
 10
48.762383414
 20
22.9111041384
 30
0.0
  0
SPLINE
  5
3CB
100
AcDbEntity
  8
INTFCLR_18
100
AcDbSpline
 62
7
420
3368703
  6
CONTINUOUS
 70
0
 71
3
 72
9
 73
5
 74
0
 42
0.0000001
 43
0.0000001
 44
0.0000000001
 40
0.0
 40
0.0
 40
0.0
 40
0.0
 40
0.7822211536
 40
1.0
 40
1.0
 40
1.0
 40
1.0
 10
49.2495179158
 20
22.4264384292
 30
0.0
 10
49.4840022886
 20
22.2418025951
 30
0.0
 10
49.8166084904
 20
22.0514308698
 30
0.0
 10
50.161985591
 20
21.9308423057
 30
0.0
 10
50.2373025037
 20
21.907761809
 30
0.0
  0
SPLINE
  5
3CC
100
AcDbEntity
  8
INTFCLR_18
100
AcDbSpline
 62
7
420
3368703
  6
CONTINUOUS
 70
0
 71
3
 72
9
 73
5
 74
0
 42
0.0000001
 43
0.0000001
 44
0.0000000001
 40
0.0
 40
0.0
 40
0.0
 40
0.0
 40
0.2156170348
 40
1.0
 40
1.0
 40
1.0
 40
1.0
 10
52.0139897516
 20
21.907761809
 30
0.0
 10
52.0893066644
 20
21.9308423057
 30
0.0
 10
52.4381465723
 20
22.0526399105
 30
0.0
 10
52.7739582115
 20
22.2456270061
 30
0.0
 10
53.0107781915
 20
22.4335557618
 30
0.0
  0
SPLINE
  5
3CD
100
AcDbEntity
  8
INTFCLR_18
100
AcDbSpline
 62
7
420
3368703
  6
CONTINUOUS
 70
0
 71
3
 72
9
 73
5
 74
0
 42
0.0000001
 43
0.0000001
 44
0.0000000001
 40
0.0
 40
0.0
 40
0.0
 40
0.0
 40
0.782405827
 40
1.0
 40
1.0
 40
1.0
 40
1.0
 10
53.4973908723
 20
22.9218117858
 30
0.0
 10
53.6824899301
 20
23.1565569629
 30
0.0
 10
53.8734799849
 20
23.4894104837
 30
0.0
 10
53.9940673113
 20
23.8333528436
 30
0.0
 10
54.0171234877
 20
23.9083844307
 30
0.0
  0
ELLIPSE
  5
3CE
100
AcDbEntity
  8
00_COMPONENTS_1
100
AcDbEllipse
 62
7
  6
CONTINUOUS
 10
51.1256461277
 20
24.7966360104
 30
0.0
 11
3.025
 21
-0.0
 31
0.0
 40
0.9990582296
 41
0.0
 42
6.2831853072
  0
ELLIPSE
  5
3CF
100
AcDbEntity
  8
00_COMPONENTS_1
100
AcDbEllipse
 62
7
  6
CONTINUOUS
 10
37.1256461277
 20
24.7966360104
 30
0.0
 11
3.025
 21
-0.0
 31
0.0
 40
0.9990582296
 41
0.0
 42
6.2831853072
  0
ELLIPSE
  5
3D0
100
AcDbEntity
  8
00_COMPONENTS_1
100
AcDbEllipse
 62
7
  6
CONTINUOUS
 10
23.1256461277
 20
24.7966360104
 30
0.0
 11
3.025
 21
0.0
 31
0.0
 40
0.9990582296
 41
0.0
 42
6.2831853072
  0
ENDSEC
  0
SECTION
  2
OBJECTS
  0
DICTIONARY
  5
C
100
AcDbDictionary
280
0
281
1
  3
ACAD_GROUP
350
D
  3
ACAD_MLINESTYLE
350
17
  3
ACAD_LAYOUT
350
1A
  3
ACAD_PLOTSETTINGS
350
19
  3
ACAD_PLOTSTYLENAME
350
E
  0
DICTIONARY
  5
D
102
{ACAD_REACTORS
330
C
102
}
100
AcDbDictionary
280
0
281
1
  0
ACDBDICTIONARYWDFLT
  5
E
102
{ACAD_REACTORS
330
C
102
}
100
AcDbDictionary
281
1
  3
Normal
350
F
100
AcDbDictionaryWithDefault
340
F
  0
DICTIONARY
  5
17
102
{ACAD_REACTORS
330
C
102
}
100
AcDbDictionary
280
0
281
1
  3
Standard
350
18
  0
DICTIONARY
  5
19
102
{ACAD_REACTORS
330
C
102
}
100
AcDbDictionary
281
1
  0
DICTIONARY
  5
1A
102
{ACAD_REACTORS
330
C
102
}
100
AcDbDictionary
281
1
  3
Model
350
3D1
  3
Layout1
350
3D2
  0
ACDBPLACEHOLDER
  5
F
102
{ACAD_REACTORS
330
E
102
}
  0
MLINESTYLE
  5
18
102
{ACAD_REACTORS
330
17
102
}
100
AcDbMlineStyle
  2
STANDARD
 70
0
  3

 62
256
 51
90.0
 52
90.0
 71
2
 49
0.5
 62
256
  6
BYLAYER
 49
-0.5
 62
256
  6
BYLAYER
  0
LAYOUT
  5
3D1
102
{ACAD_REACTORS
330
1A
102
}
100
AcDbPlotSettings
  1

  2
none_device
  4

  6

 40
0.0
 41
0.0
 42
0.0
 43
0.0
 44
210.0
 45
297.0
 46
0.0
 47
0.0
 48
0.0
 49
0.0
140
0.0
141
0.0
142
1.0
143
1.0
 70
1024
 72
1
 73
0
 74
0
  7

 75
0
147
1.0
148
0.0
149
0.0
100
AcDbLayout
  1
Model
 70
0
 71
0
 10
0.0
 20
0.0
 11
210.0
 21
297.0
 12
0.0
 22
0.0
 32
0.0
 14
0.0
 24
0.0
 34
0.0
 15
0.0
 25
0.0
 35
0.0
146
0.0
 13
0.0
 23
0.0
 33
0.0
 16
1.0
 26
0.0
 36
0.0
 17
0.0
 27
1.0
 37
0.0
 76
0
330
216
345
0
346
0
  0
LAYOUT
  5
3D2
102
{ACAD_REACTORS
330
1A
102
}
100
AcDbPlotSettings
  1

  2
none_device
  4

  6

 40
0.0
 41
0.0
 42
0.0
 43
0.0
 44
210.0
 45
297.0
 46
0.0
 47
0.0
 48
0.0
 49
0.0
140
0.0
141
0.0
142
1.0
143
1.0
 70
0
 72
1
 73
0
 74
0
  7

 75
0
147
1.0
148
0.0
149
0.0
100
AcDbLayout
  1
Layout1
 70
0
 71
1
 10
0.0
 20
0.0
 11
210.0
 21
297.0
 12
0.0
 22
0.0
 32
0.0
 14
0.0
 24
0.0
 34
0.0
 15
0.0
 25
0.0
 35
0.0
146
0.0
 13
0.0
 23
0.0
 33
0.0
 16
1.0
 26
0.0
 36
0.0
 17
0.0
 27
1.0
 37
0.0
 76
0
330
217
345
0
346
0
  0
ENDSEC
  0
EOF
