999
DXF file: C:\Users\sesa63760\Dev\_Creo\CAD\MCADID0000493_3D-CAD\drw0001_7.dxf
999
Pro/ENGINEER 2019471 by Parametric Technology Corporation
  0
SECTION
  2
HEADER
  9
$ACADVER
  1
AC1024
  9
$DWGCODEPAGE
  3
ANSI_1252
  9
$EXTMAX
 10
23771.5487307475
 20
33619.7617763429
 30
0.0
  9
$EXTMIN
 10
0.0
 20
0.0
 30
0.0
  9
$LIMMIN
 10
0.0
 20
0.0
  9
$LIMMAX
 10
23771.5487307475
 20
33619.7617763429
  9
$VIEWCTR
 10
11885.7743653738
 20
16809.8808881715
  9
$VIEWSIZE
 40
33619.7617763429
  9
$CLAYER
  8
0
  9
$LTSCALE
 40
2191.5103972727
  9
$CELTYPE
  6
BYLAYER
  9
$DIMSCALE
 40
1.0
  9
$DIMASZ
 40
282.994627747
  9
$DIMEXO
 40
1.0
  9
$DIMDLI
 40
1514.1344562975
  9
$DIMEXE
 40
1.0
  9
$DIMCEN
 40
358.610792281
  9
$DIMLFAC
 40
1.0
  9
$DIMBLK
  1
_FILLED
  9
$DIMALT
 70
0
  9
$DIMALTF
 40
0.0393700787
  9
$DIMTXT
 40
396.1924788458
  9
$DIMTOL
 70
1
  9
$DIMLIM
 70
0
  9
$DIMTFAC
 40
1.0
  9
$DIMTP
 40
0.01
  9
$DIMTM
 40
0.01
  9
$DIMGAP
 40
0.625
  9
$DIMDSEP
 70
46
  9
$AUNITS
 70
0
  9
$PDMODE
 70
3
  9
$PDSIZE
 40
0.3125
  9
$HANDSEED
  5
4BE
  9
$TILEMODE
 70
1
  9
$MEASUREMENT
 70
1
  9
$INSUNITS
 70
4
  0
ENDSEC
  0
SECTION
  2
CLASSES
  0
CLASS
  1
ACDBDICTIONARYWDFLT
  2
AcDbDictionaryWithDefault
  3
AutoCAD 2000
 90
0
 91
1
280
0
281
0
  0
CLASS
  1
ACDBPLACEHOLDER
  2
AcDbPlaceHolder
  3
AutoCAD 2000
 90
0
 91
1
280
0
281
0
  0
CLASS
  1
LAYOUT
  2
AcDbLayout
  3
AutoCAD 2000
 90
0
 91
0
280
0
281
0
  0
ENDSEC
  0
SECTION
  2
TABLES
  0
TABLE
  2
VPORT
  5
8
100
AcDbSymbolTable
 70
2
  0
VPORT
  5
1F4
100
AcDbSymbolTableRecord
100
AcDbViewportTableRecord
  2
*ACTIVE
 70
0
 10
0.0
 20
0.0
 11
1.0
 21
1.0
 12
11885.7743653738
 22
16809.8808881715
 13
0.0
 23
0.0
 14
1.0
 24
1.0
 15
0.0
 25
0.0
 16
0.0
 26
0.0
 36
1.0
 17
0.0
 27
0.0
 37
0.0
 40
33619.7617763429
 41
0.7070707071
 42
50.0
 43
0.0
 44
0.0
 50
0.0
 51
0.0
 71
0
 72
100
 73
1
 74
1
 75
0
 76
0
 77
0
 78
0
  0
ENDTAB
  0
TABLE
  2
LTYPE
  5
5
100
AcDbSymbolTable
 70
6
  0
LTYPE
  5
14
100
AcDbSymbolTableRecord
100
AcDbLinetypeTableRecord
  2
BYBLOCK
 70
0
  3

 72
65
 73
0
 40
0.0
  0
LTYPE
  5
15
100
AcDbSymbolTableRecord
100
AcDbLinetypeTableRecord
  2
BYLAYER
 70
0
  3

 72
65
 73
0
 40
0.0
  0
LTYPE
  5
16
100
AcDbSymbolTableRecord
100
AcDbLinetypeTableRecord
  2
CONTINUOUS
 70
64
  3
Solid line
 72
65
 73
0
 40
0.0
  0
LTYPE
  5
1F5
100
AcDbSymbolTableRecord
100
AcDbLinetypeTableRecord
  2
CENTER
 70
64
  3
____ _ ____ _ ____ _ ____ _ ____ _ ____ _ ____
 72
65
 73
4
 40
0.6
 49
0.375
 74
0
 49
-0.075
 74
0
 49
0.075
 74
0
 49
-0.075
 74
0
  0
LTYPE
  5
1F6
100
AcDbSymbolTableRecord
100
AcDbLinetypeTableRecord
  2
HIDDEN
 70
64
  3
- - - - - - - - - - - - - - - - - - - -
 72
65
 73
2
 40
0.2
 49
0.1
 74
0
 49
-0.1
 74
0
  0
LTYPE
  5
1F7
100
AcDbSymbolTableRecord
100
AcDbLinetypeTableRecord
  2
PHANTOM
 70
64
  3
_____ _ _ _____ _ _ _____ _ _ _____
 72
65
 73
6
 40
0.8
 49
0.45
 74
0
 49
-0.05
 74
0
 49
0.1
 74
0
 49
-0.05
 74
0
 49
0.1
 74
0
 49
-0.05
 74
0
  0
LTYPE
  5
1F8
100
AcDbSymbolTableRecord
100
AcDbLinetypeTableRecord
  2
DOT
 70
64
  3
. . . . . . . . . . . . . . . . . . . .
 72
65
 73
2
 40
0.2
 49
0.1
 74
0
 49
-0.1
 74
0
  0
LTYPE
  5
1F9
100
AcDbSymbolTableRecord
100
AcDbLinetypeTableRecord
  2
DASHED
 70
64
  3
- - - - - - - - - - - - - - - - - - - -
 72
65
 73
2
 40
0.2
 49
0.1
 74
0
 49
-0.1
 74
0
  0
ENDTAB
  0
TABLE
  2
LAYER
  5
2
100
AcDbSymbolTable
 70
36
  0
LAYER
  5
10
100
AcDbSymbolTableRecord
100
AcDbLayerTableRecord
  2
0
 70
0
 62
7
  6
CONTINUOUS
370
-3
390
F
  0
LAYER
  5
1FA
100
AcDbSymbolTableRecord
100
AcDbLayerTableRecord
  2
DEFAULT_1
 70
0
 62
7
  6
CENTER
370
-3
390
F
  0
LAYER
  5
1FB
100
AcDbSymbolTableRecord
100
AcDbLayerTableRecord
  2
DEFAULT_2
 70
0
 62
8
  6
HIDDEN
370
-3
390
F
  0
LAYER
  5
1FC
100
AcDbSymbolTableRecord
100
AcDbLayerTableRecord
  2
DEFAULT_3
 70
0
 62
7
  6
PHANTOM
370
-3
390
F
  0
LAYER
  5
1FD
100
AcDbSymbolTableRecord
100
AcDbLayerTableRecord
  2
00_COMPONENTS
 70
0
 62
7
  6
CONTINUOUS
370
-3
390
F
  0
LAYER
  5
1FE
100
AcDbSymbolTableRecord
100
AcDbLayerTableRecord
  2
01_1_DEFAULT_DATUMS
 70
0
 62
7
  6
CONTINUOUS
370
-3
390
F
  0
LAYER
  5
1FF
100
AcDbSymbolTableRecord
100
AcDbLayerTableRecord
  2
01_PLANES
 70
0
 62
7
  6
CONTINUOUS
370
-3
390
F
  0
LAYER
  5
200
100
AcDbSymbolTableRecord
100
AcDbLayerTableRecord
  2
02_COORD_SYS
 70
0
 62
7
  6
CONTINUOUS
370
-3
390
F
  0
LAYER
  5
201
100
AcDbSymbolTableRecord
100
AcDbLayerTableRecord
  2
03_AXES
 70
0
 62
7
  6
CONTINUOUS
370
-3
390
F
  0
LAYER
  5
202
100
AcDbSymbolTableRecord
100
AcDbLayerTableRecord
  2
04_POINTS
 70
0
 62
7
  6
CONTINUOUS
370
-3
390
F
  0
LAYER
  5
203
100
AcDbSymbolTableRecord
100
AcDbLayerTableRecord
  2
05_CURVES
 70
0
 62
7
  6
CONTINUOUS
370
-3
390
F
  0
LAYER
  5
204
100
AcDbSymbolTableRecord
100
AcDbLayerTableRecord
  2
06_SURFS
 70
0
 62
7
  6
CONTINUOUS
370
-3
390
F
  0
LAYER
  5
205
100
AcDbSymbolTableRecord
100
AcDbLayerTableRecord
  2
07_COSMETICS
 70
0
 62
7
  6
CONTINUOUS
370
-3
390
F
  0
LAYER
  5
206
100
AcDbSymbolTableRecord
100
AcDbLayerTableRecord
  2
10_NOTES
 70
0
 62
7
  6
CONTINUOUS
370
-3
390
F
  0
LAYER
  5
207
100
AcDbSymbolTableRecord
100
AcDbLayerTableRecord
  2
11_NOTES_PUB
 70
0
 62
7
  6
CONTINUOUS
370
-3
390
F
  0
LAYER
  5
208
100
AcDbSymbolTableRecord
100
AcDbLayerTableRecord
  2
13_REF_GTOL
 70
0
 62
7
  6
CONTINUOUS
370
-3
390
F
  0
LAYER
  5
209
100
AcDbSymbolTableRecord
100
AcDbLayerTableRecord
  2
16_MISC
 70
0
 62
7
  6
CONTINUOUS
370
-3
390
F
  0
LAYER
  5
20A
100
AcDbSymbolTableRecord
100
AcDbLayerTableRecord
  2
17_NO_PRINT
 70
0
 62
7
  6
CONTINUOUS
370
-3
390
F
  0
LAYER
  5
20B
100
AcDbSymbolTableRecord
100
AcDbLayerTableRecord
  2
18_DATUM_CAMS_JOINTS
 70
0
 62
7
  6
CONTINUOUS
370
-3
390
F
  0
LAYER
  5
20C
100
AcDbSymbolTableRecord
100
AcDbLayerTableRecord
  2
19_DATUM_FUNCTIONAL
 70
0
 62
7
  6
CONTINUOUS
370
-3
390
F
  0
LAYER
  5
20D
100
AcDbSymbolTableRecord
100
AcDbLayerTableRecord
  2
20_DATUM_KINEMATIC_SCHEME
 70
0
 62
7
  6
CONTINUOUS
370
-3
390
F
  0
ENDTAB
  0
TABLE
  2
STYLE
  5
3
100
AcDbSymbolTable
 70
1
  0
STYLE
  5
11
100
AcDbSymbolTableRecord
100
AcDbTextStyleTableRecord
  2
STANDARD
 70
0
 40
0.0
 41
0.8
 50
0.0
 71
0
 42
0.2
  3
txt
  4

  0
STYLE
  5
20E
100
AcDbSymbolTableRecord
100
AcDbTextStyleTableRecord
  2
TEXTSTYLE_1
 70
0
 40
0.0
 41
0.8
 50
0.0
 71
0
 42
0.2
  3
gdt
  4

  0
ENDTAB
  0
TABLE
  2
VIEW
  5
6
100
AcDbSymbolTable
 70
0
  0
ENDTAB
  0
TABLE
  2
UCS
  5
7
100
AcDbSymbolTable
 70
0
  0
ENDTAB
  0
TABLE
  2
APPID
  5
9
100
AcDbSymbolTable
 70
1
  0
APPID
  5
20F
100
AcDbSymbolTableRecord
100
AcDbRegAppTableRecord
  2
ACAD
 70
0
  0
ENDTAB
  0
TABLE
  2
BLOCK_RECORD
  5
1
100
AcDbSymbolTable
 70
0
  0
BLOCK_RECORD
  5
210
100
AcDbSymbolTableRecord
100
AcDbBlockTableRecord
  2
*Model_Space
  0
BLOCK_RECORD
  5
211
100
AcDbSymbolTableRecord
100
AcDbBlockTableRecord
  2
*Paper_Space
  0
BLOCK_RECORD
  5
212
100
AcDbSymbolTableRecord
100
AcDbBlockTableRecord
  2
_FILLED
  0
ENDTAB
  0
TABLE
  2
DIMSTYLE
  5
A
100
AcDbSymbolTable
 70
1
100
AcDbDimStyleTable
 71
0
  0
DIMSTYLE
105
213
100
AcDbSymbolTableRecord
100
AcDbDimStyleTableRecord
  2
STANDARD
 70
0
  3

  4

 40
1.0
 41
282.994627747
 42
1.0
 43
0.38
 44
1.0
 45
0.0
 46
0.0
 47
0.01
 48
0.01
140
396.1924788458
141
0.09
142
0.0
143
25.4
144
1.0
145
0.0
146
1.0
147
0.625
 71
1
 72
0
 73
0
 74
0
 75
0
 76
0
 77
1
 78
8
 79
2
170
0
171
1
172
0
173
0
174
0
175
0
176
0
177
0
178
0
270
2
179
2
271
2
272
2
273
2
274
2
275
0
280
0
281
0
282
0
283
1
284
8
285
0
286
0
287
3
288
0
340
11
278
46
341
212
342
212
343
212
344
212
  0
ENDTAB
  0
ENDSEC
  0
SECTION
  2
BLOCKS
  0
BLOCK
  5
20
100
AcDbEntity
  8
0
100
AcDbBlockBegin
  2
*Model_Space
 70
0
 10
0.0
 20
0.0
 30
0.0
  3
*Model_Space
  1

  0
ENDBLK
  5
21
100
AcDbEntity
  8
0
100
AcDbBlockEnd
  0
BLOCK
  5
1C
100
AcDbEntity
  8
0
100
AcDbBlockBegin
  2
*Paper_Space
 70
0
 10
0.0
 20
0.0
 30
0.0
  3
*Paper_Space
  1

  0
ENDBLK
  5
1D
100
AcDbEntity
  8
0
100
AcDbBlockEnd
  0
BLOCK
  5
214
100
AcDbEntity
  8
0
100
AcDbBlockBegin
  2
_FILLED
 70
64
 10
0.0
 20
0.0
  3
_FILLED
  1

  0
SOLID
  5
215
100
AcDbEntity
  8
0
  6
BYBLOCK
 62
0
100
AcDbTrace
 10
0.0
 20
0.0
 11
-1.0
 21
0.25
 12
-1.0
 22
-0.25
 13
-1.0
 23
-0.25
  0
ENDBLK
  5
216
100
AcDbEntity
  8
0
  6
BYBLOCK
 62
0
100
AcDbBlockEnd
  0
ENDSEC
  0
SECTION
  2
ENTITIES
  0
LINE
  5
217
100
AcDbEntity
  8
0
100
AcDbLine
 62
7
  6
CONTINUOUS
 10
2524.0903946068
 20
13789.5814065987
 11
2524.0903946068
 21
22839.5814065987
  0
LINE
  5
218
100
AcDbEntity
  8
0
100
AcDbLine
 62
7
  6
CONTINUOUS
 10
2529.7588545711
 20
22839.5814066034
 11
2529.7588545711
 21
22844.751241166
  0
LINE
  5
219
100
AcDbEntity
  8
0
100
AcDbLine
 62
7
  6
CONTINUOUS
 10
2576.046264234
 20
22787.6235307059
 11
2576.046264234
 21
13841.5372762235
  0
LINE
  5
21A
100
AcDbEntity
  8
0
100
AcDbLine
 62
7
  6
CONTINUOUS
 10
2675.9969130168
 20
13941.4879250187
 11
2675.9969130168
 21
22687.6655649787
  0
LINE
  5
21B
100
AcDbEntity
  8
0
100
AcDbLine
 62
7
  6
CONTINUOUS
 10
3407.0193268707
 20
22132.5103388226
 11
3181.1614623707
 21
21906.6524743226
  0
LINE
  5
21C
100
AcDbEntity
  8
0
100
AcDbLine
 62
7
  6
CONTINUOUS
 10
4117.0193268291
 20
22142.5103387879
 11
3891.1614623494
 21
21916.6524744944
  0
LINE
  5
21D
100
AcDbEntity
  8
0
100
AcDbLine
 62
7
  6
CONTINUOUS
 10
3074.0903946068
 20
21099.5814074211
 11
3274.0903939092
 21
21299.5814065587
  0
LINE
  5
21E
100
AcDbEntity
  8
0
100
AcDbLine
 62
7
  6
CONTINUOUS
 10
3304.0903946068
 20
21269.5814065987
 11
3104.0903946068
 21
21069.5814065987
  0
LINE
  5
21F
100
AcDbEntity
  8
0
100
AcDbLine
 62
7
  6
CONTINUOUS
 10
3074.0903946068
 20
15839.5814065798
 11
3074.0903946068
 21
21099.5814074211
  0
LINE
  5
220
100
AcDbEntity
  8
0
100
AcDbLine
 62
7
  6
CONTINUOUS
 10
3074.0903946068
 20
21599.5814065686
 11
3074.0903946068
 21
22199.5814065487
  0
LINE
  5
221
100
AcDbEntity
  8
0
100
AcDbLine
 62
7
  6
CONTINUOUS
 10
3104.0903946068
 20
15839.5814065987
 11
3104.0903946068
 21
19039.5814065987
  0
LINE
  5
222
100
AcDbEntity
  8
0
100
AcDbLine
 62
7
  6
CONTINUOUS
 10
3104.0903946068
 20
19369.5814066687
 11
3104.0903946068
 21
21069.5814066687
  0
LINE
  5
223
100
AcDbEntity
  8
0
100
AcDbLine
 62
7
  6
CONTINUOUS
 10
3424.0903946068
 20
22125.4392708787
 11
3424.0903946068
 21
22004.5814066387
  0
LINE
  5
224
100
AcDbEntity
  8
0
100
AcDbLine
 62
7
  6
CONTINUOUS
 10
3424.0903946068
 20
21794.5814066687
 11
3424.0903946068
 21
21673.7235422387
  0
LINE
  5
225
100
AcDbEntity
  8
0
100
AcDbLine
 62
7
  6
CONTINUOUS
 10
4824.0903946068
 20
22549.5814065587
 11
5024.0903946068
 21
22749.5814065587
  0
LINE
  5
226
100
AcDbEntity
  8
0
100
AcDbLine
 62
7
  6
CONTINUOUS
 10
5054.0903946768
 20
22719.5814066687
 11
4854.0903946768
 21
22519.5814066687
  0
LINE
  5
227
100
AcDbEntity
  8
0
100
AcDbLine
 62
7
  6
CONTINUOUS
 10
3674.0903946068
 20
21989.5814065987
 11
3674.0903946068
 21
21809.5814065287
  0
LINE
  5
228
100
AcDbEntity
  8
0
100
AcDbLine
 62
7
  6
CONTINUOUS
 10
4024.0903946068
 20
21659.5814065287
 11
4024.0903946068
 21
21894.5814066687
  0
LINE
  5
229
100
AcDbEntity
  8
0
100
AcDbLine
 62
7
  6
CONTINUOUS
 10
4039.0903946468
 20
14364.5814065583
 11
4039.0903946468
 21
15364.5814066391
  0
LINE
  5
22A
100
AcDbEntity
  8
0
100
AcDbLine
 62
7
  6
CONTINUOUS
 10
4224.0903946068
 20
21894.5814066687
 11
4224.0903946068
 21
21659.5814065287
  0
LINE
  5
22B
100
AcDbEntity
  8
0
100
AcDbLine
 62
7
  6
CONTINUOUS
 10
3304.0903946068
 20
19239.5814065987
 11
3104.0903946068
 21
19039.5814065987
  0
LINE
  5
22C
100
AcDbEntity
  8
0
100
AcDbLine
 62
7
  6
CONTINUOUS
 10
5196.1771310274
 20
14189.5814065987
 11
5195.3308020476
 21
14216.2868492348
  0
LINE
  5
22D
100
AcDbEntity
  8
0
100
AcDbLine
 62
7
  6
CONTINUOUS
 10
4474.0903946068
 20
22199.5814063887
 11
4474.0903946068
 21
21599.5814067286
  0
LINE
  5
22E
100
AcDbEntity
  8
0
100
AcDbLine
 62
7
  6
CONTINUOUS
 10
4524.0903946068
 20
15464.5814065987
 11
4524.0903946068
 21
15316.5655604987
  0
LINE
  5
22F
100
AcDbEntity
  8
0
100
AcDbLine
 62
7
  6
CONTINUOUS
 10
4524.0903946268
 20
10344.7512411587
 11
4524.0903946068
 21
13941.4879250187
  0
LINE
  5
230
100
AcDbEntity
  8
0
100
AcDbLine
 62
7
  6
CONTINUOUS
 10
4524.0903946068
 20
22687.6618418757
 11
4524.0903946068
 21
22844.7814065987
  0
LINE
  5
231
100
AcDbEntity
  8
0
100
AcDbLine
 62
7
  6
CONTINUOUS
 10
4574.090401725
 20
13688.4706498173
 11
4574.090409452
 21
10339.5814066004
  0
LINE
  5
232
100
AcDbEntity
  8
0
100
AcDbLine
 62
7
  6
CONTINUOUS
 10
4574.0903946068
 20
22844.7814065987
 11
4574.0903946068
 21
23439.5814065987
  0
LINE
  5
233
100
AcDbEntity
  8
0
100
AcDbLine
 62
7
  6
CONTINUOUS
 10
4579.7588545668
 20
23439.5814065987
 11
4579.7588545668
 21
23444.7512411674
  0
LINE
  5
234
100
AcDbEntity
  8
0
100
AcDbLine
 62
7
  6
CONTINUOUS
 10
4626.0462642268
 20
23387.6255369785
 11
4626.0462642268
 21
22844.7814065987
  0
LINE
  5
235
100
AcDbEntity
  8
0
100
AcDbLine
 62
7
  6
CONTINUOUS
 10
4626.046255955
 20
13749.8175863824
 11
4626.0462635786
 21
10443.0724140987
  0
LINE
  5
236
100
AcDbEntity
  8
0
100
AcDbLine
 62
7
  6
CONTINUOUS
 10
4725.9969130268
 20
22844.7814065987
 11
4725.9969130268
 21
23287.6748881787
  0
LINE
  5
237
100
AcDbEntity
  8
0
100
AcDbLine
 62
7
  6
CONTINUOUS
 10
4824.0903946068
 20
21399.5814821486
 11
4824.0903946068
 21
22549.5814065587
  0
LINE
  5
238
100
AcDbEntity
  8
0
100
AcDbLine
 62
7
  6
CONTINUOUS
 10
4854.0903946768
 20
21419.5814066687
 11
4854.0903946768
 21
22519.5814066687
  0
LWPOLYLINE
  5
239
100
AcDbEntity
  8
0
100
AcDbPolyline
 62
7
  6
CONTINUOUS
 90
3
 70
0
 10
4624.6027884304
 20
10393.0533566647
 10
4625.6281570566
 20
10408.2912796131
 10
4626.0462635822
 20
10443.0631236082
  0
LINE
  5
23A
100
AcDbEntity
  8
0
100
AcDbLine
 62
7
  6
CONTINUOUS
 10
5730.5903945568
 20
13604.5814066302
 11
5679.0903946768
 21
13714.5814066072
  0
LINE
  5
23B
100
AcDbEntity
  8
0
100
AcDbLine
 62
7
  6
CONTINUOUS
 10
5224.0903945968
 20
13189.5814072583
 11
5224.0903945968
 21
14189.5814065987
  0
LINE
  5
23C
100
AcDbEntity
  8
0
100
AcDbLine
 62
7
  6
CONTINUOUS
 10
5504.0903946768
 20
13344.5814065987
 11
5504.0903946768
 21
13374.5814065587
  0
LINE
  5
23D
100
AcDbEntity
  8
0
100
AcDbLine
 62
7
  6
CONTINUOUS
 10
5504.0903946768
 20
14004.5814066387
 11
5504.0903946768
 21
14034.5814065287
  0
LINE
  5
23E
100
AcDbEntity
  8
0
100
AcDbLine
 62
7
  6
CONTINUOUS
 10
5639.0903946424
 20
13452.0814065987
 11
5639.0903946424
 21
13927.0814065987
  0
LINE
  5
23F
100
AcDbEntity
  8
0
100
AcDbLine
 62
7
  6
CONTINUOUS
 10
5679.0903946768
 20
13714.5814066072
 11
5679.0903946768
 21
13844.5814066687
  0
LINE
  5
240
100
AcDbEntity
  8
0
100
AcDbLine
 62
7
  6
CONTINUOUS
 10
5730.5903945568
 20
13534.5814065287
 11
5730.5903945568
 21
13604.5814066302
  0
LINE
  5
241
100
AcDbEntity
  8
0
100
AcDbLine
 62
7
  6
CONTINUOUS
 10
5764.0903946468
 20
10749.5814065183
 11
5764.0903946468
 21
11219.581406719
  0
LINE
  5
242
100
AcDbEntity
  8
0
100
AcDbLine
 62
7
  6
CONTINUOUS
 10
5794.0903945368
 20
10779.5814066387
 11
5794.0903945368
 21
11189.5814065987
  0
LINE
  5
243
100
AcDbEntity
  8
0
100
AcDbLine
 62
7
  6
CONTINUOUS
 10
5524.0903946068
 20
15316.5655604987
 11
5524.3860821716
 21
15464.5814065987
  0
LINE
  5
244
100
AcDbEntity
  8
0
100
AcDbLine
 62
7
  6
CONTINUOUS
 10
5724.0903946068
 20
10339.5814065987
 11
4574.0904094562
 21
10339.5814065987
  0
LINE
  5
245
100
AcDbEntity
  8
0
100
AcDbLine
 62
7
  6
CONTINUOUS
 10
4574.090409452
 20
10344.7512412858
 11
4524.0903946267
 21
10344.7512412858
  0
LINE
  5
246
100
AcDbEntity
  8
0
100
AcDbLine
 62
7
  6
CONTINUOUS
 10
5959.4750481152
 20
10388.2956923078
 11
19234.0903946068
 21
10388.2956923123
  0
LINE
  5
247
100
AcDbEntity
  8
0
100
AcDbLine
 62
7
  6
CONTINUOUS
 10
4624.6098809603
 20
10393.060864749
 11
19234.0903946068
 21
10393.060864749
  0
LINE
  5
248
100
AcDbEntity
  8
0
100
AcDbLine
 62
7
  6
CONTINUOUS
 10
4574.0904093168
 20
10399.6801577287
 11
4524.0903946265
 21
10399.6801577287
  0
LINE
  5
249
100
AcDbEntity
  8
0
100
AcDbLine
 62
7
  6
CONTINUOUS
 10
19234.0903946068
 20
10443.0724140987
 11
4626.0462635786
 21
10443.0724140987
  0
LINE
  5
24A
100
AcDbEntity
  8
0
100
AcDbLine
 62
7
  6
CONTINUOUS
 10
18854.0903943468
 20
10649.5814065587
 11
5864.0903946462
 21
10649.5814065587
  0
LINE
  5
24B
100
AcDbEntity
  8
0
100
AcDbLine
 62
7
  6
CONTINUOUS
 10
18824.0903946069
 20
10679.5814065987
 11
5894.0903945367
 21
10679.5814065987
  0
LINE
  5
24C
100
AcDbEntity
  8
0
100
AcDbLine
 62
7
  6
CONTINUOUS
 10
19424.090394639
 20
10739.5814065987
 11
20824.3371505994
 21
10739.5814065987
  0
LINE
  5
24D
100
AcDbEntity
  8
0
100
AcDbLine
 62
7
  6
CONTINUOUS
 10
19234.0903946068
 20
10786.6187110387
 11
19295.9447364368
 21
10786.6187110387
  0
LINE
  5
24E
100
AcDbEntity
  8
0
100
AcDbLine
 62
7
  6
CONTINUOUS
 10
19234.0903946068
 20
10788.2956923142
 11
19286.098995778
 21
10788.2956923142
  0
LINE
  5
24F
100
AcDbEntity
  8
0
100
AcDbLine
 62
7
  6
CONTINUOUS
 10
19234.0903946068
 20
10791.537276224
 11
20772.3812809741
 21
10791.537276224
  0
LINE
  5
250
100
AcDbEntity
  8
0
100
AcDbLine
 62
7
  6
CONTINUOUS
 10
6009.0903945668
 20
15364.5814065892
 11
6009.0903945668
 21
14419.8225676131
  0
LINE
  5
251
100
AcDbEntity
  8
0
100
AcDbLine
 62
7
  6
CONTINUOUS
 10
6106.4700997168
 20
14317.4946701854
 11
6106.4700997168
 21
14289.5814065987
  0
LINE
  5
252
100
AcDbEntity
  8
0
100
AcDbLine
 62
7
  6
CONTINUOUS
 10
6264.0903946468
 20
14669.5814063482
 11
6264.0903946468
 21
15229.5814066387
  0
LINE
  5
253
100
AcDbEntity
  8
0
100
AcDbLine
 62
7
  6
CONTINUOUS
 10
6294.0903946068
 20
14699.5814065587
 11
6294.0903946068
 21
15199.5814065387
  0
LINE
  5
254
100
AcDbEntity
  8
0
100
AcDbLine
 62
7
  6
CONTINUOUS
 10
6317.5903946568
 20
13604.5814066302
 11
6317.5903946568
 21
13534.5814065287
  0
LINE
  5
255
100
AcDbEntity
  8
0
100
AcDbLine
 62
7
  6
CONTINUOUS
 10
6369.0903945368
 20
13844.5814066687
 11
6369.0903945368
 21
13714.5814066072
  0
LINE
  5
256
100
AcDbEntity
  8
0
100
AcDbLine
 62
7
  6
CONTINUOUS
 10
6409.0903945768
 20
13927.0814065987
 11
6409.0903945768
 21
13452.0814065987
  0
LINE
  5
257
100
AcDbEntity
  8
0
100
AcDbLine
 62
7
  6
CONTINUOUS
 10
6544.0903945345
 20
14034.5814065287
 11
6544.0903945345
 21
14004.5814066387
  0
LINE
  5
258
100
AcDbEntity
  8
0
100
AcDbLine
 62
7
  6
CONTINUOUS
 10
6544.0903945345
 20
13374.5814065587
 11
6544.0903945345
 21
13344.5814066687
  0
LINE
  5
259
100
AcDbEntity
  8
0
100
AcDbLine
 62
7
  6
CONTINUOUS
 10
21065.1526553187
 20
10891.4879250187
 11
19234.0903946068
 21
10891.4879250187
  0
LINE
  5
25A
100
AcDbEntity
  8
0
100
AcDbLine
 62
7
  6
CONTINUOUS
 10
7644.0903945369
 20
11149.5814065287
 11
18824.0903946067
 21
11149.5814065287
  0
LINE
  5
25B
100
AcDbEntity
  8
0
100
AcDbLine
 62
7
  6
CONTINUOUS
 10
7674.0903946086
 20
11179.5814066387
 11
8044.0903939034
 21
11179.5814066387
  0
LINE
  5
25C
100
AcDbEntity
  8
0
100
AcDbLine
 62
7
  6
CONTINUOUS
 10
12194.0904701358
 20
11179.5814066387
 11
18854.0903943468
 21
11179.5814066387
  0
LINE
  5
25D
100
AcDbEntity
  8
0
100
AcDbLine
 62
7
  6
CONTINUOUS
 10
11974.0903946066
 20
11199.5814065987
 11
8274.0903946067
 21
11199.5814065987
  0
LINE
  5
25E
100
AcDbEntity
  8
0
100
AcDbLine
 62
7
  6
CONTINUOUS
 10
5894.0903945369
 20
11289.5814065587
 11
7544.0903945367
 21
11289.5814065587
  0
LINE
  5
25F
100
AcDbEntity
  8
0
100
AcDbLine
 62
7
  6
CONTINUOUS
 10
5864.0903945964
 20
11319.5814066687
 11
7574.0903946467
 21
11319.5814066687
  0
LINE
  5
260
100
AcDbEntity
  8
0
100
AcDbLine
 62
7
  6
CONTINUOUS
 10
6824.0903945968
 20
14189.5813311938
 11
6824.0903945968
 21
13189.5814820037
  0
LINE
  5
261
100
AcDbEntity
  8
0
100
AcDbLine
 62
7
  6
CONTINUOUS
 10
16904.0903943468
 20
12139.5814065987
 11
16144.0903948667
 21
12139.5814065987
  0
LINE
  5
262
100
AcDbEntity
  8
0
100
AcDbLine
 62
7
  6
CONTINUOUS
 10
14504.0903943468
 20
12139.5814065987
 11
13744.0903948667
 21
12139.5814065987
  0
LINE
  5
263
100
AcDbEntity
  8
0
100
AcDbLine
 62
7
  6
CONTINUOUS
 10
21329.7588541727
 20
12232.2102670087
 11
21324.0903946068
 21
12232.2102670087
  0
LINE
  5
264
100
AcDbEntity
  8
0
100
AcDbLine
 62
7
  6
CONTINUOUS
 10
16864.0903947695
 20
12239.5814065987
 11
16184.0903944434
 21
12239.5814065987
  0
LINE
  5
265
100
AcDbEntity
  8
0
100
AcDbLine
 62
7
  6
CONTINUOUS
 10
14464.0903947895
 20
12239.5814065987
 11
13784.0903944134
 21
12239.5814065987
  0
LINE
  5
266
100
AcDbEntity
  8
0
100
AcDbLine
 62
7
  6
CONTINUOUS
 10
7594.0903945372
 20
11239.5814065987
 11
7594.0903945372
 21
11199.5814065587
  0
LINE
  5
267
100
AcDbEntity
  8
0
100
AcDbLine
 62
7
  6
CONTINUOUS
 10
7624.0903946068
 20
11269.5814065087
 11
7624.0903946068
 21
11229.5814066405
  0
LINE
  5
268
100
AcDbEntity
  8
0
100
AcDbLine
 62
7
  6
CONTINUOUS
 10
7744.0903946072
 20
15299.5814065587
 11
7744.0903946072
 21
14699.5814065587
  0
LINE
  5
269
100
AcDbEntity
  8
0
100
AcDbLine
 62
7
  6
CONTINUOUS
 10
7774.0903946068
 20
15329.5814062987
 11
7774.0903946068
 21
14669.5814066781
  0
LINE
  5
26A
100
AcDbEntity
  8
0
100
AcDbLine
 62
7
  6
CONTINUOUS
 10
8144.0903945268
 20
11279.5814818987
 11
8144.0903945268
 21
13029.5814066387
  0
LINE
  5
26B
100
AcDbEntity
  8
0
100
AcDbLine
 62
7
  6
CONTINUOUS
 10
8174.0903946068
 20
11299.5814065587
 11
8174.0903946068
 21
12999.5814065787
  0
LINE
  5
26C
100
AcDbEntity
  8
0
100
AcDbLine
 62
7
  6
CONTINUOUS
 10
2576.0462642269
 20
13841.5372762187
 11
2524.0903946051
 21
13789.5814065968
  0
LWPOLYLINE
  5
26D
100
AcDbEntity
  8
0
100
AcDbPolyline
 62
7
  6
CONTINUOUS
 90
4
 70
0
 10
2576.0537072194
 20
13841.5372345531
 10
2595.2067116131
 20
13860.638364812
 10
2616.4142589427
 20
13881.8905840166
 10
2675.9969130157
 20
13941.4879250187
  0
LINE
  5
26E
100
AcDbEntity
  8
0
100
AcDbLine
 62
7
  6
CONTINUOUS
 10
13784.0903944134
 20
12739.5814065987
 11
14464.0903947895
 21
12739.5814065987
  0
LINE
  5
26F
100
AcDbEntity
  8
0
100
AcDbLine
 62
7
  6
CONTINUOUS
 10
16184.0903944434
 20
12739.5814065987
 11
16864.0903947695
 21
12739.5814065987
  0
LINE
  5
270
100
AcDbEntity
  8
0
100
AcDbLine
 62
7
  6
CONTINUOUS
 10
13744.0903948667
 20
12839.5814065987
 11
14504.0903943468
 21
12839.5814065987
  0
LINE
  5
271
100
AcDbEntity
  8
0
100
AcDbLine
 62
7
  6
CONTINUOUS
 10
16144.0903948667
 20
12839.5814065987
 11
16904.0903943468
 21
12839.5814065987
  0
LINE
  5
272
100
AcDbEntity
  8
0
100
AcDbLine
 62
7
  6
CONTINUOUS
 10
6724.0903939376
 20
13089.5814065987
 11
5324.0904699967
 21
13089.5814065987
  0
LINE
  5
273
100
AcDbEntity
  8
0
100
AcDbLine
 62
7
  6
CONTINUOUS
 10
6369.0903945368
 20
13714.5814066072
 11
6317.5903946568
 21
13604.5814066302
  0
LINE
  5
274
100
AcDbEntity
  8
0
100
AcDbLine
 62
7
  6
CONTINUOUS
 10
4626.0462559585
 20
13749.8414511486
 11
4574.090401725
 21
13688.4706498173
  0
LINE
  5
275
100
AcDbEntity
  8
0
100
AcDbLine
 62
7
  6
CONTINUOUS
 10
8374.0903945867
 20
13199.5814065987
 11
11974.0903946066
 21
13199.5814065987
  0
LINE
  5
276
100
AcDbEntity
  8
0
100
AcDbLine
 62
7
  6
CONTINUOUS
 10
8344.0903945268
 20
13229.5814066387
 11
11994.0903945241
 21
13229.5814066387
  0
LINE
  5
277
100
AcDbEntity
  8
0
100
AcDbLine
 62
7
  6
CONTINUOUS
 10
15974.090394606
 20
13289.5814065987
 11
12674.0903946068
 21
13289.5814065987
  0
LINE
  5
278
100
AcDbEntity
  8
0
100
AcDbLine
 62
7
  6
CONTINUOUS
 10
5224.0903946045
 20
13314.5814065987
 11
5474.0903946045
 21
13314.5814065987
  0
LINE
  5
279
100
AcDbEntity
  8
0
100
AcDbLine
 62
7
  6
CONTINUOUS
 10
6574.0903946345
 20
13314.5814065987
 11
6824.0903946045
 21
13314.5814065987
  0
LINE
  5
27A
100
AcDbEntity
  8
0
100
AcDbLine
 62
7
  6
CONTINUOUS
 10
15974.090394606
 20
13339.5814065987
 11
12674.090394607
 21
13339.5814065987
  0
LINE
  5
27B
100
AcDbEntity
  8
0
100
AcDbLine
 62
7
  6
CONTINUOUS
 10
19274.0903946166
 20
13389.5814065987
 11
18974.0903945969
 21
13389.5814065987
  0
LINE
  5
27C
100
AcDbEntity
  8
0
100
AcDbLine
 62
7
  6
CONTINUOUS
 10
5534.0903946084
 20
13404.5814066387
 11
6514.0903946445
 21
13404.5814066387
  0
LINE
  5
27D
100
AcDbEntity
  8
0
100
AcDbLine
 62
7
  6
CONTINUOUS
 10
18174.0903946068
 20
13439.5814065987
 11
17774.0903946068
 21
13439.5814065987
  0
LINE
  5
27E
100
AcDbEntity
  8
0
100
AcDbLine
 62
7
  6
CONTINUOUS
 10
6409.0903945646
 20
13452.0814065987
 11
5639.0903946446
 21
13452.0814065987
  0
LINE
  5
27F
100
AcDbEntity
  8
0
100
AcDbLine
 62
7
  6
CONTINUOUS
 10
6317.5903946568
 20
13534.5814065287
 11
5730.5903945568
 21
13534.5814065287
  0
LINE
  5
280
100
AcDbEntity
  8
0
100
AcDbLine
 62
7
  6
CONTINUOUS
 10
15884.0903945556
 20
13539.5814065987
 11
15084.1317769116
 21
13539.5814065987
  0
LINE
  5
281
100
AcDbEntity
  8
0
100
AcDbLine
 62
7
  6
CONTINUOUS
 10
14764.0903946621
 20
13539.5814065987
 11
12764.1317767045
 21
13539.5814065987
  0
LINE
  5
282
100
AcDbEntity
  8
0
100
AcDbLine
 62
7
  6
CONTINUOUS
 10
4524.0903946268
 20
13789.5814065987
 11
2524.0903946068
 21
13789.5814065987
  0
LINE
  5
283
100
AcDbEntity
  8
0
100
AcDbLine
 62
7
  6
CONTINUOUS
 10
2576.0462642269
 20
13841.5372762187
 11
4534.3327600183
 21
13841.5372762387
  0
LINE
  5
284
100
AcDbEntity
  8
0
100
AcDbLine
 62
7
  6
CONTINUOUS
 10
5679.0903946768
 20
13844.5814066687
 11
6369.0903945368
 21
13844.5814066687
  0
LINE
  5
285
100
AcDbEntity
  8
0
100
AcDbLine
 62
7
  6
CONTINUOUS
 10
5639.0903946446
 20
13927.0814065987
 11
6409.0903945646
 21
13927.0814065987
  0
LINE
  5
286
100
AcDbEntity
  8
0
100
AcDbLine
 62
7
  6
CONTINUOUS
 10
9489.4211888288
 20
23387.6255369787
 11
9489.0903946447
 21
23430.7814065999
  0
LINE
  5
287
100
AcDbEntity
  8
0
100
AcDbLine
 62
7
  6
CONTINUOUS
 10
9254.0903946768
 20
22619.5814066687
 11
9254.0903946768
 21
21419.5814066687
  0
LINE
  5
288
100
AcDbEntity
  8
0
100
AcDbLine
 62
7
  6
CONTINUOUS
 10
9274.0903946068
 20
22649.5814065492
 11
9274.0903946068
 21
21399.5814071944
  0
LINE
  5
289
100
AcDbEntity
  8
0
100
AcDbLine
 62
7
  6
CONTINUOUS
 10
9489.0903946486
 20
22639.5814080248
 11
9489.0895803398
 21
23387.6253209187
  0
LINE
  5
28A
100
AcDbEntity
  8
0
100
AcDbLine
 62
7
  6
CONTINUOUS
 10
9539.0903827788
 20
22684.1870507437
 11
9539.2721864884
 21
23429.2418694283
  0
LINE
  5
28B
100
AcDbEntity
  8
0
100
AcDbLine
 62
7
  6
CONTINUOUS
 10
6264.0903946468
 20
15229.5814066387
 11
6464.0903946468
 21
15429.5814066387
  0
LINE
  5
28C
100
AcDbEntity
  8
0
100
AcDbLine
 62
7
  6
CONTINUOUS
 10
6494.0903946068
 20
15399.5814065987
 11
6294.0903946068
 21
15199.5814065987
  0
LINE
  5
28D
100
AcDbEntity
  8
0
100
AcDbLine
 62
7
  6
CONTINUOUS
 10
4524.0903946084
 20
13832.8512313382
 11
4534.3504391355
 21
13841.5372762405
  0
LINE
  5
28E
100
AcDbEntity
  8
0
100
AcDbLine
 62
7
  6
CONTINUOUS
 10
4524.0903946068
 20
13941.4879250187
 11
2675.9969130168
 21
13941.4879250187
  0
LINE
  5
28F
100
AcDbEntity
  8
0
100
AcDbLine
 62
7
  6
CONTINUOUS
 10
6514.0903946484
 20
13974.5814065587
 11
5534.0903945684
 21
13974.5814065587
  0
LINE
  5
290
100
AcDbEntity
  8
0
100
AcDbLine
 62
7
  6
CONTINUOUS
 10
12764.0903946614
 20
14039.5814065987
 11
14764.0490122902
 21
14039.5814065987
  0
LINE
  5
291
100
AcDbEntity
  8
0
100
AcDbLine
 62
7
  6
CONTINUOUS
 10
15084.0903945509
 20
14039.5814065987
 11
15884.0490125003
 21
14039.5814065987
  0
LINE
  5
292
100
AcDbEntity
  8
0
100
AcDbLine
 62
7
  6
CONTINUOUS
 10
6824.0903946045
 20
14064.5814065987
 11
6574.0903946345
 21
14064.5814065987
  0
LINE
  5
293
100
AcDbEntity
  8
0
100
AcDbLine
 62
7
  6
CONTINUOUS
 10
5474.0903946045
 20
14064.5814065987
 11
5224.0903946045
 21
14064.5814065987
  0
LINE
  5
294
100
AcDbEntity
  8
0
100
AcDbLine
 62
7
  6
CONTINUOUS
 10
5224.0903945968
 20
14189.5814065987
 11
5196.1771310274
 21
14189.5814065987
  0
LINE
  5
295
100
AcDbEntity
  8
0
100
AcDbLine
 62
7
  6
CONTINUOUS
 10
5143.7624059596
 20
14264.5814065987
 11
4139.0903946462
 21
14264.5814065987
  0
LINE
  5
296
100
AcDbEntity
  8
0
100
AcDbLine
 62
7
  6
CONTINUOUS
 10
5324.0903946036
 20
14289.5814065987
 11
6724.0903191918
 21
14289.5814065987
  0
LINE
  5
297
100
AcDbEntity
  8
0
100
AcDbLine
 62
7
  6
CONTINUOUS
 10
17774.0903946068
 20
14539.5814065987
 11
18174.0903946068
 21
14539.5814065987
  0
LINE
  5
298
100
AcDbEntity
  8
0
100
AcDbLine
 62
7
  6
CONTINUOUS
 10
7674.0903945973
 20
14569.5814066687
 11
6364.0903943263
 21
14569.5814066687
  0
LINE
  5
299
100
AcDbEntity
  8
0
100
AcDbLine
 62
7
  6
CONTINUOUS
 10
18974.0903945969
 20
14589.5814065987
 11
19274.0903946166
 21
14589.5814065987
  0
LINE
  5
29A
100
AcDbEntity
  8
0
100
AcDbLine
 62
7
  6
CONTINUOUS
 10
7644.0903945369
 20
14599.5814065987
 11
6394.0903945367
 21
14599.5814065987
  0
LINE
  5
29B
100
AcDbEntity
  8
0
100
AcDbLine
 62
7
  6
CONTINUOUS
 10
3181.1614623431
 20
21892.5103388293
 11
3407.0193268785
 21
21666.6524744801
  0
LINE
  5
29C
100
AcDbEntity
  8
0
100
AcDbLine
 62
7
  6
CONTINUOUS
 10
2676.0051767473
 20
22687.6655649787
 11
2615.9117617077
 21
22747.7524799993
  0
LINE
  5
29D
100
AcDbEntity
  8
0
100
AcDbLine
 62
7
  6
CONTINUOUS
 10
2615.9117617077
 20
22747.7524799993
 11
2524.0903946074
 21
22839.581406607
  0
LINE
  5
29E
100
AcDbEntity
  8
0
100
AcDbLine
 62
7
  6
CONTINUOUS
 10
9989.0903946068
 20
23432.3832728596
 11
9989.0903946068
 21
23405.7807946993
  0
LINE
  5
29F
100
AcDbEntity
  8
0
100
AcDbLine
 62
7
  6
CONTINUOUS
 10
10074.0903946468
 20
22785.559597712
 11
10074.0903946468
 21
23085.3455719106
  0
LINE
  5
2A0
100
AcDbEntity
  8
0
100
AcDbLine
 62
7
  6
CONTINUOUS
 10
19274.0903946166
 20
14889.5814065987
 11
18974.090394597
 21
14889.5814065987
  0
LINE
  5
2A1
100
AcDbEntity
  8
0
100
AcDbLine
 62
7
  6
CONTINUOUS
 10
18474.0903946166
 20
14889.5814065987
 11
18174.090394597
 21
14889.5814065987
  0
LINE
  5
2A2
100
AcDbEntity
  8
0
100
AcDbLine
 62
7
  6
CONTINUOUS
 10
16674.0903939408
 20
14914.5814065987
 11
16274.0903949467
 21
14914.5814065987
  0
LINE
  5
2A3
100
AcDbEntity
  8
0
100
AcDbLine
 62
7
  6
CONTINUOUS
 10
15724.090394606
 20
15064.5814065987
 11
16074.090394606
 21
15064.5814065987
  0
LINE
  5
2A4
100
AcDbEntity
  8
0
100
AcDbLine
 62
7
  6
CONTINUOUS
 10
16166.216414836
 20
15160.3887842487
 11
15941.841981786
 21
15160.3887842487
  0
LINE
  5
2A5
100
AcDbEntity
  8
0
100
AcDbLine
 62
7
  6
CONTINUOUS
 10
20719.0903946321
 20
15314.5814065987
 11
20419.1317769416
 21
15314.5814065987
  0
LINE
  5
2A6
100
AcDbEntity
  8
0
100
AcDbLine
 62
7
  6
CONTINUOUS
 10
4524.0903946068
 20
15316.5655604987
 11
5524.0903946068
 21
15316.5655604987
  0
LINE
  5
2A7
100
AcDbEntity
  8
0
100
AcDbLine
 62
7
  6
CONTINUOUS
 10
6494.0903945467
 20
15399.5814065987
 11
7644.0903945367
 21
15399.5814065987
  0
LINE
  5
2A8
100
AcDbEntity
  8
0
100
AcDbLine
 62
7
  6
CONTINUOUS
 10
6464.0903946468
 20
15429.5814066387
 11
7674.0903942668
 21
15429.5814066387
  0
LINE
  5
2A9
100
AcDbEntity
  8
0
100
AcDbLine
 62
7
  6
CONTINUOUS
 10
4139.0903946462
 20
15464.5814065987
 11
4524.0903946068
 21
15464.5814065987
  0
LINE
  5
2AA
100
AcDbEntity
  8
0
100
AcDbLine
 62
7
  6
CONTINUOUS
 10
5524.3860821716
 20
15464.5814065987
 11
5909.0903945573
 21
15464.5814065987
  0
LINE
  5
2AB
100
AcDbEntity
  8
0
100
AcDbLine
 62
7
  6
CONTINUOUS
 10
4357.5818893406
 20
21916.0899120184
 11
4131.1614623847
 21
22142.5103387876
  0
LINE
  5
2AC
100
AcDbEntity
  8
0
100
AcDbLine
 62
7
  6
CONTINUOUS
 10
10604.0903946072
 20
21169.5814066687
 11
10604.0903946072
 21
19369.5814066687
  0
LINE
  5
2AD
100
AcDbEntity
  8
0
100
AcDbLine
 62
7
  6
CONTINUOUS
 10
10604.0903946072
 20
19139.5814065987
 11
10604.0903946072
 21
15839.5814065987
  0
LINE
  5
2AE
100
AcDbEntity
  8
0
100
AcDbLine
 62
7
  6
CONTINUOUS
 10
10634.0903945668
 20
21169.5814068201
 11
10634.0903945668
 21
15839.5814065978
  0
LINE
  5
2AF
100
AcDbEntity
  8
0
100
AcDbLine
 62
7
  6
CONTINUOUS
 10
4624.6098809603
 20
10393.060864749
 11
4574.0904094526
 21
10339.5814065968
  0
LINE
  5
2B0
100
AcDbEntity
  8
0
100
AcDbLine
 62
7
  6
CONTINUOUS
 10
10504.0903947082
 20
15709.5814065287
 11
3204.0903946453
 21
15709.5814065287
  0
LINE
  5
2B1
100
AcDbEntity
  8
0
100
AcDbLine
 62
7
  6
CONTINUOUS
 10
10504.0903946769
 20
15739.5814065987
 11
3204.0903946767
 21
15739.5814065987
  0
LINE
  5
2B2
100
AcDbEntity
  8
0
100
AcDbLine
 62
7
  6
CONTINUOUS
 10
18174.0903946069
 20
16089.5814065987
 11
18474.0903946067
 21
16089.5814065987
  0
LINE
  5
2B3
100
AcDbEntity
  8
0
100
AcDbLine
 62
7
  6
CONTINUOUS
 10
18974.0903946069
 20
16089.5814065987
 11
19274.0903946067
 21
16089.5814065987
  0
LINE
  5
2B4
100
AcDbEntity
  8
0
100
AcDbLine
 62
7
  6
CONTINUOUS
 10
11574.0903946438
 20
23085.3455715433
 11
11574.0903946437
 21
22785.6255920514
  0
LINE
  5
2B5
100
AcDbEntity
  8
0
100
AcDbLine
 62
7
  6
CONTINUOUS
 10
11659.0903946068
 20
23405.7807946993
 11
11659.0903946068
 21
23432.3832728595
  0
LINE
  5
2B6
100
AcDbEntity
  8
0
100
AcDbLine
 62
7
  6
CONTINUOUS
 10
5759.5784822906
 20
10382.1745188422
 11
5724.0903946068
 21
10339.5814065929
  0
LINE
  5
2B7
100
AcDbEntity
  8
0
100
AcDbLine
 62
7
  6
CONTINUOUS
 10
8144.0903945268
 20
13029.5814066387
 11
8344.0903945268
 21
13229.5814066387
  0
LINE
  5
2B8
100
AcDbEntity
  8
0
100
AcDbLine
 62
7
  6
CONTINUOUS
 10
8374.0903946068
 20
13199.5814065987
 11
8174.0903946068
 21
12999.5814065987
  0
LINE
  5
2B9
100
AcDbEntity
  8
0
100
AcDbLine
 62
7
  6
CONTINUOUS
 10
15941.841981786
 20
16268.7740289767
 11
16166.216414836
 21
16268.7740289767
  0
LINE
  5
2BA
100
AcDbEntity
  8
0
100
AcDbLine
 62
7
  6
CONTINUOUS
 10
16074.090394606
 20
16364.5814065987
 11
15724.090394606
 21
16364.5814065987
  0
LINE
  5
2BB
100
AcDbEntity
  8
0
100
AcDbLine
 62
7
  6
CONTINUOUS
 10
19274.0903946067
 20
16389.5814065987
 11
18974.0903946069
 21
16389.5814065987
  0
LINE
  5
2BC
100
AcDbEntity
  8
0
100
AcDbLine
 62
7
  6
CONTINUOUS
 10
18474.0903946067
 20
16389.5814065987
 11
18174.0903946069
 21
16389.5814065987
  0
LINE
  5
2BD
100
AcDbEntity
  8
0
100
AcDbLine
 62
7
  6
CONTINUOUS
 10
16274.0903946068
 20
16514.5814065987
 11
16674.0903192168
 21
16514.5814065987
  0
LINE
  5
2BE
100
AcDbEntity
  8
0
100
AcDbLine
 62
7
  6
CONTINUOUS
 10
20419.0903946008
 20
16714.5814065987
 11
20719.0490122402
 21
16714.5814065987
  0
LINE
  5
2BF
100
AcDbEntity
  8
0
100
AcDbLine
 62
7
  6
CONTINUOUS
 10
4626.0462642268
 20
23387.6255369785
 11
4574.0903946068
 21
23439.5814065985
  0
LWPOLYLINE
  5
2C0
100
AcDbEntity
  8
0
100
AcDbPolyline
 62
7
  6
CONTINUOUS
 90
4
 70
0
 10
4626.0462642268
 20
23387.6255369807
 10
4645.1475288504
 20
23368.4688192661
 10
4666.399747168
 20
23347.2599007761
 10
4725.9969130268
 20
23287.6748881787
  0
LINE
  5
2C1
100
AcDbEntity
  8
0
100
AcDbLine
 62
7
  6
CONTINUOUS
 10
12428.4201646922
 20
19139.5814066085
 11
12421.6071535319
 21
22089.581406577
  0
LINE
  5
2C2
100
AcDbEntity
  8
0
100
AcDbLine
 62
7
  6
CONTINUOUS
 10
12109.0905386472
 20
22683.6455331051
 11
12108.908602065
 21
23429.2418694283
  0
LINE
  5
2C3
100
AcDbEntity
  8
0
100
AcDbLine
 62
7
  6
CONTINUOUS
 10
12074.0903946072
 20
13099.5814065587
 11
12074.0903946072
 21
11299.5814065587
  0
LINE
  5
2C4
100
AcDbEntity
  8
0
100
AcDbLine
 62
7
  6
CONTINUOUS
 10
12094.0903945318
 20
13129.5814066382
 11
12094.0903945318
 21
11279.5814072842
  0
LINE
  5
2C5
100
AcDbEntity
  8
0
100
AcDbLine
 62
7
  6
CONTINUOUS
 10
12159.0903946068
 20
22639.5814065987
 11
12159.0903946078
 21
23387.6253209187
  0
LINE
  5
2C6
100
AcDbEntity
  8
0
100
AcDbLine
 62
7
  6
CONTINUOUS
 10
12474.0903946068
 20
13489.5814065987
 11
12474.0903946068
 21
17939.5814065987
  0
LINE
  5
2C7
100
AcDbEntity
  8
0
100
AcDbLine
 62
7
  6
CONTINUOUS
 10
12524.0903946068
 20
13489.5814065987
 11
12524.0903946068
 21
17939.5814065987
  0
LINE
  5
2C8
100
AcDbEntity
  8
0
100
AcDbLine
 62
7
  6
CONTINUOUS
 10
12614.0903945258
 20
19229.5814065987
 11
12614.0903945258
 21
20129.5814065987
  0
LINE
  5
2C9
100
AcDbEntity
  8
0
100
AcDbLine
 62
7
  6
CONTINUOUS
 10
12664.0903946438
 20
13639.5814065997
 11
12664.0903946438
 21
13939.5400245539
  0
LINE
  5
2CA
100
AcDbEntity
  8
0
100
AcDbLine
 62
7
  6
CONTINUOUS
 10
12724.0903946742
 20
19284.5814066687
 11
12724.0903946742
 21
19655.8249630787
  0
LINE
  5
2CB
100
AcDbEntity
  8
0
100
AcDbLine
 62
7
  6
CONTINUOUS
 10
12724.0903946742
 20
19693.3378501587
 11
12724.0903946742
 21
20094.5814066387
  0
LINE
  5
2CC
100
AcDbEntity
  8
0
100
AcDbLine
 62
7
  6
CONTINUOUS
 10
12734.0903946372
 20
19655.8249630787
 11
12734.0903946372
 21
19693.3378501587
  0
LINE
  5
2CD
100
AcDbEntity
  8
0
100
AcDbLine
 62
7
  6
CONTINUOUS
 10
12159.0903992064
 20
23430.782011485
 11
12158.7596040096
 21
23387.6255369787
  0
LINE
  5
2CE
100
AcDbEntity
  8
0
100
AcDbLine
 62
7
  6
CONTINUOUS
 10
19222.1345249866
 20
23387.6255369787
 11
19274.0903946066
 21
23439.5814065987
  0
LWPOLYLINE
  5
2CF
100
AcDbEntity
  8
0
100
AcDbPolyline
 62
7
  6
CONTINUOUS
 90
4
 70
0
 10
19222.1345249888
 20
23387.6255369787
 10
19202.9777925846
 20
23368.5243390276
 10
19181.7687642564
 20
23347.272290002
 10
19122.1838761868
 20
23287.6748881787
  0
LINE
  5
2D0
100
AcDbEntity
  8
0
100
AcDbLine
 62
7
  6
CONTINUOUS
 10
18174.0903946069
 20
17589.5814065987
 11
18474.0903946067
 21
17589.5814065987
  0
LINE
  5
2D1
100
AcDbEntity
  8
0
100
AcDbLine
 62
7
  6
CONTINUOUS
 10
18974.0903946069
 20
17589.5814065987
 11
19274.0903946066
 21
17589.5814065987
  0
LINE
  5
2D2
100
AcDbEntity
  8
0
100
AcDbLine
 62
7
  6
CONTINUOUS
 10
12829.0903946888
 20
19474.5814066087
 11
12829.0903946888
 21
19874.5814065387
  0
LINE
  5
2D3
100
AcDbEntity
  8
0
100
AcDbLine
 62
7
  6
CONTINUOUS
 10
12844.0903945308
 20
19944.5814065987
 11
12844.0903945308
 21
20009.5814066387
  0
LINE
  5
2D4
100
AcDbEntity
  8
0
100
AcDbLine
 62
7
  6
CONTINUOUS
 10
12894.0903946311
 20
19612.1314265287
 11
12894.0903946311
 21
19737.0313866487
  0
LINE
  5
2D5
100
AcDbEntity
  8
0
100
AcDbLine
 62
7
  6
CONTINUOUS
 10
12904.0903945846
 20
19634.5814065587
 11
12904.0903945846
 21
19714.5814066387
  0
LINE
  5
2D6
100
AcDbEntity
  8
0
100
AcDbLine
 62
7
  6
CONTINUOUS
 10
12909.0903945768
 20
19874.5814065387
 11
12909.0903945768
 21
19924.5814065894
  0
LINE
  5
2D7
100
AcDbEntity
  8
0
100
AcDbLine
 62
7
  6
CONTINUOUS
 10
12954.0903946068
 20
19364.5814065987
 11
12954.0903946068
 21
19474.5814066087
  0
LINE
  5
2D8
100
AcDbEntity
  8
0
100
AcDbLine
 62
7
  6
CONTINUOUS
 10
12979.0903946868
 20
19924.5814065208
 11
12979.0903946868
 21
19874.5814065387
  0
LINE
  5
2D9
100
AcDbEntity
  8
0
100
AcDbLine
 62
7
  6
CONTINUOUS
 10
12984.0903946268
 20
19714.5814066187
 11
12984.0903946268
 21
19634.5814065587
  0
LINE
  5
2DA
100
AcDbEntity
  8
0
100
AcDbLine
 62
7
  6
CONTINUOUS
 10
13044.0903946068
 20
20009.5814066387
 11
13044.0903946068
 21
19944.5814065987
  0
LINE
  5
2DB
100
AcDbEntity
  8
0
100
AcDbLine
 62
7
  6
CONTINUOUS
 10
13050.3339511568
 20
20094.5814066387
 11
13050.3339511568
 21
20084.5814066687
  0
LINE
  5
2DC
100
AcDbEntity
  8
0
100
AcDbLine
 62
7
  6
CONTINUOUS
 10
13069.0903946468
 20
19474.5814065987
 11
13069.0903946068
 21
19364.5814065987
  0
LINE
  5
2DD
100
AcDbEntity
  8
0
100
AcDbLine
 62
7
  6
CONTINUOUS
 10
13087.8468380462
 20
20084.5814066687
 11
13087.8468380462
 21
20094.5814066387
  0
LINE
  5
2DE
100
AcDbEntity
  8
0
100
AcDbLine
 62
7
  6
CONTINUOUS
 10
13094.0903946068
 20
19944.5814065987
 11
13094.0903946068
 21
20009.5814065987
  0
LINE
  5
2DF
100
AcDbEntity
  8
0
100
AcDbLine
 62
7
  6
CONTINUOUS
 10
13154.0903945826
 20
19634.5814065787
 11
13154.0903945826
 21
19714.5814066187
  0
LINE
  5
2E0
100
AcDbEntity
  8
0
100
AcDbLine
 62
7
  6
CONTINUOUS
 10
13159.0903945768
 20
19874.5814065387
 11
13159.0903945768
 21
19924.5814066006
  0
LINE
  5
2E1
100
AcDbEntity
  8
0
100
AcDbLine
 62
7
  6
CONTINUOUS
 10
13229.0903946868
 20
19924.5814065208
 11
13229.0903946868
 21
19874.5814065387
  0
LINE
  5
2E2
100
AcDbEntity
  8
0
100
AcDbLine
 62
7
  6
CONTINUOUS
 10
13234.0903946268
 20
19714.5814066187
 11
13234.0903946268
 21
19634.5814065587
  0
LINE
  5
2E3
100
AcDbEntity
  8
0
100
AcDbLine
 62
7
  6
CONTINUOUS
 10
13294.0903946068
 20
20009.5814065987
 11
13294.0903946068
 21
19944.5814065987
  0
LINE
  5
2E4
100
AcDbEntity
  8
0
100
AcDbLine
 62
7
  6
CONTINUOUS
 10
13300.3339511568
 20
20094.5814066387
 11
13300.3339511568
 21
20084.5814066687
  0
LINE
  5
2E5
100
AcDbEntity
  8
0
100
AcDbLine
 62
7
  6
CONTINUOUS
 10
13337.8468380462
 20
20084.5814066687
 11
13337.8468380462
 21
20094.5814066387
  0
LINE
  5
2E6
100
AcDbEntity
  8
0
100
AcDbLine
 62
7
  6
CONTINUOUS
 10
13344.0903946068
 20
19944.5814065987
 11
13344.0903946068
 21
20009.5814065987
  0
LINE
  5
2E7
100
AcDbEntity
  8
0
100
AcDbLine
 62
7
  6
CONTINUOUS
 10
13404.0903945826
 20
19634.5814065587
 11
13404.0903945826
 21
19714.5814066387
  0
LINE
  5
2E8
100
AcDbEntity
  8
0
100
AcDbLine
 62
7
  6
CONTINUOUS
 10
13409.0903945768
 20
19874.5814065387
 11
13409.0903945768
 21
19924.5814066006
  0
LINE
  5
2E9
100
AcDbEntity
  8
0
100
AcDbLine
 62
7
  6
CONTINUOUS
 10
13479.0903946868
 20
19924.5814065208
 11
13479.0903946868
 21
19874.5814065387
  0
LINE
  5
2EA
100
AcDbEntity
  8
0
100
AcDbLine
 62
7
  6
CONTINUOUS
 10
13484.0903946268
 20
19714.5814066187
 11
13484.0903946268
 21
19634.5814065587
  0
LINE
  5
2EB
100
AcDbEntity
  8
0
100
AcDbLine
 62
7
  6
CONTINUOUS
 10
13544.0903946068
 20
20009.5814065987
 11
13544.0903946068
 21
19944.5814065987
  0
LINE
  5
2EC
100
AcDbEntity
  8
0
100
AcDbLine
 62
7
  6
CONTINUOUS
 10
13550.3339511568
 20
20094.5814066387
 11
13550.3339511568
 21
20084.5814066687
  0
LINE
  5
2ED
100
AcDbEntity
  8
0
100
AcDbLine
 62
7
  6
CONTINUOUS
 10
19274.0903946166
 20
17889.5814065987
 11
18974.0903945969
 21
17889.5814065987
  0
LINE
  5
2EE
100
AcDbEntity
  8
0
100
AcDbLine
 62
7
  6
CONTINUOUS
 10
18474.0903946166
 20
17889.5814065987
 11
18174.0903945969
 21
17889.5814065987
  0
LINE
  5
2EF
100
AcDbEntity
  8
0
100
AcDbLine
 62
7
  6
CONTINUOUS
 10
12674.090394607
 20
18089.5814065987
 11
15974.090394606
 21
18089.5814065987
  0
LINE
  5
2F0
100
AcDbEntity
  8
0
100
AcDbLine
 62
7
  6
CONTINUOUS
 10
12674.0903946068
 20
18139.5814065987
 11
15974.0903946068
 21
18139.5814065987
  0
LINE
  5
2F1
100
AcDbEntity
  8
0
100
AcDbLine
 62
7
  6
CONTINUOUS
 10
13587.8468380462
 20
20084.5814066687
 11
13587.8468380462
 21
20094.5814066387
  0
LINE
  5
2F2
100
AcDbEntity
  8
0
100
AcDbLine
 62
7
  6
CONTINUOUS
 10
13594.0903946068
 20
19944.5814065987
 11
13594.0903946068
 21
20009.5814065987
  0
LINE
  5
2F3
100
AcDbEntity
  8
0
100
AcDbLine
 62
7
  6
CONTINUOUS
 10
13644.0903945268
 20
12239.5814069386
 11
13644.0903945268
 21
12739.5814062587
  0
LINE
  5
2F4
100
AcDbEntity
  8
0
100
AcDbLine
 62
7
  6
CONTINUOUS
 10
13654.0903945826
 20
19634.5814065787
 11
13654.0903945826
 21
19714.5814066387
  0
LINE
  5
2F5
100
AcDbEntity
  8
0
100
AcDbLine
 62
7
  6
CONTINUOUS
 10
13659.0903945768
 20
19874.5814065387
 11
13659.0903945768
 21
19924.5814066006
  0
LINE
  5
2F6
100
AcDbEntity
  8
0
100
AcDbLine
 62
7
  6
CONTINUOUS
 10
13729.0903946868
 20
19924.5814065208
 11
13729.0903946868
 21
19874.5814065387
  0
LINE
  5
2F7
100
AcDbEntity
  8
0
100
AcDbLine
 62
7
  6
CONTINUOUS
 10
13734.0903946268
 20
19714.5814066187
 11
13734.0903946268
 21
19634.5814065787
  0
LINE
  5
2F8
100
AcDbEntity
  8
0
100
AcDbLine
 62
7
  6
CONTINUOUS
 10
13784.0903945668
 20
12239.5814065987
 11
13784.0903945668
 21
12739.5814065987
  0
LINE
  5
2F9
100
AcDbEntity
  8
0
100
AcDbLine
 62
7
  6
CONTINUOUS
 10
13794.0903946068
 20
20009.5814065987
 11
13794.0903946068
 21
19944.5814065987
  0
LINE
  5
2FA
100
AcDbEntity
  8
0
100
AcDbLine
 62
7
  6
CONTINUOUS
 10
13800.3339511568
 20
20094.5814066387
 11
13800.3339511568
 21
20084.5814066687
  0
LINE
  5
2FB
100
AcDbEntity
  8
0
100
AcDbLine
 62
7
  6
CONTINUOUS
 10
13837.8468380462
 20
20084.5814066687
 11
13837.8468380462
 21
20094.5814066387
  0
LINE
  5
2FC
100
AcDbEntity
  8
0
100
AcDbLine
 62
7
  6
CONTINUOUS
 10
13844.0903946068
 20
19944.5814065987
 11
13844.0903946068
 21
20009.5814065987
  0
LINE
  5
2FD
100
AcDbEntity
  8
0
100
AcDbLine
 62
7
  6
CONTINUOUS
 10
13886.5168014998
 20
12739.5814065987
 11
13886.5168014998
 21
12239.5814065987
  0
LINE
  5
2FE
100
AcDbEntity
  8
0
100
AcDbLine
 62
7
  6
CONTINUOUS
 10
13904.0903945826
 20
19634.5814065787
 11
13904.0903945826
 21
19714.5814066187
  0
LINE
  5
2FF
100
AcDbEntity
  8
0
100
AcDbLine
 62
7
  6
CONTINUOUS
 10
13909.0903945768
 20
19874.5814065387
 11
13909.0903945768
 21
19924.5814066006
  0
LINE
  5
300
100
AcDbEntity
  8
0
100
AcDbLine
 62
7
  6
CONTINUOUS
 10
13928.9432082768
 20
12239.5814065987
 11
13928.9432082768
 21
12739.5814065987
  0
LINE
  5
301
100
AcDbEntity
  8
0
100
AcDbLine
 62
7
  6
CONTINUOUS
 10
13979.0903946868
 20
19924.5814065208
 11
13979.0903946868
 21
19874.5814065387
  0
LINE
  5
302
100
AcDbEntity
  8
0
100
AcDbLine
 62
7
  6
CONTINUOUS
 10
13984.0903946268
 20
19714.5814066187
 11
13984.0903946268
 21
19634.5814065587
  0
LINE
  5
303
100
AcDbEntity
  8
0
100
AcDbLine
 62
7
  6
CONTINUOUS
 10
14044.0903946068
 20
20009.5814065987
 11
14044.0903946068
 21
19944.5814065987
  0
LINE
  5
304
100
AcDbEntity
  8
0
100
AcDbLine
 62
7
  6
CONTINUOUS
 10
14050.3339511568
 20
20094.5814066387
 11
14050.3339511568
 21
20084.5814066687
  0
LINE
  5
305
100
AcDbEntity
  8
0
100
AcDbLine
 62
7
  6
CONTINUOUS
 10
14087.8468380462
 20
20084.5814066687
 11
14087.8468380462
 21
20094.5814066387
  0
LINE
  5
306
100
AcDbEntity
  8
0
100
AcDbLine
 62
7
  6
CONTINUOUS
 10
14094.0903946068
 20
19944.5814065987
 11
14094.0903946068
 21
20009.5814065987
  0
LINE
  5
307
100
AcDbEntity
  8
0
100
AcDbLine
 62
7
  6
CONTINUOUS
 10
14154.0903945826
 20
19634.5814065787
 11
14154.0903945826
 21
19714.5814066187
  0
LINE
  5
308
100
AcDbEntity
  8
0
100
AcDbLine
 62
7
  6
CONTINUOUS
 10
14159.0903945768
 20
19874.5814065387
 11
14159.0903945768
 21
19924.5814066006
  0
LINE
  5
309
100
AcDbEntity
  8
0
100
AcDbLine
 62
7
  6
CONTINUOUS
 10
14229.0903946868
 20
19924.5814065208
 11
14229.0903946868
 21
19874.5814065387
  0
LINE
  5
30A
100
AcDbEntity
  8
0
100
AcDbLine
 62
7
  6
CONTINUOUS
 10
14234.0903946268
 20
19714.5814066187
 11
14234.0903946268
 21
19634.5814065587
  0
LINE
  5
30B
100
AcDbEntity
  8
0
100
AcDbLine
 62
7
  6
CONTINUOUS
 10
14294.0903946068
 20
20009.5814065987
 11
14294.0903946068
 21
19944.5814065987
  0
LINE
  5
30C
100
AcDbEntity
  8
0
100
AcDbLine
 62
7
  6
CONTINUOUS
 10
14300.3339511568
 20
20094.5814066387
 11
14300.3339511568
 21
20084.5814066687
  0
LINE
  5
30D
100
AcDbEntity
  8
0
100
AcDbLine
 62
7
  6
CONTINUOUS
 10
14319.2375809368
 20
12739.5814065987
 11
14319.2375809368
 21
12239.5814065987
  0
LINE
  5
30E
100
AcDbEntity
  8
0
100
AcDbLine
 62
7
  6
CONTINUOUS
 10
20719.0903946321
 20
18889.5814065987
 11
20419.1317769416
 21
18889.5814065987
  0
LINE
  5
30F
100
AcDbEntity
  8
0
100
AcDbLine
 62
7
  6
CONTINUOUS
 10
16424.0965027782
 20
18943.911176424
 11
12624.090394571
 21
18943.9111766933
  0
LINE
  5
310
100
AcDbEntity
  8
0
100
AcDbLine
 62
7
  6
CONTINUOUS
 10
18174.0903945969
 20
19089.5814065987
 11
18474.0903946166
 21
19089.5814065987
  0
LINE
  5
311
100
AcDbEntity
  8
0
100
AcDbLine
 62
7
  6
CONTINUOUS
 10
18974.0903945969
 20
19089.5814065987
 11
19274.0903946166
 21
19089.5814065987
  0
LINE
  5
312
100
AcDbEntity
  8
0
100
AcDbLine
 62
7
  6
CONTINUOUS
 10
14724.0903946668
 20
19179.5814065987
 11
12664.0903945357
 21
19179.5814065987
  0
LINE
  5
313
100
AcDbEntity
  8
0
100
AcDbLine
 62
7
  6
CONTINUOUS
 10
3304.0903946467
 20
19239.5814065987
 11
10504.0903946767
 21
19239.5814065987
  0
LINE
  5
314
100
AcDbEntity
  8
0
100
AcDbLine
 62
7
  6
CONTINUOUS
 10
10504.0903946769
 20
19269.5814065987
 11
3204.0903946767
 21
19269.5814065987
  0
LINE
  5
315
100
AcDbEntity
  8
0
100
AcDbLine
 62
7
  6
CONTINUOUS
 10
14664.0903945232
 20
19284.5814066687
 11
12724.0903946742
 21
19284.5814066687
  0
LINE
  5
316
100
AcDbEntity
  8
0
100
AcDbLine
 62
7
  6
CONTINUOUS
 10
20824.3371505994
 20
10739.5814065987
 11
20772.3812809741
 21
10791.537276224
  0
LINE
  5
317
100
AcDbEntity
  8
0
100
AcDbLine
 62
7
  6
CONTINUOUS
 10
19386.0525966817
 20
10785.2347033599
 11
19424.090394639
 21
10739.5814065987
  0
LINE
  5
318
100
AcDbEntity
  8
0
100
AcDbLine
 62
7
  6
CONTINUOUS
 10
14337.8468380462
 20
20084.5814066687
 11
14337.8468380462
 21
20094.5814066387
  0
LINE
  5
319
100
AcDbEntity
  8
0
100
AcDbLine
 62
7
  6
CONTINUOUS
 10
14344.0903946068
 20
19944.5814065987
 11
14344.0903946068
 21
20009.5814065987
  0
LINE
  5
31A
100
AcDbEntity
  8
0
100
AcDbLine
 62
7
  6
CONTINUOUS
 10
14361.6639877168
 20
12239.5814065987
 11
14361.6639877168
 21
12739.5814065987
  0
LINE
  5
31B
100
AcDbEntity
  8
0
100
AcDbLine
 62
7
  6
CONTINUOUS
 10
14404.0903945826
 20
19634.5814065787
 11
14404.0903945826
 21
19714.5814066387
  0
LINE
  5
31C
100
AcDbEntity
  8
0
100
AcDbLine
 62
7
  6
CONTINUOUS
 10
14409.0903945768
 20
19874.5814065387
 11
14409.0903945768
 21
19924.5814066006
  0
LINE
  5
31D
100
AcDbEntity
  8
0
100
AcDbLine
 62
7
  6
CONTINUOUS
 10
14454.0903946068
 20
19364.5814065987
 11
14454.0903946068
 21
19474.5814065987
  0
LINE
  5
31E
100
AcDbEntity
  8
0
100
AcDbLine
 62
7
  6
CONTINUOUS
 10
14464.0903947198
 20
12239.5814065987
 11
14464.0903947198
 21
12739.5814065987
  0
LINE
  5
31F
100
AcDbEntity
  8
0
100
AcDbLine
 62
7
  6
CONTINUOUS
 10
14479.0903946868
 20
19924.5814065208
 11
14479.0903946868
 21
19874.5814065387
  0
LINE
  5
320
100
AcDbEntity
  8
0
100
AcDbLine
 62
7
  6
CONTINUOUS
 10
14484.0903946268
 20
19714.5814066187
 11
14484.0903946268
 21
19634.5814065787
  0
LINE
  5
321
100
AcDbEntity
  8
0
100
AcDbLine
 62
7
  6
CONTINUOUS
 10
14544.0903946068
 20
20009.5814065987
 11
14544.0903946068
 21
19944.5814065987
  0
LINE
  5
322
100
AcDbEntity
  8
0
100
AcDbLine
 62
7
  6
CONTINUOUS
 10
14559.0903945768
 20
19874.5814065387
 11
14559.0903945768
 21
19364.5814065987
  0
LINE
  5
323
100
AcDbEntity
  8
0
100
AcDbLine
 62
7
  6
CONTINUOUS
 10
14604.0903946768
 20
12739.5814063086
 11
14604.0903946768
 21
12239.5814068888
  0
LINE
  5
324
100
AcDbEntity
  8
0
100
AcDbLine
 62
7
  6
CONTINUOUS
 10
14664.0903945268
 20
20094.5814066387
 11
14664.0903945268
 21
19284.5814066687
  0
LINE
  5
325
100
AcDbEntity
  8
0
100
AcDbLine
 62
7
  6
CONTINUOUS
 10
14774.0903946768
 20
20129.5814064287
 11
14774.0903946768
 21
19229.5814067686
  0
LINE
  5
326
100
AcDbEntity
  8
0
100
AcDbLine
 62
7
  6
CONTINUOUS
 10
14864.0903946468
 20
13939.5400242022
 11
14864.0903946468
 21
13639.6227889834
  0
LINE
  5
327
100
AcDbEntity
  8
0
100
AcDbLine
 62
7
  6
CONTINUOUS
 10
14919.7606242968
 20
20589.5814065294
 11
14919.7606242968
 21
19139.5814066679
  0
LINE
  5
328
100
AcDbEntity
  8
0
100
AcDbLine
 62
7
  6
CONTINUOUS
 10
14984.0903945668
 20
13639.5814066228
 11
14984.0903945668
 21
13939.540024214
  0
LWPOLYLINE
  5
329
100
AcDbEntity
  8
0
100
AcDbPolyline
 62
7
  6
CONTINUOUS
 90
3
 70
0
 10
21172.1838761868
 20
22687.664664364
 10
21253.5078970979
 20
22768.9906744515
 10
21324.0903946107
 20
22839.5814066025
  0
LINE
  5
32A
100
AcDbEntity
  8
0
100
AcDbLine
 62
7
  6
CONTINUOUS
 10
14559.0903945768
 20
19364.5814065987
 11
14454.0903946068
 21
19364.5814065987
  0
LINE
  5
32B
100
AcDbEntity
  8
0
100
AcDbLine
 62
7
  6
CONTINUOUS
 10
13069.0903946068
 20
19364.5814065987
 11
12954.0903946068
 21
19364.5814065987
  0
LINE
  5
32C
100
AcDbEntity
  8
0
100
AcDbLine
 62
7
  6
CONTINUOUS
 10
19424.0903946131
 20
19459.5814065287
 11
17024.0903946005
 21
19459.5814065287
  0
LINE
  5
32D
100
AcDbEntity
  8
0
100
AcDbLine
 62
7
  6
CONTINUOUS
 10
12829.0903946888
 20
19474.5814066087
 11
14559.090394586
 21
19474.5814065987
  0
LINE
  5
32E
100
AcDbEntity
  8
0
100
AcDbLine
 62
7
  6
CONTINUOUS
 10
19424.0903946069
 20
19489.5814065987
 11
17024.0903946067
 21
19489.5814065987
  0
LINE
  5
32F
100
AcDbEntity
  8
0
100
AcDbLine
 62
7
  6
CONTINUOUS
 10
14484.0903946447
 20
19634.5814065787
 11
14404.0903945647
 21
19634.5814065787
  0
LINE
  5
330
100
AcDbEntity
  8
0
100
AcDbLine
 62
7
  6
CONTINUOUS
 10
14234.0903946247
 20
19634.5814065787
 11
14154.0903945647
 21
19634.5814065787
  0
LINE
  5
331
100
AcDbEntity
  8
0
100
AcDbLine
 62
7
  6
CONTINUOUS
 10
13984.0903946247
 20
19634.5814065787
 11
13904.0903945647
 21
19634.5814065787
  0
LINE
  5
332
100
AcDbEntity
  8
0
100
AcDbLine
 62
7
  6
CONTINUOUS
 10
13734.0903946447
 20
19634.5814065787
 11
13654.0903945647
 21
19634.5814065787
  0
LINE
  5
333
100
AcDbEntity
  8
0
100
AcDbLine
 62
7
  6
CONTINUOUS
 10
13484.0903946247
 20
19634.5814065787
 11
13404.0903945847
 21
19634.5814065787
  0
LINE
  5
334
100
AcDbEntity
  8
0
100
AcDbLine
 62
7
  6
CONTINUOUS
 10
13234.0903946247
 20
19634.5814065787
 11
13154.0903945647
 21
19634.5814065787
  0
LINE
  5
335
100
AcDbEntity
  8
0
100
AcDbLine
 62
7
  6
CONTINUOUS
 10
12984.0903946247
 20
19634.5814065787
 11
12904.0903945847
 21
19634.5814065787
  0
LINE
  5
336
100
AcDbEntity
  8
0
100
AcDbLine
 62
7
  6
CONTINUOUS
 10
12724.0903946742
 20
19655.8249630787
 11
12734.0903946372
 21
19655.8249630787
  0
LINE
  5
337
100
AcDbEntity
  8
0
100
AcDbLine
 62
7
  6
CONTINUOUS
 10
12734.0903946372
 20
19693.3378501587
 11
12724.0903946742
 21
19693.3378501587
  0
LINE
  5
338
100
AcDbEntity
  8
0
100
AcDbLine
 62
7
  6
CONTINUOUS
 10
12904.0903945847
 20
19714.5814066187
 11
12984.0903946447
 21
19714.5814066187
  0
LINE
  5
339
100
AcDbEntity
  8
0
100
AcDbLine
 62
7
  6
CONTINUOUS
 10
13154.0903945647
 20
19714.5814066187
 11
13234.0903946447
 21
19714.5814066187
  0
LINE
  5
33A
100
AcDbEntity
  8
0
100
AcDbLine
 62
7
  6
CONTINUOUS
 10
13404.0903945847
 20
19714.5814066187
 11
13484.0903946447
 21
19714.5814066187
  0
LINE
  5
33B
100
AcDbEntity
  8
0
100
AcDbLine
 62
7
  6
CONTINUOUS
 10
13654.0903945847
 20
19714.5814066187
 11
13734.0903946447
 21
19714.5814066187
  0
LINE
  5
33C
100
AcDbEntity
  8
0
100
AcDbLine
 62
7
  6
CONTINUOUS
 10
13904.0903945647
 20
19714.5814066187
 11
13984.0903946447
 21
19714.5814066187
  0
LINE
  5
33D
100
AcDbEntity
  8
0
100
AcDbLine
 62
7
  6
CONTINUOUS
 10
14154.0903945647
 20
19714.5814066187
 11
14234.0903946447
 21
19714.5814066187
  0
LINE
  5
33E
100
AcDbEntity
  8
0
100
AcDbLine
 62
7
  6
CONTINUOUS
 10
14404.0903945847
 20
19714.5814066187
 11
14484.0903946447
 21
19714.5814066187
  0
LINE
  5
33F
100
AcDbEntity
  8
0
100
AcDbLine
 62
7
  6
CONTINUOUS
 10
12829.0903946888
 20
19874.5814065387
 11
12909.0903945768
 21
19874.5814065387
  0
LINE
  5
340
100
AcDbEntity
  8
0
100
AcDbLine
 62
7
  6
CONTINUOUS
 10
12979.0903946868
 20
19874.5814065387
 11
13159.0903945768
 21
19874.5814065387
  0
LINE
  5
341
100
AcDbEntity
  8
0
100
AcDbLine
 62
7
  6
CONTINUOUS
 10
13229.0903946868
 20
19874.5814065387
 11
13409.0903945768
 21
19874.5814065387
  0
LINE
  5
342
100
AcDbEntity
  8
0
100
AcDbLine
 62
7
  6
CONTINUOUS
 10
13479.0903946868
 20
19874.5814065387
 11
13659.0903945768
 21
19874.5814065387
  0
LINE
  5
343
100
AcDbEntity
  8
0
100
AcDbLine
 62
7
  6
CONTINUOUS
 10
13729.0903946868
 20
19874.5814065387
 11
13909.0903945768
 21
19874.5814065387
  0
LINE
  5
344
100
AcDbEntity
  8
0
100
AcDbLine
 62
7
  6
CONTINUOUS
 10
13979.0903946868
 20
19874.5814065387
 11
14159.0903945768
 21
19874.5814065387
  0
LINE
  5
345
100
AcDbEntity
  8
0
100
AcDbLine
 62
7
  6
CONTINUOUS
 10
14229.0903946868
 20
19874.5814065387
 11
14409.0903945768
 21
19874.5814065387
  0
LINE
  5
346
100
AcDbEntity
  8
0
100
AcDbLine
 62
7
  6
CONTINUOUS
 10
14479.0903946868
 20
19874.5814065387
 11
14559.0903945768
 21
19874.5814065387
  0
LINE
  5
347
100
AcDbEntity
  8
0
100
AcDbLine
 62
7
  6
CONTINUOUS
 10
14544.0903946068
 20
19944.5814065987
 11
14499.0903944116
 21
19944.5814065987
  0
LINE
  5
348
100
AcDbEntity
  8
0
100
AcDbLine
 62
7
  6
CONTINUOUS
 10
14389.0903947344
 20
19944.5814065987
 11
14344.0903946068
 21
19944.5814065987
  0
LINE
  5
349
100
AcDbEntity
  8
0
100
AcDbLine
 62
7
  6
CONTINUOUS
 10
14294.0903946068
 20
19944.5814065987
 11
14249.0903944116
 21
19944.5814065987
  0
LINE
  5
34A
100
AcDbEntity
  8
0
100
AcDbLine
 62
7
  6
CONTINUOUS
 10
14139.0903947344
 20
19944.5814065987
 11
14094.0903946068
 21
19944.5814065987
  0
LINE
  5
34B
100
AcDbEntity
  8
0
100
AcDbLine
 62
7
  6
CONTINUOUS
 10
14044.0903946068
 20
19944.5814065987
 11
13999.0903944116
 21
19944.5814065987
  0
LINE
  5
34C
100
AcDbEntity
  8
0
100
AcDbLine
 62
7
  6
CONTINUOUS
 10
13889.0903947644
 20
19944.5814065987
 11
13844.0903946068
 21
19944.5814065987
  0
LINE
  5
34D
100
AcDbEntity
  8
0
100
AcDbLine
 62
7
  6
CONTINUOUS
 10
13794.0903946068
 20
19944.5814065987
 11
13749.0903944116
 21
19944.5814065987
  0
LINE
  5
34E
100
AcDbEntity
  8
0
100
AcDbLine
 62
7
  6
CONTINUOUS
 10
13639.0903947644
 20
19944.5814065987
 11
13594.0903946068
 21
19944.5814065987
  0
LINE
  5
34F
100
AcDbEntity
  8
0
100
AcDbLine
 62
7
  6
CONTINUOUS
 10
13544.0903946068
 20
19944.5814065987
 11
13499.0903944116
 21
19944.5814065987
  0
LINE
  5
350
100
AcDbEntity
  8
0
100
AcDbLine
 62
7
  6
CONTINUOUS
 10
13389.0903947644
 20
19944.5814065987
 11
13344.0903946068
 21
19944.5814065987
  0
LINE
  5
351
100
AcDbEntity
  8
0
100
AcDbLine
 62
7
  6
CONTINUOUS
 10
13294.0903946068
 20
19944.5814065987
 11
13249.0903944116
 21
19944.5814065987
  0
LINE
  5
352
100
AcDbEntity
  8
0
100
AcDbLine
 62
7
  6
CONTINUOUS
 10
13139.0903947644
 20
19944.5814065987
 11
13094.0903946068
 21
19944.5814065987
  0
LINE
  5
353
100
AcDbEntity
  8
0
100
AcDbLine
 62
7
  6
CONTINUOUS
 10
13044.0903946068
 20
19944.5814065987
 11
12999.0903944116
 21
19944.5814065987
  0
LINE
  5
354
100
AcDbEntity
  8
0
100
AcDbLine
 62
7
  6
CONTINUOUS
 10
12889.0903947674
 20
19944.5814065987
 11
12844.0903945308
 21
19944.5814065987
  0
LINE
  5
355
100
AcDbEntity
  8
0
100
AcDbLine
 62
7
  6
CONTINUOUS
 10
12844.0903945308
 20
20009.5814066387
 11
13044.0903946068
 21
20009.5814066387
  0
LINE
  5
356
100
AcDbEntity
  8
0
100
AcDbLine
 62
7
  6
CONTINUOUS
 10
13094.0903946068
 20
20009.5814065987
 11
13294.0903946068
 21
20009.5814065987
  0
LINE
  5
357
100
AcDbEntity
  8
0
100
AcDbLine
 62
7
  6
CONTINUOUS
 10
13344.0903946068
 20
20009.5814065987
 11
13544.0903946068
 21
20009.5814065987
  0
LINE
  5
358
100
AcDbEntity
  8
0
100
AcDbLine
 62
7
  6
CONTINUOUS
 10
13594.0903946068
 20
20009.5814065987
 11
13794.0903946068
 21
20009.5814065987
  0
LINE
  5
359
100
AcDbEntity
  8
0
100
AcDbLine
 62
7
  6
CONTINUOUS
 10
13844.0903946068
 20
20009.5814065987
 11
14044.0903946068
 21
20009.5814065987
  0
LINE
  5
35A
100
AcDbEntity
  8
0
100
AcDbLine
 62
7
  6
CONTINUOUS
 10
14094.0903946068
 20
20009.5814065987
 11
14294.0903946068
 21
20009.5814065987
  0
LINE
  5
35B
100
AcDbEntity
  8
0
100
AcDbLine
 62
7
  6
CONTINUOUS
 10
14344.0903946068
 20
20009.5814065987
 11
14544.0903946068
 21
20009.5814065987
  0
LINE
  5
35C
100
AcDbEntity
  8
0
100
AcDbLine
 62
7
  6
CONTINUOUS
 10
21272.1345249827
 20
11291.2905202301
 11
21324.0903946068
 21
11239.334650606
  0
LINE
  5
35D
100
AcDbEntity
  8
0
100
AcDbLine
 62
7
  6
CONTINUOUS
 10
15724.0903946068
 20
16364.5814065987
 11
15724.0903946068
 21
15064.5814065987
  0
LINE
  5
35E
100
AcDbEntity
  8
0
100
AcDbLine
 62
7
  6
CONTINUOUS
 10
13050.3339511532
 20
20084.5814066687
 11
13087.8468380432
 21
20084.5814066687
  0
LINE
  5
35F
100
AcDbEntity
  8
0
100
AcDbLine
 62
7
  6
CONTINUOUS
 10
13300.3339511532
 20
20084.5814066687
 11
13337.8468380432
 21
20084.5814066687
  0
LINE
  5
360
100
AcDbEntity
  8
0
100
AcDbLine
 62
7
  6
CONTINUOUS
 10
13550.3339511532
 20
20084.5814066687
 11
13587.8468380432
 21
20084.5814066687
  0
LINE
  5
361
100
AcDbEntity
  8
0
100
AcDbLine
 62
7
  6
CONTINUOUS
 10
13800.3339511532
 20
20084.5814066687
 11
13837.8468380432
 21
20084.5814066687
  0
LINE
  5
362
100
AcDbEntity
  8
0
100
AcDbLine
 62
7
  6
CONTINUOUS
 10
14050.3339511532
 20
20084.5814066687
 11
14087.8468380432
 21
20084.5814066687
  0
LINE
  5
363
100
AcDbEntity
  8
0
100
AcDbLine
 62
7
  6
CONTINUOUS
 10
14300.3339511532
 20
20084.5814066687
 11
14337.8468380432
 21
20084.5814066687
  0
LINE
  5
364
100
AcDbEntity
  8
0
100
AcDbLine
 62
7
  6
CONTINUOUS
 10
12724.0903946742
 20
20094.5814066387
 11
13050.3339511532
 21
20094.5814066387
  0
LINE
  5
365
100
AcDbEntity
  8
0
100
AcDbLine
 62
7
  6
CONTINUOUS
 10
13087.8468380432
 20
20094.5814066387
 11
13300.3339511532
 21
20094.5814066387
  0
LINE
  5
366
100
AcDbEntity
  8
0
100
AcDbLine
 62
7
  6
CONTINUOUS
 10
13337.8468380432
 20
20094.5814066387
 11
13550.3339511532
 21
20094.5814066387
  0
LINE
  5
367
100
AcDbEntity
  8
0
100
AcDbLine
 62
7
  6
CONTINUOUS
 10
13587.8468380432
 20
20094.5814066387
 11
13800.3339511532
 21
20094.5814066387
  0
LINE
  5
368
100
AcDbEntity
  8
0
100
AcDbLine
 62
7
  6
CONTINUOUS
 10
13837.8468380432
 20
20094.5814066387
 11
14050.3339511532
 21
20094.5814066387
  0
LINE
  5
369
100
AcDbEntity
  8
0
100
AcDbLine
 62
7
  6
CONTINUOUS
 10
14087.8468380432
 20
20094.5814066387
 11
14300.3339511532
 21
20094.5814066387
  0
LINE
  5
36A
100
AcDbEntity
  8
0
100
AcDbLine
 62
7
  6
CONTINUOUS
 10
14337.8468380432
 20
20094.5814066387
 11
14664.0903945232
 21
20094.5814066387
  0
LINE
  5
36B
100
AcDbEntity
  8
0
100
AcDbLine
 62
7
  6
CONTINUOUS
 10
12664.0903945357
 20
20179.5814065987
 11
14724.0903946668
 21
20179.5814065987
  0
LINE
  5
36C
100
AcDbEntity
  8
0
100
AcDbLine
 62
7
  6
CONTINUOUS
 10
12624.090394108
 20
20785.2516362887
 11
14724.0903946576
 21
20785.2516362887
  0
LINE
  5
36D
100
AcDbEntity
  8
0
100
AcDbLine
 62
7
  6
CONTINUOUS
 10
15941.8419817168
 20
15160.3887842487
 11
15941.8419817168
 21
16268.7740289767
  0
LINE
  5
36E
100
AcDbEntity
  8
0
100
AcDbLine
 62
7
  6
CONTINUOUS
 10
15984.0903945668
 20
13939.540024572
 11
15984.0903945668
 21
13639.6227886136
  0
LINE
  5
36F
100
AcDbEntity
  8
0
100
AcDbLine
 62
7
  6
CONTINUOUS
 10
16044.0903945268
 20
12239.5814069386
 11
16044.0903945268
 21
12739.5814062587
  0
LINE
  5
370
100
AcDbEntity
  8
0
100
AcDbLine
 62
7
  6
CONTINUOUS
 10
16124.0903946068
 20
17939.5814065987
 11
16124.0903946068
 21
16414.5814065987
  0
LINE
  5
371
100
AcDbEntity
  8
0
100
AcDbLine
 62
7
  6
CONTINUOUS
 10
16124.0903946068
 20
15014.5814065987
 11
16124.0903946068
 21
13489.5814065987
  0
LINE
  5
372
100
AcDbEntity
  8
0
100
AcDbLine
 62
7
  6
CONTINUOUS
 10
16166.2164148368
 20
16268.7740289767
 11
16166.2164148368
 21
15160.3887842187
  0
LINE
  5
373
100
AcDbEntity
  8
0
100
AcDbLine
 62
7
  6
CONTINUOUS
 10
16174.0903946068
 20
17939.5814065987
 11
16174.0903946068
 21
16614.5814065987
  0
LINE
  5
374
100
AcDbEntity
  8
0
100
AcDbLine
 62
7
  6
CONTINUOUS
 10
16174.0903946068
 20
14814.5814062587
 11
16174.0903946068
 21
13489.5816244187
  0
LINE
  5
375
100
AcDbEntity
  8
0
100
AcDbLine
 62
7
  6
CONTINUOUS
 10
16184.0903945668
 20
12239.5814065987
 11
16184.0903945668
 21
12739.5814065987
  0
LINE
  5
376
100
AcDbEntity
  8
0
100
AcDbLine
 62
7
  6
CONTINUOUS
 10
16286.5168014998
 20
12739.5814065987
 11
16286.5168014998
 21
12239.5814065987
  0
LINE
  5
377
100
AcDbEntity
  8
0
100
AcDbLine
 62
7
  6
CONTINUOUS
 10
16328.9432082768
 20
12239.5814065987
 11
16328.9432082768
 21
12739.5814065987
  0
LINE
  5
378
100
AcDbEntity
  8
0
100
AcDbLine
 62
7
  6
CONTINUOUS
 10
19034.0903945669
 20
21009.5814065287
 11
19424.0903946067
 21
21009.5814065287
  0
LINE
  5
379
100
AcDbEntity
  8
0
100
AcDbLine
 62
7
  6
CONTINUOUS
 10
19019.0903945268
 20
21039.5814065987
 11
19554.0903946768
 21
21039.5814065987
  0
LINE
  5
37A
100
AcDbEntity
  8
0
100
AcDbLine
 62
7
  6
CONTINUOUS
 10
20419.0903945809
 20
21089.5814065987
 11
20719.0490122602
 21
21089.5814065987
  0
LINE
  5
37B
100
AcDbEntity
  8
0
100
AcDbLine
 62
7
  6
CONTINUOUS
 10
3304.0903946767
 20
21269.5814065987
 11
10504.0903946767
 21
21269.5814065987
  0
LINE
  5
37C
100
AcDbEntity
  8
0
100
AcDbLine
 62
7
  6
CONTINUOUS
 10
3274.0903939092
 20
21299.5814065587
 11
4724.0903939333
 21
21299.5814065587
  0
LINE
  5
37D
100
AcDbEntity
  8
0
100
AcDbLine
 62
7
  6
CONTINUOUS
 10
9374.0904700168
 20
21299.5814065587
 11
10504.0903947082
 21
21299.5814065587
  0
LINE
  5
37E
100
AcDbEntity
  8
0
100
AcDbLine
 62
7
  6
CONTINUOUS
 10
9154.0903946765
 20
21319.5814066687
 11
4954.0903946765
 21
21319.5814066687
  0
LINE
  5
37F
100
AcDbEntity
  8
0
100
AcDbLine
 62
7
  6
CONTINUOUS
 10
19014.0903946468
 20
21439.5814065987
 11
19019.0903945268
 21
21439.5814065987
  0
LINE
  5
380
100
AcDbEntity
  8
0
100
AcDbLine
 62
7
  6
CONTINUOUS
 10
4424.0903945968
 20
21549.5814065587
 11
3124.0903946167
 21
21549.5814065587
  0
LINE
  5
381
100
AcDbEntity
  8
0
100
AcDbLine
 62
7
  6
CONTINUOUS
 10
16626.5736357016
 20
22089.5814065052
 11
16626.5736356919
 21
19148.6425127511
  0
LINE
  5
382
100
AcDbEntity
  8
0
100
AcDbLine
 62
7
  6
CONTINUOUS
 10
16719.2375809368
 20
12739.5814065987
 11
16719.2375809368
 21
12239.5814065987
  0
LINE
  5
383
100
AcDbEntity
  8
0
100
AcDbLine
 62
7
  6
CONTINUOUS
 10
16761.6639877168
 20
12239.5814065987
 11
16761.6639877168
 21
12739.5814065987
  0
LINE
  5
384
100
AcDbEntity
  8
0
100
AcDbLine
 62
7
  6
CONTINUOUS
 10
16774.0903946068
 20
16414.5813311967
 11
16774.0903946068
 21
15014.5814820036
  0
LINE
  5
385
100
AcDbEntity
  8
0
100
AcDbLine
 62
7
  6
CONTINUOUS
 10
16864.0903947098
 20
12239.5814065987
 11
16864.0903947098
 21
12739.5814065987
  0
LINE
  5
386
100
AcDbEntity
  8
0
100
AcDbLine
 62
7
  6
CONTINUOUS
 10
16894.0903945268
 20
19589.5814066553
 11
16894.0903945268
 21
22489.581406542
  0
LINE
  5
387
100
AcDbEntity
  8
0
100
AcDbLine
 62
7
  6
CONTINUOUS
 10
16924.0903946068
 20
19589.5814065987
 11
16924.0903946068
 21
22489.5814065987
  0
LINE
  5
388
100
AcDbEntity
  8
0
100
AcDbLine
 62
7
  6
CONTINUOUS
 10
17004.0903946768
 20
12739.5814063086
 11
17004.0903946768
 21
12239.5814068888
  0
LINE
  5
389
100
AcDbEntity
  8
0
100
AcDbLine
 62
7
  6
CONTINUOUS
 10
4214.0903946466
 20
21649.5814065587
 11
4034.0903945666
 21
21649.5814065587
  0
LINE
  5
38A
100
AcDbEntity
  8
0
100
AcDbLine
 62
7
  6
CONTINUOUS
 10
3664.0903946466
 20
21799.5814065587
 11
3429.0903946766
 21
21799.5814065587
  0
LINE
  5
38B
100
AcDbEntity
  8
0
100
AcDbLine
 62
7
  6
CONTINUOUS
 10
4349.9482589266
 20
21899.5814065587
 11
4229.0903946766
 21
21899.5814065587
  0
LINE
  5
38C
100
AcDbEntity
  8
0
100
AcDbLine
 62
7
  6
CONTINUOUS
 10
4019.0903945366
 20
21899.5814065587
 11
3898.2325302866
 21
21899.5814065587
  0
LINE
  5
38D
100
AcDbEntity
  8
0
100
AcDbLine
 62
7
  6
CONTINUOUS
 10
3429.0903946766
 20
21999.5814065587
 11
3664.0903946466
 21
21999.5814065587
  0
LINE
  5
38E
100
AcDbEntity
  8
0
100
AcDbLine
 62
7
  6
CONTINUOUS
 10
3124.0903946167
 20
22249.5814065587
 11
4424.0903945968
 21
22249.5814065587
  0
LINE
  5
38F
100
AcDbEntity
  8
0
100
AcDbLine
 62
7
  6
CONTINUOUS
 10
12624.0903941176
 20
22292.0646476935
 11
16424.0903945945
 21
22292.0646476838
  0
LINE
  5
390
100
AcDbEntity
  8
0
100
AcDbLine
 62
7
  6
CONTINUOUS
 10
17774.0903946068
 20
13439.5814065987
 11
17774.0903946068
 21
14539.5814065987
  0
LINE
  5
391
100
AcDbEntity
  8
0
100
AcDbLine
 62
7
  6
CONTINUOUS
 10
18124.0903946068
 20
14939.5814065888
 11
18124.0903946068
 21
16039.5814066085
  0
LINE
  5
392
100
AcDbEntity
  8
0
100
AcDbLine
 62
7
  6
CONTINUOUS
 10
18124.0903946068
 20
16439.5814065888
 11
18124.0903946068
 21
17539.5814066085
  0
LINE
  5
393
100
AcDbEntity
  8
0
100
AcDbLine
 62
7
  6
CONTINUOUS
 10
18124.0903946068
 20
17939.5814065888
 11
18124.0903946068
 21
19039.5814066085
  0
LINE
  5
394
100
AcDbEntity
  8
0
100
AcDbLine
 62
7
  6
CONTINUOUS
 10
11959.0903946068
 20
22439.5814065987
 11
9689.0903946664
 21
22439.5814065987
  0
LINE
  5
395
100
AcDbEntity
  8
0
100
AcDbLine
 62
7
  6
CONTINUOUS
 10
17024.0903946067
 20
22589.5814065987
 11
18884.0903945667
 21
22589.5814065987
  0
LINE
  5
396
100
AcDbEntity
  8
0
100
AcDbLine
 62
7
  6
CONTINUOUS
 10
17024.0903946005
 20
22619.5814066687
 11
18884.0903945731
 21
22619.5814066687
  0
LINE
  5
397
100
AcDbEntity
  8
0
100
AcDbLine
 62
7
  6
CONTINUOUS
 10
11474.0903946297
 20
22685.6089417087
 11
10174.1071261302
 21
22685.6089417087
  0
LINE
  5
398
100
AcDbEntity
  8
0
100
AcDbLine
 62
7
  6
CONTINUOUS
 10
2675.9969130168
 20
22687.6655649787
 11
4524.0903946068
 21
22687.6655649787
  0
LINE
  5
399
100
AcDbEntity
  8
0
100
AcDbLine
 62
7
  6
CONTINUOUS
 10
19294.0903946068
 20
22687.6670725487
 11
21172.1838761868
 21
22687.6670725487
  0
LINE
  5
39A
100
AcDbEntity
  8
0
100
AcDbLine
 62
7
  6
CONTINUOUS
 10
5054.0903946765
 20
22719.5814066687
 11
9154.0903946765
 21
22719.5814066687
  0
LINE
  5
39B
100
AcDbEntity
  8
0
100
AcDbLine
 62
7
  6
CONTINUOUS
 10
5024.0903946068
 20
22749.5814065587
 11
9174.0903945973
 21
22749.5814065587
  0
LINE
  5
39C
100
AcDbEntity
  8
0
100
AcDbLine
 62
7
  6
CONTINUOUS
 10
4524.0903946077
 20
22787.6235623887
 11
2576.0462325466
 21
22787.6235623887
  0
LINE
  5
39D
100
AcDbEntity
  8
0
100
AcDbLine
 62
7
  6
CONTINUOUS
 10
21272.1345595105
 20
22787.6255715023
 11
19294.0903946068
 21
22787.6255715023
  0
LINE
  5
39E
100
AcDbEntity
  8
0
100
AcDbLine
 62
7
  6
CONTINUOUS
 10
4524.0903946259
 20
22839.5814066034
 11
2524.0903946051
 21
22839.5814066034
  0
LINE
  5
39F
100
AcDbEntity
  8
0
100
AcDbLine
 62
7
  6
CONTINUOUS
 10
19294.0903946068
 20
22839.5814065987
 11
21324.0903946068
 21
22839.5814065987
  0
LINE
  5
3A0
100
AcDbEntity
  8
0
100
AcDbLine
 62
7
  6
CONTINUOUS
 10
4524.0903946068
 20
22844.7512411687
 11
2529.7588545668
 21
22844.7512411687
  0
LINE
  5
3A1
100
AcDbEntity
  8
0
100
AcDbLine
 62
7
  6
CONTINUOUS
 10
19294.0903946068
 20
22844.7512411706
 11
21329.7588541764
 21
22844.7512411706
  0
LINE
  5
3A2
100
AcDbEntity
  8
0
100
AcDbLine
 62
7
  6
CONTINUOUS
 10
4725.9969130268
 20
22844.7814065987
 11
4524.0903946068
 21
22844.7814065987
  0
LINE
  5
3A3
100
AcDbEntity
  8
0
100
AcDbLine
 62
7
  6
CONTINUOUS
 10
19122.1838762934
 20
22844.7814065987
 11
19294.0903946068
 21
22844.7814065987
  0
LINE
  5
3A4
100
AcDbEntity
  8
0
100
AcDbLine
 62
7
  6
CONTINUOUS
 10
9739.0903946562
 20
22484.1370916899
 11
11909.0903270751
 21
22483.5955742074
  0
LINE
  5
3A5
100
AcDbEntity
  8
0
100
AcDbLine
 62
7
  6
CONTINUOUS
 10
18174.0903946068
 20
14539.5814065987
 11
18174.0903946068
 21
13439.5814065987
  0
LINE
  5
3A6
100
AcDbEntity
  8
0
100
AcDbLine
 62
7
  6
CONTINUOUS
 10
18524.0903946068
 20
19039.5607154302
 11
18524.0903946068
 21
17939.6020977671
  0
LINE
  5
3A7
100
AcDbEntity
  8
0
100
AcDbLine
 62
7
  6
CONTINUOUS
 10
18524.0903946068
 20
17539.5607154282
 11
18524.0903946068
 21
16439.6020977691
  0
LINE
  5
3A8
100
AcDbEntity
  8
0
100
AcDbLine
 62
7
  6
CONTINUOUS
 10
18524.0903946068
 20
16039.5607154282
 11
18524.0903946068
 21
14939.6020977671
  0
LINE
  5
3A9
100
AcDbEntity
  8
0
100
AcDbLine
 62
7
  6
CONTINUOUS
 10
10174.0903946385
 20
23185.3622218987
 11
11474.0736628183
 21
23185.3622218987
  0
LINE
  5
3AA
100
AcDbEntity
  8
0
100
AcDbLine
 62
7
  6
CONTINUOUS
 10
9489.3978552524
 20
23190.7683697551
 11
9539.0903946768
 21
23190.7683697551
  0
LINE
  5
3AB
100
AcDbEntity
  8
0
100
AcDbLine
 62
7
  6
CONTINUOUS
 10
12109.0903946066
 20
23190.7683697541
 11
12158.7829373262
 21
23190.7683697541
  0
LINE
  5
3AC
100
AcDbEntity
  8
0
100
AcDbLine
 62
7
  6
CONTINUOUS
 10
4725.9969130268
 20
23287.6748881787
 11
9489.0896891449
 21
23287.6748881787
  0
LINE
  5
3AD
100
AcDbEntity
  8
0
100
AcDbLine
 62
7
  6
CONTINUOUS
 10
9539.2376421724
 20
23287.6748881787
 11
12108.9431464988
 21
23287.6748881787
  0
LINE
  5
3AE
100
AcDbEntity
  8
0
100
AcDbLine
 62
7
  6
CONTINUOUS
 10
12159.0903946068
 20
23287.6748881787
 11
19122.1838761868
 21
23287.6748881787
  0
LINE
  5
3AF
100
AcDbEntity
  8
0
100
AcDbLine
 62
7
  6
CONTINUOUS
 10
19222.1345249866
 20
23387.6255369787
 11
12158.7596040096
 21
23387.6255369787
  0
LINE
  5
3B0
100
AcDbEntity
  8
0
100
AcDbLine
 62
7
  6
CONTINUOUS
 10
12109.0903946066
 20
23387.6255369787
 11
9539.0903946768
 21
23387.6255369787
  0
LINE
  5
3B1
100
AcDbEntity
  8
0
100
AcDbLine
 62
7
  6
CONTINUOUS
 10
9489.4211888288
 20
23387.6255369787
 11
4626.0462642269
 21
23387.6255369787
  0
LINE
  5
3B2
100
AcDbEntity
  8
0
100
AcDbLine
 62
7
  6
CONTINUOUS
 10
11459.0903946251
 20
23399.4981820314
 11
10189.0903945884
 21
23399.4981820314
  0
LINE
  5
3B3
100
AcDbEntity
  8
0
100
AcDbLine
 62
7
  6
CONTINUOUS
 10
12009.090394616
 20
23432.3831755348
 11
11659.0903946068
 21
23432.3831755348
  0
LINE
  5
3B4
100
AcDbEntity
  8
0
100
AcDbLine
 62
7
  6
CONTINUOUS
 10
9989.0903946068
 20
23432.3831755348
 11
9639.0903946774
 21
23432.3831755348
  0
LINE
  5
3B5
100
AcDbEntity
  8
0
100
AcDbLine
 62
7
  6
CONTINUOUS
 10
9639.0903946774
 20
23433.2956923136
 11
12009.090394616
 21
23433.2956923136
  0
LINE
  5
3B6
100
AcDbEntity
  8
0
100
AcDbLine
 62
7
  6
CONTINUOUS
 10
19274.0903946066
 20
23439.5814065987
 11
4574.090394607
 21
23439.5814065987
  0
LINE
  5
3B7
100
AcDbEntity
  8
0
100
AcDbLine
 62
7
  6
CONTINUOUS
 10
19279.7588545668
 20
23444.7814065987
 11
4579.7588545668
 21
23444.7814065987
  0
LINE
  5
3B8
100
AcDbEntity
  8
0
100
AcDbLine
 62
7
  6
CONTINUOUS
 10
18924.0903946068
 20
11049.5814065587
 11
18924.0903946068
 21
10779.5814066387
  0
LINE
  5
3B9
100
AcDbEntity
  8
0
100
AcDbLine
 62
7
  6
CONTINUOUS
 10
18924.0903946068
 20
13439.5814065888
 11
18924.0903946068
 21
14539.5814066085
  0
LINE
  5
3BA
100
AcDbEntity
  8
0
100
AcDbLine
 62
7
  6
CONTINUOUS
 10
18924.0903946068
 20
14939.5814065888
 11
18924.0903946068
 21
16039.5814066085
  0
LINE
  5
3BB
100
AcDbEntity
  8
0
100
AcDbLine
 62
7
  6
CONTINUOUS
 10
18924.0903946068
 20
16439.5814065888
 11
18924.0903946068
 21
17539.5814066085
  0
LINE
  5
3BC
100
AcDbEntity
  8
0
100
AcDbLine
 62
7
  6
CONTINUOUS
 10
18924.0903946068
 20
17939.5814065888
 11
18924.0903946068
 21
19039.5814066085
  0
LINE
  5
3BD
100
AcDbEntity
  8
0
100
AcDbLine
 62
7
  6
CONTINUOUS
 10
18954.0903946768
 20
11079.5814063486
 11
18954.0903946768
 21
10749.5814068488
  0
LINE
  5
3BE
100
AcDbEntity
  8
0
100
AcDbLine
 62
7
  6
CONTINUOUS
 10
18984.0903945672
 20
22489.5814065987
 11
18984.0903945672
 21
21059.5814065287
  0
LINE
  5
3BF
100
AcDbEntity
  8
0
100
AcDbLine
 62
7
  6
CONTINUOUS
 10
19014.0903946468
 20
22489.581406265
 11
19014.0903946468
 21
21439.5814065987
  0
LINE
  5
3C0
100
AcDbEntity
  8
0
100
AcDbLine
 62
7
  6
CONTINUOUS
 10
19019.0903945268
 20
21439.5814065987
 11
19019.0903945268
 21
21039.5814065987
  0
LINE
  5
3C1
100
AcDbEntity
  8
0
100
AcDbLine
 62
7
  6
CONTINUOUS
 10
19122.1838761868
 20
23287.6748881787
 11
19122.1838761868
 21
22844.7814065987
  0
LINE
  5
3C2
100
AcDbEntity
  8
0
100
AcDbLine
 62
7
  6
CONTINUOUS
 10
19222.1345249852
 20
22844.7814065987
 11
19222.1345249852
 21
23387.625536977
  0
LINE
  5
3C3
100
AcDbEntity
  8
0
100
AcDbLine
 62
7
  6
CONTINUOUS
 10
19234.0903946068
 20
10891.4879249169
 11
19234.0903946068
 21
10388.2956923078
  0
LINE
  5
3C4
100
AcDbEntity
  8
0
100
AcDbLine
 62
7
  6
CONTINUOUS
 10
19274.0903946074
 20
22844.7814065987
 11
19274.0903946074
 21
23439.5814065978
  0
LINE
  5
3C5
100
AcDbEntity
  8
0
100
AcDbLine
 62
7
  6
CONTINUOUS
 10
19279.7588545668
 20
22844.7814065987
 11
19279.7588545668
 21
23444.7814065987
  0
LINE
  5
3C6
100
AcDbEntity
  8
0
100
AcDbLine
 62
7
  6
CONTINUOUS
 10
19294.0903946068
 20
22687.6670725487
 11
19294.0903946068
 21
22844.7814065987
  0
LINE
  5
3C7
100
AcDbEntity
  8
0
100
AcDbLine
 62
7
  6
CONTINUOUS
 10
19324.0903946068
 20
19039.5607154302
 11
19324.0903946068
 21
17939.6020977671
  0
LINE
  5
3C8
100
AcDbEntity
  8
0
100
AcDbLine
 62
7
  6
CONTINUOUS
 10
19324.0903946068
 20
17539.5607154282
 11
19324.0903946068
 21
16439.6020977691
  0
LINE
  5
3C9
100
AcDbEntity
  8
0
100
AcDbLine
 62
7
  6
CONTINUOUS
 10
19324.0903946068
 20
16039.5607154282
 11
19324.0903946068
 21
14939.6020977671
  0
LINE
  5
3CA
100
AcDbEntity
  8
0
100
AcDbLine
 62
7
  6
CONTINUOUS
 10
19324.0903946068
 20
14539.5607154302
 11
19324.0903946068
 21
13439.6020977671
  0
LINE
  5
3CB
100
AcDbEntity
  8
0
100
AcDbLine
 62
7
  6
CONTINUOUS
 10
19524.0903946072
 20
20909.5814065287
 11
19524.0903946072
 21
19589.5814065987
  0
LINE
  5
3CC
100
AcDbEntity
  8
0
100
AcDbLine
 62
7
  6
CONTINUOUS
 10
19554.0903946768
 20
21039.5814065987
 11
19554.0903946768
 21
19589.5814069324
  0
LINE
  5
3CD
100
AcDbEntity
  8
0
100
AcDbLine
 62
7
  6
CONTINUOUS
 10
20319.0903946068
 20
15414.581406573
 11
20319.0903946068
 21
16614.5400242598
  0
LINE
  5
3CE
100
AcDbEntity
  8
0
100
AcDbLine
 62
7
  6
CONTINUOUS
 10
20319.0903946068
 20
18989.581406573
 11
20319.0903946068
 21
20989.5400242638
  0
LINE
  5
3CF
100
AcDbEntity
  8
0
100
AcDbLine
 62
7
  6
CONTINUOUS
 10
20819.0903946068
 20
20989.540024252
 11
20819.0903946068
 21
18989.6227889335
  0
LINE
  5
3D0
100
AcDbEntity
  8
0
100
AcDbLine
 62
7
  6
CONTINUOUS
 10
20819.0903946068
 20
16614.540024248
 11
20819.0903946068
 21
15414.6227889335
  0
LINE
  5
3D1
100
AcDbEntity
  8
0
100
AcDbLine
 62
7
  6
CONTINUOUS
 10
21172.1838761868
 20
22687.6670725487
 11
21172.1838761868
 21
10998.5191272574
  0
LINE
  5
3D2
100
AcDbEntity
  8
0
100
AcDbLine
 62
7
  6
CONTINUOUS
 10
21272.1345249827
 20
11291.2905202301
 11
21272.1345249827
 21
22787.6255369785
  0
LINE
  5
3D3
100
AcDbEntity
  8
0
100
AcDbLine
 62
7
  6
CONTINUOUS
 10
21324.0903946068
 20
11239.334650606
 11
21324.0903946068
 21
22839.5814066026
  0
LINE
  5
3D4
100
AcDbEntity
  8
0
100
AcDbLine
 62
7
  6
CONTINUOUS
 10
21329.7588545668
 20
12232.2102670087
 11
21329.7588545668
 21
22844.7512411687
  0
ARC
  5
3D5
100
AcDbEntity
  8
0
100
AcDbCircle
 62
7
  6
CONTINUOUS
 10
5894.0904701769
 20
11189.5813309487
 40
100.000075649
100
AcDbArc
 50
90.0000434499
 51
179.9999566305
  0
ARC
  5
3D6
100
AcDbEntity
  8
0
100
AcDbCircle
 62
7
  6
CONTINUOUS
 10
5894.0904701569
 20
10779.5814822587
 40
100.000075624
100
AcDbArc
 50
180.000043361
 51
269.9999567758
  0
ARC
  5
3D7
100
AcDbEntity
  8
0
100
AcDbCircle
 62
7
  6
CONTINUOUS
 10
5324.0904699829
 20
13189.5814819887
 40
100.000075388
100
AcDbArc
 50
180.0000428173
 51
270.0000000079
  0
ARC
  5
3D8
100
AcDbEntity
  8
0
100
AcDbCircle
 62
7
  6
CONTINUOUS
 10
6724.0903192129
 20
13189.5814819887
 40
100.000075387
100
AcDbArc
 50
270.0000428141
 51
360.0
  0
ARC
  5
3D9
100
AcDbEntity
  8
0
100
AcDbCircle
 62
7
  6
CONTINUOUS
 10
5864.0903946465
 20
11219.5814066787
 40
99.9999999981
100
AcDbArc
 50
90.0000000287
 51
179.9999999769
  0
ARC
  5
3DA
100
AcDbEntity
  8
0
100
AcDbCircle
 62
7
  6
CONTINUOUS
 10
5864.0903946465
 20
10749.5814065587
 40
99.9999999981
100
AcDbArc
 50
180.0000000231
 51
269.9999999999
  0
ARC
  5
3DB
100
AcDbEntity
  8
0
100
AcDbCircle
 62
7
  6
CONTINUOUS
 10
3204.0903946965
 20
15839.5814066167
 40
130.000000093
100
AcDbArc
 50
180.0000000162
 51
269.9999999774
  0
ARC
  5
3DC
100
AcDbEntity
  8
0
100
AcDbCircle
 62
7
  6
CONTINUOUS
 10
6116.4340646161
 20
14424.2227528287
 40
108.54983503
100
AcDbArc
 50
211.5492111832
 51
234.1125940561
  0
ARC
  5
3DD
100
AcDbEntity
  8
0
100
AcDbCircle
 62
7
  6
CONTINUOUS
 10
4472.972579658
 20
13688.4635928799
 40
101.1178139651
100
AcDbArc
 50
359.9865306761
 51
59.631541469
  0
ARC
  5
3DE
100
AcDbEntity
  8
0
100
AcDbCircle
 62
7
  6
CONTINUOUS
 10
6394.0904702269
 20
14699.5814822587
 40
100.000075694
100
AcDbArc
 50
180.0000435838
 51
269.9999565358
  0
ARC
  5
3DF
100
AcDbEntity
  8
0
100
AcDbCircle
 62
7
  6
CONTINUOUS
 10
6724.0903192129
 20
14189.5813312087
 40
100.000075387
100
AcDbArc
 50
0.0
 51
90.0000000121
  0
ARC
  5
3E0
100
AcDbEntity
  8
0
100
AcDbCircle
 62
7
  6
CONTINUOUS
 10
5324.0904699844
 20
14189.5813312087
 40
100.000075388
100
AcDbArc
 50
90.000042817
 51
179.9999568047
  0
ARC
  5
3E1
100
AcDbEntity
  8
0
100
AcDbCircle
 62
7
  6
CONTINUOUS
 10
3204.0904699969
 20
15839.5814819187
 40
100.00007532
100
AcDbArc
 50
180.0000429548
 51
269.9999568048
  0
ARC
  5
3E2
100
AcDbEntity
  8
0
100
AcDbCircle
 62
7
  6
CONTINUOUS
 10
5909.0903945661
 20
15364.5814065987
 40
99.9999999981
100
AcDbArc
 50
0.0
 51
90.000000005
  0
ARC
  5
3E3
100
AcDbEntity
  8
0
100
AcDbCircle
 62
7
  6
CONTINUOUS
 10
4139.0903946361
 20
15364.5814065987
 40
99.9999999981
100
AcDbArc
 50
89.9999999942
 51
179.9999999769
  0
ARC
  5
3E4
100
AcDbEntity
  8
0
100
AcDbCircle
 62
7
  6
CONTINUOUS
 10
4139.0903946361
 20
14364.5814065987
 40
99.9999999981
100
AcDbArc
 50
180.0000000231
 51
270.0000000058
  0
ARC
  5
3E5
100
AcDbEntity
  8
0
100
AcDbCircle
 62
7
  6
CONTINUOUS
 10
6364.0903943265
 20
14669.5814063487
 40
99.9999996801
100
AcDbArc
 50
180.0000000003
 51
269.9999999999
  0
ARC
  5
3E6
100
AcDbEntity
  8
0
100
AcDbCircle
 62
7
  6
CONTINUOUS
 10
6109.0187171461
 20
14419.8225857787
 40
99.9283242558
100
AcDbArc
 50
180.0000104156
 51
211.623837651
  0
ARC
  5
3E7
100
AcDbEntity
  8
0
100
AcDbCircle
 62
7
  6
CONTINUOUS
 10
6110.8258060561
 20
14415.9962134387
 40
98.5978001834
100
AcDbArc
 50
233.9506368426
 51
267.4680486365
  0
ARC
  5
3E8
100
AcDbEntity
  8
0
100
AcDbCircle
 62
7
  6
CONTINUOUS
 10
4534.3440375333
 20
13749.8350495452
 40
91.702226917
100
AcDbArc
 50
359.9890889716
 51
90.0070462194
  0
ARC
  5
3E9
100
AcDbEntity
  8
0
100
AcDbCircle
 62
7
  6
CONTINUOUS
 10
5143.7573763761
 20
14214.5337806187
 40
50.0476262341
100
AcDbArc
 50
69.3818293127
 51
89.9942420064
  0
ARC
  5
3EA
100
AcDbEntity
  8
0
100
AcDbCircle
 62
7
  6
CONTINUOUS
 10
6574.1023764306
 20
14034.5694246987
 40
30.0119842951
100
AcDbArc
 50
90.0228744937
 51
179.9999830005
  0
ARC
  5
3EB
100
AcDbEntity
  8
0
100
AcDbCircle
 62
7
  6
CONTINUOUS
 10
6574.1023763806
 20
13344.5933884487
 40
30.0119842388
100
AcDbArc
 50
180.0228744127
 51
269.9999830379
  0
ARC
  5
3EC
100
AcDbEntity
  8
0
100
AcDbCircle
 62
7
  6
CONTINUOUS
 10
5474.0784128306
 20
14034.5694247487
 40
30.0119842388
100
AcDbArc
 50
0.0000170144
 51
89.999983038
  0
ARC
  5
3ED
100
AcDbEntity
  8
0
100
AcDbCircle
 62
7
  6
CONTINUOUS
 10
5534.0903946084
 20
13374.5814065987
 40
30.0
100
AcDbArc
 50
89.999999998
 51
180.0237159047
  0
ARC
  5
3EE
100
AcDbEntity
  8
0
100
AcDbCircle
 62
7
  6
CONTINUOUS
 10
5474.0903946084
 20
13344.5814065987
 40
30.0
100
AcDbArc
 50
270.0000000235
 51
0.0228667358
  0
ARC
  5
3EF
100
AcDbEntity
  8
0
100
AcDbCircle
 62
7
  6
CONTINUOUS
 10
6514.0903947584
 20
13374.5814068587
 40
29.9999997768
100
AcDbArc
 50
359.9762836008
 51
90.0237164095
  0
ARC
  5
3F0
100
AcDbEntity
  8
0
100
AcDbCircle
 62
7
  6
CONTINUOUS
 10
5534.0903944584
 20
14004.5814063387
 40
29.9999997768
100
AcDbArc
 50
179.9999994299
 51
270.0237163984
  0
ARC
  5
3F1
100
AcDbEntity
  8
0
100
AcDbCircle
 62
7
  6
CONTINUOUS
 10
6514.0903947584
 20
14004.5814063387
 40
29.9999997768
100
AcDbArc
 50
269.9999997851
 51
0.0237164014
  0
ARC
  5
3F2
100
AcDbEntity
  8
0
100
AcDbCircle
 62
7
  6
CONTINUOUS
 10
8274.0904700269
 20
11299.5814819887
 40
100.000075422
100
AcDbArc
 50
180.0000432235
 51
269.9999566962
  0
ARC
  5
3F3
100
AcDbEntity
  8
0
100
AcDbCircle
 62
7
  6
CONTINUOUS
 10
8044.0903192465
 20
11279.5814819187
 40
100.000075284
100
AcDbArc
 50
270.0000427752
 51
359.9999999886
  0
ARC
  5
3F4
100
AcDbEntity
  8
0
100
AcDbCircle
 62
7
  6
CONTINUOUS
 10
7674.0906878365
 20
11229.5816998687
 40
50.0002932305
100
AcDbArc
 50
180.0003360128
 51
269.9996639875
  0
ARC
  5
3F5
100
AcDbEntity
  8
0
100
AcDbCircle
 62
7
  6
CONTINUOUS
 10
7544.0901014369
 20
11239.5811134987
 40
50.0002930999
100
AcDbArc
 50
0.000335861
 51
89.9996639112
  0
ARC
  5
3F6
100
AcDbEntity
  8
0
100
AcDbCircle
 62
7
  6
CONTINUOUS
 10
7574.0903944465
 20
11269.5814065187
 40
50.000000158
100
AcDbArc
 50
0.0
 51
89.9999997706
  0
ARC
  5
3F7
100
AcDbEntity
  8
0
100
AcDbCircle
 62
7
  6
CONTINUOUS
 10
7644.0903946869
 20
11199.5814067187
 40
50.000000158
100
AcDbArc
 50
180.0000002634
 51
270.0000000108
  0
CIRCLE
  5
3F8
100
AcDbEntity
  8
0
100
AcDbCircle
 62
7
  6
CONTINUOUS
 10
8324.0903946057
 20
14389.5814065987
 40
150.0
  0
CIRCLE
  5
3F9
100
AcDbEntity
  8
0
100
AcDbCircle
 62
7
  6
CONTINUOUS
 10
11174.090394591
 20
13539.5814066287
 40
149.999951185
  0
ARC
  5
3FA
100
AcDbEntity
  8
0
100
AcDbCircle
 62
7
  6
CONTINUOUS
 10
10504.0903944765
 20
15839.5814066167
 40
130.000000093
100
AcDbArc
 50
270.0000001021
 51
359.9999999917
  0
CIRCLE
  5
3FB
100
AcDbEntity
  8
0
100
AcDbCircle
 62
7
  6
CONTINUOUS
 10
8549.0903946057
 20
13999.8699748087
 40
125.0
  0
CIRCLE
  5
3FC
100
AcDbEntity
  8
0
100
AcDbCircle
 62
7
  6
CONTINUOUS
 10
8774.0903946057
 20
14389.5814065987
 40
125.0
  0
CIRCLE
  5
3FD
100
AcDbEntity
  8
0
100
AcDbCircle
 62
7
  6
CONTINUOUS
 10
8549.0903946057
 20
14779.2928383887
 40
125.0
  0
CIRCLE
  5
3FE
100
AcDbEntity
  8
0
100
AcDbCircle
 62
7
  6
CONTINUOUS
 10
8099.0903946057
 20
14779.2928383887
 40
125.0
  0
CIRCLE
  5
3FF
100
AcDbEntity
  8
0
100
AcDbCircle
 62
7
  6
CONTINUOUS
 10
7874.0903946057
 20
14389.5814065987
 40
125.0
  0
CIRCLE
  5
400
100
AcDbEntity
  8
0
100
AcDbCircle
 62
7
  6
CONTINUOUS
 10
8099.0903946057
 20
13999.8699748087
 40
125.0
  0
ARC
  5
401
100
AcDbEntity
  8
0
100
AcDbCircle
 62
7
  6
CONTINUOUS
 10
10504.0903190369
 20
15839.5814822477
 40
100.000075649
100
AcDbArc
 50
270.0000433383
 51
359.9999564305
  0
ARC
  5
402
100
AcDbEntity
  8
0
100
AcDbCircle
 62
7
  6
CONTINUOUS
 10
7644.0903190369
 20
14699.5814820587
 40
100.000075496
100
AcDbArc
 50
270.0000434011
 51
359.9999569528
  0
ARC
  5
403
100
AcDbEntity
  8
0
100
AcDbCircle
 62
7
  6
CONTINUOUS
 10
7644.0903192469
 20
15299.5813312787
 40
100.000075285
100
AcDbArc
 50
0.0000429412
 51
89.999956922
  0
ARC
  5
404
100
AcDbEntity
  8
0
100
AcDbCircle
 62
7
  6
CONTINUOUS
 10
7674.0903942865
 20
15329.5814063187
 40
100.000000316
100
AcDbArc
 50
0.0
 51
90.0000000113
  0
ARC
  5
405
100
AcDbEntity
  8
0
100
AcDbCircle
 62
7
  6
CONTINUOUS
 10
7674.0903946065
 20
14669.5814066687
 40
99.9999999981
100
AcDbArc
 50
269.9999999947
 51
360.0
  0
ARC
  5
406
100
AcDbEntity
  8
0
100
AcDbCircle
 62
7
  6
CONTINUOUS
 10
3204.0904699269
 20
19369.5814819187
 40
100.00007525
100
AcDbArc
 50
180.0000429548
 51
269.9999570448
  0
ARC
  5
407
100
AcDbEntity
  8
0
100
AcDbCircle
 62
7
  6
CONTINUOUS
 10
4724.0903190365
 20
21399.5814821287
 40
100.000075566
100
AcDbArc
 50
270.0000429127
 51
360.0
  0
ARC
  5
408
100
AcDbEntity
  8
0
100
AcDbCircle
 62
7
  6
CONTINUOUS
 10
4954.0904699265
 20
21419.5814819187
 40
100.00007525
100
AcDbArc
 50
180.0000427446
 51
270.0000000002
  0
ARC
  5
409
100
AcDbEntity
  8
0
100
AcDbCircle
 62
7
  6
CONTINUOUS
 10
4424.0903944466
 20
22199.5814063987
 40
50.000000158
100
AcDbArc
 50
0.0
 51
89.9999998279
  0
ARC
  5
40A
100
AcDbEntity
  8
0
100
AcDbCircle
 62
7
  6
CONTINUOUS
 10
3124.0903947666
 20
22199.5814063987
 40
50.000000158
100
AcDbArc
 50
90.0000001717
 51
179.9999998281
  0
ARC
  5
40B
100
AcDbEntity
  8
0
100
AcDbCircle
 62
7
  6
CONTINUOUS
 10
3124.0903947666
 20
21599.5814067187
 40
50.000000158
100
AcDbArc
 50
180.0000001719
 51
269.9999998283
  0
ARC
  5
40C
100
AcDbEntity
  8
0
100
AcDbCircle
 62
7
  6
CONTINUOUS
 10
4424.0903944466
 20
21599.5814067187
 40
50.000000158
100
AcDbArc
 50
270.0000001721
 51
360.0
  0
ARC
  5
40D
100
AcDbEntity
  8
0
100
AcDbCircle
 62
7
  6
CONTINUOUS
 10
3664.0864007166
 20
21809.5854004487
 40
10.003994688
100
AcDbArc
 50
270.0228744136
 51
359.9999839423
  0
ARC
  5
40E
100
AcDbEntity
  8
0
100
AcDbCircle
 62
7
  6
CONTINUOUS
 10
4214.0864007166
 20
21659.5854004487
 40
10.003994688
100
AcDbArc
 50
270.0228744136
 51
359.9999839423
  0
ARC
  5
40F
100
AcDbEntity
  8
0
100
AcDbCircle
 62
7
  6
CONTINUOUS
 10
4034.0943884966
 20
21659.5854004487
 40
10.003994688
100
AcDbArc
 50
180.0228743555
 51
269.9771255897
  0
ARC
  5
410
100
AcDbEntity
  8
0
100
AcDbCircle
 62
7
  6
CONTINUOUS
 10
3664.0864007866
 20
21989.5774127487
 40
10.0039946127
100
AcDbArc
 50
0.0000174336
 51
89.9771258936
  0
ARC
  5
411
100
AcDbEntity
  8
0
100
AcDbCircle
 62
7
  6
CONTINUOUS
 10
4124.0903946066
 20
22135.4336228887
 40
10.0039945702
100
AcDbArc
 50
45.0228737923
 51
134.9771262038
  0
ARC
  5
412
100
AcDbEntity
  8
0
100
AcDbCircle
 62
7
  6
CONTINUOUS
 10
3188.2381781866
 20
21899.5814065587
 40
10.0039945065
100
AcDbArc
 50
135.0228735137
 51
224.9771262343
  0
ARC
  5
413
100
AcDbEntity
  8
0
100
AcDbCircle
 62
7
  6
CONTINUOUS
 10
4349.9459219566
 20
21909.5823746687
 40
10.0009683787
100
AcDbArc
 50
270.0133885646
 51
44.9866108964
  0
ARC
  5
414
100
AcDbEntity
  8
0
100
AcDbCircle
 62
7
  6
CONTINUOUS
 10
3898.2348671466
 20
21909.5823746187
 40
10.0009683345
100
AcDbArc
 50
135.0133883402
 51
269.9866120459
  0
ARC
  5
415
100
AcDbEntity
  8
0
100
AcDbCircle
 62
7
  6
CONTINUOUS
 10
3414.0894266366
 20
22125.4369340387
 40
10.0009682464
100
AcDbArc
 50
0.0000037244
 51
134.986611269
  0
ARC
  5
416
100
AcDbEntity
  8
0
100
AcDbCircle
 62
7
  6
CONTINUOUS
 10
3414.0894267766
 20
21673.7258789287
 40
10.0009681065
100
AcDbArc
 50
225.0133868374
 51
359.9999963064
  0
ARC
  5
417
100
AcDbEntity
  8
0
100
AcDbCircle
 62
7
  6
CONTINUOUS
 10
3429.0903946266
 20
22004.5814065787
 40
5.0000000158
100
AcDbArc
 50
179.9999998304
 51
270.0000001868
  0
ARC
  5
418
100
AcDbEntity
  8
0
100
AcDbCircle
 62
7
  6
CONTINUOUS
 10
3429.0903943066
 20
21794.5814068587
 40
4.9999996978
100
AcDbArc
 50
89.9999999104
 51
180.0000000955
  0
ARC
  5
419
100
AcDbEntity
  8
0
100
AcDbCircle
 62
7
  6
CONTINUOUS
 10
4229.0903943066
 20
21894.5814068587
 40
4.9999996978
100
AcDbArc
 50
89.9999999104
 51
180.0000000955
  0
ARC
  5
41A
100
AcDbEntity
  8
0
100
AcDbCircle
 62
7
  6
CONTINUOUS
 10
4019.0903949066
 20
21894.5814068587
 40
4.9999996978
100
AcDbArc
 50
359.9999999124
 51
90.0000000937
  0
CIRCLE
  5
41B
100
AcDbEntity
  8
0
100
AcDbCircle
 62
7
  6
CONTINUOUS
 10
11174.0903945884
 20
21039.5814066087
 40
149.999951196
  0
ARC
  5
41C
100
AcDbEntity
  8
0
100
AcDbCircle
 62
7
  6
CONTINUOUS
 10
10504.0903190269
 20
19139.5813309387
 40
100.000075659
100
AcDbArc
 50
0.0000435758
 51
89.9999566588
  0
ARC
  5
41D
100
AcDbEntity
  8
0
100
AcDbCircle
 62
7
  6
CONTINUOUS
 10
10504.0903190969
 20
19369.5814822587
 40
100.000075581
100
AcDbArc
 50
270.0000430783
 51
359.999956447
  0
ARC
  5
41E
100
AcDbEntity
  8
0
100
AcDbCircle
 62
7
  6
CONTINUOUS
 10
9569.8168716658
 20
21555.7563905201
 40
1877.5394423415
100
AcDbArc
 50
90.022169481
 51
90.9911180072
  0
ARC
  5
41F
100
AcDbEntity
  8
0
100
AcDbCircle
 62
7
  6
CONTINUOUS
 10
9739.1403165857
 20
22684.1870133187
 40
200.049927861
100
AcDbArc
 50
179.9999892812
 51
269.9857019899
  0
ARC
  5
420
100
AcDbEntity
  8
0
100
AcDbCircle
 62
7
  6
CONTINUOUS
 10
11909.0406050448
 20
22683.6454956787
 40
200.049927656
100
AcDbArc
 50
270.0142407575
 51
0.0000107192
  0
ARC
  5
421
100
AcDbEntity
  8
0
100
AcDbCircle
 62
7
  6
CONTINUOUS
 10
9689.0906123657
 20
22639.5816243187
 40
200.000217717
100
AcDbArc
 50
180.0000619636
 51
269.9999376338
  0
ARC
  5
422
100
AcDbEntity
  8
0
100
AcDbCircle
 62
7
  6
CONTINUOUS
 10
10504.0903947965
 20
21169.5814067887
 40
129.999999775
100
AcDbArc
 50
0.0000000139
 51
90.0000000389
  0
ARC
  5
423
100
AcDbEntity
  8
0
100
AcDbCircle
 62
7
  6
CONTINUOUS
 10
11474.0736558506
 20
23085.3454626587
 40
100.016760638
100
AcDbArc
 50
0.0000623759
 51
89.9999960084
  0
ARC
  5
424
100
AcDbEntity
  8
0
100
AcDbCircle
 62
7
  6
CONTINUOUS
 10
11474.0736558496
 20
22785.6257009487
 40
100.016760638
100
AcDbArc
 50
270.0095890074
 51
359.9999376169
  0
ARC
  5
425
100
AcDbEntity
  8
0
100
AcDbCircle
 62
7
  6
CONTINUOUS
 10
10174.1071331166
 20
23085.3454629787
 40
100.016760321
100
AcDbArc
 50
90.0095888344
 51
179.999937597
  0
ARC
  5
426
100
AcDbEntity
  8
0
100
AcDbCircle
 62
7
  6
CONTINUOUS
 10
10174.1071331166
 20
22785.6257006287
 40
100.016760321
100
AcDbArc
 50
180.0378678374
 51
269.9999959978
  0
ARC
  5
427
100
AcDbEntity
  8
0
100
AcDbCircle
 62
7
  6
CONTINUOUS
 10
10504.0903187569
 20
21169.5813307487
 40
100.00007592
100
AcDbArc
 50
0.0000436991
 51
89.9999563013
  0
ARC
  5
428
100
AcDbEntity
  8
0
100
AcDbCircle
 62
7
  6
CONTINUOUS
 10
9154.0903187565
 20
22619.5813307487
 40
100.00007592
100
AcDbArc
 50
0.0
 51
89.9999999998
  0
ARC
  5
429
100
AcDbEntity
  8
0
100
AcDbCircle
 62
7
  6
CONTINUOUS
 10
9154.0903190965
 20
21419.5814822587
 40
100.000075581
100
AcDbArc
 50
270.0000429069
 51
359.9999999971
  0
ARC
  5
42A
100
AcDbEntity
  8
0
100
AcDbCircle
 62
7
  6
CONTINUOUS
 10
9374.0904700265
 20
21399.5814819787
 40
100.000075422
100
AcDbArc
 50
180.0000428482
 51
269.9999999944
  0
ARC
  5
42B
100
AcDbEntity
  8
0
100
AcDbCircle
 62
7
  6
CONTINUOUS
 10
9174.0903946065
 20
22649.5814065587
 40
99.9999999981
100
AcDbArc
 50
0.0
 51
90.0000000053
  0
ARC
  5
42C
100
AcDbEntity
  8
0
100
AcDbCircle
 62
7
  6
CONTINUOUS
 10
15974.090176786
 20
13489.5816244187
 40
200.00021782
100
AcDbArc
 50
270.0000624008
 51
360.0
  0
ARC
  5
42D
100
AcDbEntity
  8
0
100
AcDbCircle
 62
7
  6
CONTINUOUS
 10
12674.090394607
 20
13489.5814065987
 40
200.0
100
AcDbArc
 50
180.0
 51
269.9999999999
  0
ARC
  5
42E
100
AcDbEntity
  8
0
100
AcDbCircle
 62
7
  6
CONTINUOUS
 10
12674.090394607
 20
13489.5814065987
 40
150.0
100
AcDbArc
 50
180.0
 51
269.9999999999
  0
ARC
  5
42F
100
AcDbEntity
  8
0
100
AcDbCircle
 62
7
  6
CONTINUOUS
 10
15974.090394606
 20
13489.5814065987
 40
150.0
100
AcDbArc
 50
270.0000000003
 51
360.0
  0
CIRCLE
  5
430
100
AcDbEntity
  8
0
100
AcDbCircle
 62
7
  6
CONTINUOUS
 10
12824.0903946047
 20
11489.5814065987
 40
109.999999963
  0
ARC
  5
431
100
AcDbEntity
  8
0
100
AcDbCircle
 62
7
  6
CONTINUOUS
 10
15084.1318196965
 20
13639.6228317187
 40
100.041433701
100
AcDbArc
 50
180.0237250021
 51
269.9999754962
  0
ARC
  5
432
100
AcDbEntity
  8
0
100
AcDbCircle
 62
7
  6
CONTINUOUS
 10
14764.0489695165
 20
13639.6228317187
 40
100.041433701
100
AcDbArc
 50
270.0237250306
 51
359.9999755246
  0
ARC
  5
433
100
AcDbEntity
  8
0
100
AcDbCircle
 62
7
  6
CONTINUOUS
 10
15884.0489697665
 20
13639.6228314087
 40
100.041433383
100
AcDbArc
 50
270.0237248265
 51
359.9999754904
  0
ARC
  5
434
100
AcDbEntity
  8
0
100
AcDbCircle
 62
7
  6
CONTINUOUS
 10
12764.1318194505
 20
13639.6228314087
 40
100.041433383
100
AcDbArc
 50
180.0237248379
 51
269.9999755185
  0
ARC
  5
435
100
AcDbEntity
  8
0
100
AcDbCircle
 62
7
  6
CONTINUOUS
 10
12194.0904701555
 20
11279.5814822587
 40
100.000075624
100
AcDbArc
 50
180.0000429572
 51
269.9999999887
  0
ARC
  5
436
100
AcDbEntity
  8
0
100
AcDbCircle
 62
7
  6
CONTINUOUS
 10
11974.0903190408
 20
11299.5814821287
 40
100.000075566
100
AcDbArc
 50
270.0000433988
 51
359.9999567017
  0
ARC
  5
437
100
AcDbEntity
  8
0
100
AcDbCircle
 62
7
  6
CONTINUOUS
 10
11974.0903192541
 20
13099.5813312087
 40
100.000075353
100
AcDbArc
 50
0.0000431961
 51
89.9999569319
  0
ARC
  5
438
100
AcDbEntity
  8
0
100
AcDbCircle
 62
7
  6
CONTINUOUS
 10
16144.0903948457
 20
12739.5814062787
 40
100.000000316
100
AcDbArc
 50
89.9999999879
 51
180.0000000114
  0
ARC
  5
439
100
AcDbEntity
  8
0
100
AcDbCircle
 62
7
  6
CONTINUOUS
 10
16144.0903948457
 20
12239.5814069187
 40
100.000000316
100
AcDbArc
 50
179.9999999886
 51
270.0000000121
  0
ARC
  5
43A
100
AcDbEntity
  8
0
100
AcDbCircle
 62
7
  6
CONTINUOUS
 10
13744.0903948457
 20
12239.5814069187
 40
100.000000316
100
AcDbArc
 50
179.9999999886
 51
270.0000000121
  0
ARC
  5
43B
100
AcDbEntity
  8
0
100
AcDbCircle
 62
7
  6
CONTINUOUS
 10
14504.0903943657
 20
12239.5814069187
 40
100.000000316
100
AcDbArc
 50
269.9999999892
 51
359.9999999829
  0
ARC
  5
43C
100
AcDbEntity
  8
0
100
AcDbCircle
 62
7
  6
CONTINUOUS
 10
14504.0903943657
 20
12739.5814062787
 40
100.000000316
100
AcDbArc
 50
0.0000000171
 51
90.0000000108
  0
ARC
  5
43D
100
AcDbEntity
  8
0
100
AcDbCircle
 62
7
  6
CONTINUOUS
 10
13744.0903948457
 20
12739.5814062787
 40
100.000000316
100
AcDbArc
 50
89.9999999879
 51
180.0000000114
  0
ARC
  5
43E
100
AcDbEntity
  8
0
100
AcDbCircle
 62
7
  6
CONTINUOUS
 10
11994.0903945336
 20
13129.5814066387
 40
99.9999999981
100
AcDbArc
 50
0.0
 51
90.0000000054
  0
ARC
  5
43F
100
AcDbEntity
  8
0
100
AcDbCircle
 62
7
  6
CONTINUOUS
 10
15084.1318196965
 20
13939.5399814787
 40
100.041433701
100
AcDbArc
 50
90.0237250306
 51
179.9999755246
  0
ARC
  5
440
100
AcDbEntity
  8
0
100
AcDbCircle
 62
7
  6
CONTINUOUS
 10
14764.0489695165
 20
13939.5399814787
 40
100.041433701
100
AcDbArc
 50
0.0000244686
 51
89.9999755026
  0
ARC
  5
441
100
AcDbEntity
  8
0
100
AcDbCircle
 62
7
  6
CONTINUOUS
 10
15884.0489697665
 20
13939.5399817887
 40
100.041433383
100
AcDbArc
 50
0.0000245029
 51
89.9999755255
  0
ARC
  5
442
100
AcDbEntity
  8
0
100
AcDbCircle
 62
7
  6
CONTINUOUS
 10
12764.1318194505
 20
13939.5399817887
 40
100.041433383
100
AcDbArc
 50
90.0237248265
 51
179.9999755075
  0
ARC
  5
443
100
AcDbEntity
  8
0
100
AcDbCircle
 62
7
  6
CONTINUOUS
 10
16274.090394926
 20
14814.5814062787
 40
100.000000316
100
AcDbArc
 50
89.9999999881
 51
180.0000000114
  0
ARC
  5
444
100
AcDbEntity
  8
0
100
AcDbCircle
 62
7
  6
CONTINUOUS
 10
16274.090394606
 20
16614.5814065987
 40
100.0
100
AcDbArc
 50
180.0
 51
270.0000000004
  0
ARC
  5
445
100
AcDbEntity
  8
0
100
AcDbCircle
 62
7
  6
CONTINUOUS
 10
16074.090394606
 20
16414.5814065987
 40
50.0
100
AcDbArc
 50
270.0000000009
 51
360.0
  0
ARC
  5
446
100
AcDbEntity
  8
0
100
AcDbCircle
 62
7
  6
CONTINUOUS
 10
16074.090394606
 20
15014.5814065987
 40
50.0
100
AcDbArc
 50
0.0
 51
89.9999999991
  0
CIRCLE
  5
447
100
AcDbEntity
  8
0
100
AcDbCircle
 62
7
  6
CONTINUOUS
 10
17824.0903946057
 20
11489.5814065987
 40
109.999999963
  0
ARC
  5
448
100
AcDbEntity
  8
0
100
AcDbCircle
 62
7
  6
CONTINUOUS
 10
18824.0903192569
 20
10779.5814819887
 40
100.000075354
100
AcDbArc
 50
270.0000430694
 51
359.9999567931
  0
ARC
  5
449
100
AcDbEntity
  8
0
100
AcDbCircle
 62
7
  6
CONTINUOUS
 10
18824.0903192569
 20
11049.5813312087
 40
100.000075353
100
AcDbArc
 50
0.0000431811
 51
89.9999567336
  0
ARC
  5
44A
100
AcDbEntity
  8
0
100
AcDbCircle
 62
7
  6
CONTINUOUS
 10
18854.0903943665
 20
10749.5814068787
 40
100.000000316
100
AcDbArc
 50
269.9999999887
 51
359.9999999829
  0
ARC
  5
44B
100
AcDbEntity
  8
0
100
AcDbCircle
 62
7
  6
CONTINUOUS
 10
18854.0903943665
 20
11079.5814063187
 40
100.000000316
100
AcDbArc
 50
0.0000000171
 51
90.0000000113
  0
ARC
  5
44C
100
AcDbEntity
  8
0
100
AcDbCircle
 62
7
  6
CONTINUOUS
 10
16904.0903943657
 20
12239.5814069187
 40
100.000000316
100
AcDbArc
 50
269.9999999892
 51
359.9999999829
  0
ARC
  5
44D
100
AcDbEntity
  8
0
100
AcDbCircle
 62
7
  6
CONTINUOUS
 10
16904.0903943657
 20
12739.5814062787
 40
100.000000316
100
AcDbArc
 50
0.0000000171
 51
90.0000000108
  0
ARC
  5
44E
100
AcDbEntity
  8
0
100
AcDbCircle
 62
7
  6
CONTINUOUS
 10
18974.1111071657
 20
13439.6021191587
 40
50.0207168503
100
AcDbArc
 50
180.0237250272
 51
269.9762749741
  0
ARC
  5
44F
100
AcDbEntity
  8
0
100
AcDbCircle
 62
7
  6
CONTINUOUS
 10
19274.0696820457
 20
13439.6021191587
 40
50.0207168503
100
AcDbArc
 50
270.0237250285
 51
359.9999754972
  0
ARC
  5
450
100
AcDbEntity
  8
0
100
AcDbCircle
 62
7
  6
CONTINUOUS
 10
20419.1318197265
 20
16614.5399814747
 40
100.041433701
100
AcDbArc
 50
90.0237250192
 51
179.9999754961
  0
ARC
  5
451
100
AcDbEntity
  8
0
100
AcDbCircle
 62
7
  6
CONTINUOUS
 10
20419.1318197265
 20
15414.6228317187
 40
100.041433701
100
AcDbArc
 50
180.0237250306
 51
269.9999754962
  0
ARC
  5
452
100
AcDbEntity
  8
0
100
AcDbCircle
 62
7
  6
CONTINUOUS
 10
20719.0489694865
 20
15414.6228317187
 40
100.041433701
100
AcDbArc
 50
270.0237250306
 51
359.9999754961
  0
ARC
  5
453
100
AcDbEntity
  8
0
100
AcDbCircle
 62
7
  6
CONTINUOUS
 10
20719.0489694865
 20
16614.5399814747
 40
100.041433701
100
AcDbArc
 50
0.0000244972
 51
89.9999755141
  0
ARC
  5
454
100
AcDbEntity
  8
0
100
AcDbCircle
 62
7
  6
CONTINUOUS
 10
16674.090319216
 20
15014.5814819887
 40
100.000075387
100
AcDbArc
 50
270.0000428141
 51
360.0
  0
ARC
  5
455
100
AcDbEntity
  8
0
100
AcDbCircle
 62
7
  6
CONTINUOUS
 10
16674.090319216
 20
16414.5813312117
 40
100.000075387
100
AcDbArc
 50
0.0
 51
89.9999999996
  0
ARC
  5
456
100
AcDbEntity
  8
0
100
AcDbCircle
 62
7
  6
CONTINUOUS
 10
18174.1111071657
 20
16439.6021191607
 40
50.0207168503
100
AcDbArc
 50
180.0237250295
 51
269.9762749855
  0
ARC
  5
457
100
AcDbEntity
  8
0
100
AcDbCircle
 62
7
  6
CONTINUOUS
 10
18474.0696820457
 20
16439.6021191607
 40
50.0207168503
100
AcDbArc
 50
270.0237250171
 51
359.9999754972
  0
ARC
  5
458
100
AcDbEntity
  8
0
100
AcDbCircle
 62
7
  6
CONTINUOUS
 10
18974.1111071657
 20
16439.6021191607
 40
50.0207168503
100
AcDbArc
 50
180.0237250295
 51
269.9762749855
  0
ARC
  5
459
100
AcDbEntity
  8
0
100
AcDbCircle
 62
7
  6
CONTINUOUS
 10
19274.0696820457
 20
16439.6021191607
 40
50.0207168503
100
AcDbArc
 50
270.0237250171
 51
359.9999754972
  0
ARC
  5
45A
100
AcDbEntity
  8
0
100
AcDbCircle
 62
7
  6
CONTINUOUS
 10
18174.1111071657
 20
16039.5606940367
 40
50.0207168503
100
AcDbArc
 50
90.0237250146
 51
179.9762749705
  0
ARC
  5
45B
100
AcDbEntity
  8
0
100
AcDbCircle
 62
7
  6
CONTINUOUS
 10
18174.1111071657
 20
14939.6021191587
 40
50.0207168503
100
AcDbArc
 50
180.0237250272
 51
269.9762749741
  0
ARC
  5
45C
100
AcDbEntity
  8
0
100
AcDbCircle
 62
7
  6
CONTINUOUS
 10
18474.0696820457
 20
14939.6021191587
 40
50.0207168503
100
AcDbArc
 50
270.0237250285
 51
359.9999754972
  0
ARC
  5
45D
100
AcDbEntity
  8
0
100
AcDbCircle
 62
7
  6
CONTINUOUS
 10
18474.0696820457
 20
16039.5606940367
 40
50.0207168503
100
AcDbArc
 50
0.0000245028
 51
89.9762749829
  0
ARC
  5
45E
100
AcDbEntity
  8
0
100
AcDbCircle
 62
7
  6
CONTINUOUS
 10
18974.1111071657
 20
16039.5606940367
 40
50.0207168503
100
AcDbArc
 50
90.0237250145
 51
179.9762749705
  0
ARC
  5
45F
100
AcDbEntity
  8
0
100
AcDbCircle
 62
7
  6
CONTINUOUS
 10
18974.1111071657
 20
14939.6021191587
 40
50.0207168503
100
AcDbArc
 50
180.0237250272
 51
269.9762749741
  0
ARC
  5
460
100
AcDbEntity
  8
0
100
AcDbCircle
 62
7
  6
CONTINUOUS
 10
19274.0696820457
 20
14939.6021191587
 40
50.0207168503
100
AcDbArc
 50
270.0237250285
 51
359.9999754972
  0
ARC
  5
461
100
AcDbEntity
  8
0
100
AcDbCircle
 62
7
  6
CONTINUOUS
 10
19274.0696820457
 20
16039.5606940367
 40
50.0207168503
100
AcDbArc
 50
0.0000245028
 51
89.9762749829
  0
ARC
  5
462
100
AcDbEntity
  8
0
100
AcDbCircle
 62
7
  6
CONTINUOUS
 10
18974.1111071657
 20
14539.5606940387
 40
50.0207168503
100
AcDbArc
 50
90.0237250259
 51
179.9762749728
  0
ARC
  5
463
100
AcDbEntity
  8
0
100
AcDbCircle
 62
7
  6
CONTINUOUS
 10
19274.0696820457
 20
14539.5606940387
 40
50.0207168503
100
AcDbArc
 50
0.0000245028
 51
89.9762749715
  0
ARC
  5
464
100
AcDbEntity
  8
0
100
AcDbCircle
 62
7
  6
CONTINUOUS
 10
12674.090394607
 20
17939.5814065987
 40
200.0
100
AcDbArc
 50
90.0000000001
 51
180.0
  0
ARC
  5
465
100
AcDbEntity
  8
0
100
AcDbCircle
 62
7
  6
CONTINUOUS
 10
12674.090394607
 20
17939.5814065987
 40
150.0
100
AcDbArc
 50
90.0000000001
 51
180.0
  0
CIRCLE
  5
466
100
AcDbEntity
  8
0
100
AcDbCircle
 62
7
  6
CONTINUOUS
 10
12824.0903946067
 20
18589.5812447387
 40
110.0
  0
ARC
  5
467
100
AcDbEntity
  8
0
100
AcDbCircle
 62
7
  6
CONTINUOUS
 10
12624.0903946016
 20
19139.5814065987
 40
195.670229908
100
AcDbArc
 50
179.9999999971
 51
269.999999991
  0
ARC
  5
468
100
AcDbEntity
  8
0
100
AcDbCircle
 62
7
  6
CONTINUOUS
 10
12664.0903946835
 20
19229.5814067587
 40
50.000000158
100
AcDbArc
 50
180.0000001833
 51
269.9999998306
  0
CIRCLE
  5
469
100
AcDbEntity
  8
0
100
AcDbCircle
 62
7
  6
CONTINUOUS
 10
13194.090394536
 20
19674.5813597387
 40
79.9999999814
  0
ARC
  5
46A
100
AcDbEntity
  8
0
100
AcDbCircle
 62
7
  6
CONTINUOUS
 10
12944.090364216
 20
19674.5814065887
 40
79.9999810508
100
AcDbArc
 50
231.3178295859
 51
128.6821704141
  0
ARC
  5
46B
100
AcDbEntity
  8
0
100
AcDbCircle
 62
7
  6
CONTINUOUS
 10
12889.090394513
 20
19924.5814065887
 40
20.0000000632
100
AcDbArc
 50
0.0000000021
 51
89.999999271
  0
ARC
  5
46C
100
AcDbEntity
  8
0
100
AcDbCircle
 62
7
  6
CONTINUOUS
 10
13139.090394513
 20
19924.5814065887
 40
20.0000000632
100
AcDbArc
 50
0.0000000341
 51
89.9999992796
  0
ARC
  5
46D
100
AcDbEntity
  8
0
100
AcDbCircle
 62
7
  6
CONTINUOUS
 10
13389.090394513
 20
19924.5814065887
 40
20.0000000632
100
AcDbArc
 50
0.0000000341
 51
89.9999992796
  0
ARC
  5
46E
100
AcDbEntity
  8
0
100
AcDbCircle
 62
7
  6
CONTINUOUS
 10
12999.090394433
 20
19924.5814069087
 40
19.9999997452
100
AcDbArc
 50
90.0000000612
 51
180.0000011111
  0
ARC
  5
46F
100
AcDbEntity
  8
0
100
AcDbCircle
 62
7
  6
CONTINUOUS
 10
13249.090394433
 20
19924.5814069087
 40
19.9999997452
100
AcDbArc
 50
90.0000000612
 51
180.0000011111
  0
CIRCLE
  5
470
100
AcDbEntity
  8
0
100
AcDbCircle
 62
7
  6
CONTINUOUS
 10
14194.0903945359
 20
19674.5813597387
 40
79.9999999814
  0
CIRCLE
  5
471
100
AcDbEntity
  8
0
100
AcDbCircle
 62
7
  6
CONTINUOUS
 10
13944.0903945359
 20
19674.5814534487
 40
79.9999999814
  0
CIRCLE
  5
472
100
AcDbEntity
  8
0
100
AcDbCircle
 62
7
  6
CONTINUOUS
 10
13694.090394536
 20
19674.5813597387
 40
79.9999999814
  0
CIRCLE
  5
473
100
AcDbEntity
  8
0
100
AcDbCircle
 62
7
  6
CONTINUOUS
 10
13444.090394536
 20
19674.5814534487
 40
79.9999999814
  0
ARC
  5
474
100
AcDbEntity
  8
0
100
AcDbCircle
 62
7
  6
CONTINUOUS
 10
13639.090394513
 20
19924.5814065887
 40
20.0000000632
100
AcDbArc
 50
0.0000000341
 51
89.9999992796
  0
ARC
  5
475
100
AcDbEntity
  8
0
100
AcDbCircle
 62
7
  6
CONTINUOUS
 10
13889.090394513
 20
19924.5814065887
 40
20.0000000632
100
AcDbArc
 50
0.0000000341
 51
89.9999992796
  0
ARC
  5
476
100
AcDbEntity
  8
0
100
AcDbCircle
 62
7
  6
CONTINUOUS
 10
14139.090394513
 20
19924.5814065887
 40
20.0000000632
100
AcDbArc
 50
0.0000000341
 51
89.9999993655
  0
ARC
  5
477
100
AcDbEntity
  8
0
100
AcDbCircle
 62
7
  6
CONTINUOUS
 10
14249.090394433
 20
19924.5814069087
 40
19.9999997452
100
AcDbArc
 50
90.0000000612
 51
180.0000011111
  0
ARC
  5
478
100
AcDbEntity
  8
0
100
AcDbCircle
 62
7
  6
CONTINUOUS
 10
13499.090394433
 20
19924.5814069087
 40
19.9999997452
100
AcDbArc
 50
90.0000000612
 51
180.0000011111
  0
ARC
  5
479
100
AcDbEntity
  8
0
100
AcDbCircle
 62
7
  6
CONTINUOUS
 10
13749.090394433
 20
19924.5814069087
 40
19.9999997452
100
AcDbArc
 50
90.0000000612
 51
180.0000011111
  0
ARC
  5
47A
100
AcDbEntity
  8
0
100
AcDbCircle
 62
7
  6
CONTINUOUS
 10
13999.090394433
 20
19924.5814069087
 40
19.9999997452
100
AcDbArc
 50
90.0000000612
 51
180.0000011111
  0
ARC
  5
47B
100
AcDbEntity
  8
0
100
AcDbCircle
 62
7
  6
CONTINUOUS
 10
15974.090394606
 20
17939.5814065987
 40
200.0
100
AcDbArc
 50
0.0
 51
89.9999999998
  0
ARC
  5
47C
100
AcDbEntity
  8
0
100
AcDbCircle
 62
7
  6
CONTINUOUS
 10
15974.090394606
 20
17939.5814065987
 40
150.0
100
AcDbArc
 50
0.0
 51
89.9999999997
  0
CIRCLE
  5
47D
100
AcDbEntity
  8
0
100
AcDbCircle
 62
7
  6
CONTINUOUS
 10
15724.0903946066
 20
19689.5814065987
 40
699.999891351
  0
ARC
  5
47E
100
AcDbEntity
  8
0
100
AcDbCircle
 62
7
  6
CONTINUOUS
 10
14724.0903946061
 20
19139.5814065987
 40
195.670229679
100
AcDbArc
 50
269.9999995094
 51
360.0
  0
CIRCLE
  5
47F
100
AcDbEntity
  8
0
100
AcDbCircle
 62
7
  6
CONTINUOUS
 10
14444.0903945359
 20
19674.5814534487
 40
79.9999999814
  0
ARC
  5
480
100
AcDbEntity
  8
0
100
AcDbCircle
 62
7
  6
CONTINUOUS
 10
14724.0903945135
 20
19229.5814067587
 40
50.000000158
100
AcDbArc
 50
270.0000001756
 51
360.0
  0
ARC
  5
481
100
AcDbEntity
  8
0
100
AcDbCircle
 62
7
  6
CONTINUOUS
 10
14389.090394513
 20
19924.5814065887
 40
20.0000000632
100
AcDbArc
 50
0.0000000341
 51
89.9999993655
  0
ARC
  5
482
100
AcDbEntity
  8
0
100
AcDbCircle
 62
7
  6
CONTINUOUS
 10
14499.090394433
 20
19924.5814069087
 40
19.9999997452
100
AcDbArc
 50
90.0000000612
 51
180.0000011111
  0
ARC
  5
483
100
AcDbEntity
  8
0
100
AcDbCircle
 62
7
  6
CONTINUOUS
 10
12078.3632172485
 20
21555.2914784098
 40
1878.0043546881
100
AcDbArc
 50
89.0091209443
 51
89.9778146416
  0
ARC
  5
484
100
AcDbEntity
  8
0
100
AcDbCircle
 62
7
  6
CONTINUOUS
 10
12623.6238380336
 20
22090.0479631687
 40
202.017223256
100
AcDbArc
 50
89.8676760434
 51
180.1323241006
  0
ARC
  5
485
100
AcDbEntity
  8
0
100
AcDbCircle
 62
7
  6
CONTINUOUS
 10
11959.0903946068
 20
22639.5814065987
 40
200.0
100
AcDbArc
 50
270.0
 51
360.0
  0
ARC
  5
486
100
AcDbEntity
  8
0
100
AcDbCircle
 62
7
  6
CONTINUOUS
 10
12624.0903946061
 20
20589.5814065987
 40
195.670229672
100
AcDbArc
 50
90.0000001458
 51
180.0000000419
  0
ARC
  5
487
100
AcDbEntity
  8
0
100
AcDbCircle
 62
7
  6
CONTINUOUS
 10
14724.0903946061
 20
20589.5814065987
 40
195.670229679
100
AcDbArc
 50
0.0
 51
89.9999999849
  0
ARC
  5
488
100
AcDbEntity
  8
0
100
AcDbCircle
 62
7
  6
CONTINUOUS
 10
14724.0903945135
 20
20129.5814064387
 40
50.000000158
100
AcDbArc
 50
0.0
 51
89.9999998244
  0
ARC
  5
489
100
AcDbEntity
  8
0
100
AcDbCircle
 62
7
  6
CONTINUOUS
 10
12664.0903946835
 20
20129.5814064387
 40
50.000000158
100
AcDbArc
 50
90.0000001693
 51
179.9999998167
  0
ARC
  5
48A
100
AcDbEntity
  8
0
100
AcDbCircle
 62
7
  6
CONTINUOUS
 10
16423.7334709846
 20
19146.3940920487
 40
202.483241071
100
AcDbArc
 50
270.1027255322
 51
0.102725363
  0
ARC
  5
48B
100
AcDbEntity
  8
0
100
AcDbCircle
 62
7
  6
CONTINUOUS
 10
17024.0903949465
 20
19589.5814069387
 40
130.000000411
100
AcDbArc
 50
180.0000001249
 51
269.9999998475
  0
ARC
  5
48C
100
AcDbEntity
  8
0
100
AcDbCircle
 62
7
  6
CONTINUOUS
 10
19424.0903942665
 20
19589.5814069387
 40
130.000000411
100
AcDbArc
 50
270.0000001527
 51
359.9999999972
  0
CIRCLE
  5
48D
100
AcDbEntity
  8
0
100
AcDbCircle
 62
7
  6
CONTINUOUS
 10
17824.0903946057
 20
18589.5814065987
 40
109.999999963
  0
ARC
  5
48E
100
AcDbEntity
  8
0
100
AcDbCircle
 62
7
  6
CONTINUOUS
 10
20419.1318197265
 20
18989.6228317187
 40
100.041433701
100
AcDbArc
 50
180.0237250306
 51
269.9999754962
  0
ARC
  5
48F
100
AcDbEntity
  8
0
100
AcDbCircle
 62
7
  6
CONTINUOUS
 10
20719.0489694865
 20
18989.6228317187
 40
100.041433701
100
AcDbArc
 50
270.0237250306
 51
359.9999754961
  0
ARC
  5
490
100
AcDbEntity
  8
0
100
AcDbCircle
 62
7
  6
CONTINUOUS
 10
17024.0904699969
 20
19589.5814819887
 40
100.000075387
100
AcDbArc
 50
180.0000428141
 51
270.0000000085
  0
ARC
  5
491
100
AcDbEntity
  8
0
100
AcDbCircle
 62
7
  6
CONTINUOUS
 10
19424.0903192169
 20
19589.5814819887
 40
100.000075388
100
AcDbArc
 50
270.000042817
 51
360.0
  0
ARC
  5
492
100
AcDbEntity
  8
0
100
AcDbCircle
 62
7
  6
CONTINUOUS
 10
18174.1111071657
 20
17539.5606940367
 40
50.0207168503
100
AcDbArc
 50
90.0237250145
 51
179.9762749705
  0
ARC
  5
493
100
AcDbEntity
  8
0
100
AcDbCircle
 62
7
  6
CONTINUOUS
 10
18474.0696820457
 20
17539.5606940367
 40
50.0207168503
100
AcDbArc
 50
0.0000245028
 51
89.9762749829
  0
ARC
  5
494
100
AcDbEntity
  8
0
100
AcDbCircle
 62
7
  6
CONTINUOUS
 10
18974.1111071657
 20
17539.5606940367
 40
50.0207168503
100
AcDbArc
 50
90.0237250145
 51
179.9762749705
  0
ARC
  5
495
100
AcDbEntity
  8
0
100
AcDbCircle
 62
7
  6
CONTINUOUS
 10
19274.0696820457
 20
17539.5606940367
 40
50.0207168503
100
AcDbArc
 50
0.0000245028
 51
89.9762749829
  0
ARC
  5
496
100
AcDbEntity
  8
0
100
AcDbCircle
 62
7
  6
CONTINUOUS
 10
18974.1111071657
 20
19039.5606940387
 40
50.0207168503
100
AcDbArc
 50
90.0237250259
 51
179.9762749728
  0
ARC
  5
497
100
AcDbEntity
  8
0
100
AcDbCircle
 62
7
  6
CONTINUOUS
 10
18974.1111071657
 20
17939.6021191587
 40
50.0207168503
100
AcDbArc
 50
180.0237250272
 51
269.9762749741
  0
ARC
  5
498
100
AcDbEntity
  8
0
100
AcDbCircle
 62
7
  6
CONTINUOUS
 10
19274.0696820457
 20
17939.6021191587
 40
50.0207168503
100
AcDbArc
 50
270.0237250285
 51
359.9999754972
  0
ARC
  5
499
100
AcDbEntity
  8
0
100
AcDbCircle
 62
7
  6
CONTINUOUS
 10
19274.0696820457
 20
19039.5606940387
 40
50.0207168503
100
AcDbArc
 50
0.0000245028
 51
89.9762749715
  0
ARC
  5
49A
100
AcDbEntity
  8
0
100
AcDbCircle
 62
7
  6
CONTINUOUS
 10
18174.1111071657
 20
19039.5606940387
 40
50.0207168503
100
AcDbArc
 50
90.023725026
 51
179.9762749728
  0
ARC
  5
49B
100
AcDbEntity
  8
0
100
AcDbCircle
 62
7
  6
CONTINUOUS
 10
18174.1111071657
 20
17939.6021191587
 40
50.0207168503
100
AcDbArc
 50
180.0237250272
 51
269.976274974
  0
ARC
  5
49C
100
AcDbEntity
  8
0
100
AcDbCircle
 62
7
  6
CONTINUOUS
 10
18474.0696820457
 20
17939.6021191587
 40
50.0207168503
100
AcDbArc
 50
270.0237250285
 51
359.9999754972
  0
ARC
  5
49D
100
AcDbEntity
  8
0
100
AcDbCircle
 62
7
  6
CONTINUOUS
 10
18474.0696820457
 20
19039.5606940387
 40
50.0207168503
100
AcDbArc
 50
0.0000245028
 51
89.9762749715
  0
ARC
  5
49E
100
AcDbEntity
  8
0
100
AcDbCircle
 62
7
  6
CONTINUOUS
 10
16424.0903946046
 20
22089.5814065987
 40
202.48324108
100
AcDbArc
 50
0.0
 51
90.0000000029
  0
ARC
  5
49F
100
AcDbEntity
  8
0
100
AcDbCircle
 62
7
  6
CONTINUOUS
 10
18884.0903942365
 20
22489.5814062587
 40
130.000000411
100
AcDbArc
 50
0.0000000028
 51
89.9999998517
  0
ARC
  5
4A0
100
AcDbEntity
  8
0
100
AcDbCircle
 62
7
  6
CONTINUOUS
 10
17024.0903949465
 20
22489.5814062587
 40
130.000000411
100
AcDbArc
 50
90.0000001525
 51
179.9999998751
  0
ARC
  5
4A1
100
AcDbEntity
  8
0
100
AcDbCircle
 62
7
  6
CONTINUOUS
 10
20419.1318197265
 20
20989.5399814787
 40
100.041433701
100
AcDbArc
 50
90.0237250306
 51
179.9999754961
  0
ARC
  5
4A2
100
AcDbEntity
  8
0
100
AcDbCircle
 62
7
  6
CONTINUOUS
 10
20719.0489694865
 20
20989.5399814787
 40
100.041433701
100
AcDbArc
 50
0.0000244972
 51
89.9999755027
  0
ARC
  5
4A3
100
AcDbEntity
  8
0
100
AcDbCircle
 62
7
  6
CONTINUOUS
 10
17024.0904699969
 20
22489.5813312087
 40
100.000075387
100
AcDbArc
 50
90.0000428141
 51
180.0000000086
  0
ARC
  5
4A4
100
AcDbEntity
  8
0
100
AcDbCircle
 62
7
  6
CONTINUOUS
 10
19424.0903192869
 20
20909.5813312087
 40
100.000075318
100
AcDbArc
 50
0.0
 51
90.0000000058
  0
ARC
  5
4A5
100
AcDbEntity
  8
0
100
AcDbCircle
 62
7
  6
CONTINUOUS
 10
18884.0903192169
 20
22489.5813312487
 40
100.000075353
100
AcDbArc
 50
0.0000000086
 51
89.9999999915
  0
CIRCLE
  5
4A6
100
AcDbEntity
  8
0
100
AcDbCircle
 62
7
  6
CONTINUOUS
 10
18574.0903946069
 20
21889.5814065987
 40
100.0
  0
CIRCLE
  5
4A7
100
AcDbEntity
  8
0
100
AcDbCircle
 62
7
  6
CONTINUOUS
 10
17874.0903946069
 20
21889.5814065987
 40
99.9999999999
  0
ARC
  5
4A8
100
AcDbEntity
  8
0
100
AcDbCircle
 62
7
  6
CONTINUOUS
 10
19034.0903947269
 20
21059.5814066787
 40
50.000000158
100
AcDbArc
 50
180.0000001605
 51
269.9999997708
  0
SPLINE
  5
4A9
100
AcDbEntity
  8
0
100
AcDbSpline
 62
7
  6
CONTINUOUS
 70
0
 71
3
 72
12
 73
8
 74
0
 42
0.0000001
 43
0.0000001
 44
0.0000000001
 40
0.0
 40
0.0
 40
0.0
 40
0.0
 40
0.0468812858
 40
0.0937625706
 40
0.3845616342
 40
0.5825642653
 40
1.0
 40
1.0
 40
1.0
 40
1.0
 10
5195.3308020381
 20
14216.2868492345
 30
0.0
 10
5195.3085091886
 20
14217.0341612642
 30
0.0
 10
5195.2172333814
 20
14218.6143522907
 30
0.0
 10
5194.5107386248
 20
14224.8493116702
 30
0.0
 10
5191.8333302543
 20
14233.9595185858
 30
0.0
 10
5181.6254616203
 20
14249.7038194271
 30
0.0
 10
5170.2733676511
 20
14258.0287771415
 30
0.0
 10
5161.3810719615
 20
14261.3757516094
 30
0.0
  0
SPLINE
  5
4AA
100
AcDbEntity
  8
0
100
AcDbSpline
 62
7
  6
CONTINUOUS
 70
0
 71
3
 72
10
 73
6
 74
0
 42
0.0000001
 43
0.0000001
 44
0.0000000001
 40
0.0
 40
0.0
 40
0.0
 40
0.0
 40
0.7195431608
 40
0.9158506428
 40
1.0
 40
1.0
 40
1.0
 40
1.0
 10
9639.0903946774
 20
23432.3831755348
 30
0.0
 10
9615.1922727785
 20
23432.3831755348
 30
0.0
 10
9602.4077484728
 20
23431.3854451807
 30
0.0
 10
9539.4429259321
 20
23431.6888654176
 30
0.0
 10
9553.3782420302
 20
23429.7377878339
 30
0.0
 10
9556.1701617335
 20
23429.6099486079
 30
0.0
  0
SPLINE
  5
4AB
100
AcDbEntity
  8
0
100
AcDbSpline
 62
7
  6
CONTINUOUS
 70
0
 71
3
 72
9
 73
5
 74
0
 42
0.0000001
 43
0.0000001
 44
0.0000000001
 40
0.0
 40
0.0
 40
0.0
 40
0.0
 40
0.2822170192
 40
1.0
 40
1.0
 40
1.0
 40
1.0
 10
12109.0903946069
 20
23429.2418694296
 30
0.0
 10
12109.0903946069
 20
23437.5564959567
 30
0.0
 10
12060.9725356858
 20
23423.6252016315
 30
0.0
 10
12041.9500702645
 20
23432.3022765873
 30
0.0
 10
12020.8077875067
 20
23431.8466477698
 30
0.0
  0
SPLINE
  5
4AC
100
AcDbEntity
  8
0
100
AcDbSpline
 62
7
  6
CONTINUOUS
 70
0
 71
3
 72
8
 73
4
 74
0
 42
0.0000001
 43
0.0000001
 44
0.0000000001
 40
0.0
 40
0.0
 40
0.0
 40
0.0
 40
1.0
 40
1.0
 40
1.0
 40
1.0
 10
21062.0062752383
 20
10799.6777700203
 30
0.0
 10
20994.880767655
 20
10763.4034389884
 30
0.0
 10
20904.3438150111
 20
10729.069767434
 30
0.0
 10
20836.0494956098
 20
10763.0925068538
 30
0.0
  0
SPLINE
  5
4AD
100
AcDbEntity
  8
0
100
AcDbSpline
 62
7
  6
CONTINUOUS
 70
0
 71
3
 72
8
 73
4
 74
0
 42
0.0000001
 43
0.0000001
 44
0.0000000001
 40
0.0
 40
0.0
 40
0.0
 40
0.0
 40
1.0
 40
1.0
 40
1.0
 40
1.0
 10
21324.0903946068
 20
11239.3442448541
 30
0.0
 10
21324.0903946068
 20
11163.0448549244
 30
0.0
 10
21311.2769618866
 20
11067.0565757768
 30
0.0
 10
21248.8707492347
 20
11023.1582668562
 30
0.0
  0
SPLINE
  5
4AE
100
AcDbEntity
  8
0
100
AcDbSpline
 62
7
  6
CONTINUOUS
 70
0
 71
3
 72
9
 73
5
 74
0
 42
0.0000001
 43
0.0000001
 44
0.0000000001
 40
0.0
 40
0.0
 40
0.0
 40
0.0
 40
0.3870094771
 40
1.0
 40
1.0
 40
1.0
 40
1.0
 10
19392.8599129605
 20
10784.3542182009
 30
0.0
 10
19389.7681561778
 20
10784.7472887497
 30
0.0
 10
19381.7272049875
 20
10785.3061127094
 30
0.0
 10
19373.6842805078
 20
10785.6737463805
 30
0.0
 10
19368.7506979239
 20
10785.8434695349
 30
0.0
  0
SPLINE
  5
4AF
100
AcDbEntity
  8
0
100
AcDbSpline
 62
7
  6
CONTINUOUS
 70
0
 71
3
 72
9
 73
5
 74
0
 42
0.0000001
 43
0.0000001
 44
0.0000000001
 40
0.0
 40
0.0
 40
0.0
 40
0.0
 40
0.4453197363
 40
1.0
 40
1.0
 40
1.0
 40
1.0
 10
19368.7506979239
 20
10785.8434695349
 30
0.0
 10
19359.6355850043
 20
10786.1570440399
 30
0.0
 10
19339.1548419829
 20
10786.5107809346
 30
0.0
 10
19318.6722058118
 20
10786.3502248071
 30
0.0
 10
19307.3143016143
 20
10786.1171064339
 30
0.0
  0
SPLINE
  5
4B0
100
AcDbEntity
  8
0
100
AcDbSpline
 62
7
  6
CONTINUOUS
 70
0
 71
3
 72
8
 73
4
 74
0
 42
0.0000001
 43
0.0000001
 44
0.0000000001
 40
0.0
 40
0.0
 40
0.0
 40
0.0
 40
1.0
 40
1.0
 40
1.0
 40
1.0
 10
21062.0062752383
 20
10799.6777700203
 30
0.0
 10
21145.7740163057
 20
10844.9454913182
 30
0.0
 10
21218.7233497926
 20
10917.8947414442
 30
0.0
 10
21263.9917577019
 20
11001.6621114662
 30
0.0
  0
SPLINE
  5
4B1
100
AcDbEntity
  8
0
100
AcDbSpline
 62
7
  6
CONTINUOUS
 70
0
 71
3
 72
9
 73
5
 74
0
 42
0.0000001
 43
0.0000001
 44
0.0000000001
 40
0.0
 40
0.0
 40
0.0
 40
0.0
 40
0.2924114183
 40
1.0
 40
1.0
 40
1.0
 40
1.0
 10
19386.0525966817
 20
10785.2347033599
 30
0.0
 10
19380.5058780993
 20
10791.8909374003
 30
0.0
 10
19344.192780644
 20
10781.8870452749
 30
0.0
 10
19318.2163189525
 20
10788.2256418418
 30
0.0
 10
19297.2546627224
 20
10787.7790274452
 30
0.0
  0
SPLINE
  5
4B2
100
AcDbEntity
  8
0
100
AcDbSpline
 62
7
  6
CONTINUOUS
 70
0
 71
3
 72
9
 73
5
 74
0
 42
0.0000001
 43
0.0000001
 44
0.0000000001
 40
0.0
 40
0.0
 40
0.0
 40
0.0
 40
0.299261964
 40
1.0
 40
1.0
 40
1.0
 40
1.0
 10
5759.5777332094
 20
10382.1736197948
 30
0.0
 10
5772.3534626226
 20
10397.5055744561
 30
0.0
 10
5854.297615654
 20
10373.1676202249
 30
0.0
 10
5912.7442893241
 20
10388.2956883281
 30
0.0
 10
5959.4750481152
 20
10388.2956923078
 30
0.0
  0
SPLINE
  5
4B3
100
AcDbEntity
  8
0
100
AcDbSpline
 62
7
  6
CONTINUOUS
 70
0
 71
3
 72
9
 73
5
 74
0
 42
0.0000001
 43
0.0000001
 44
0.0000000001
 40
0.0
 40
0.0
 40
0.0
 40
0.0
 40
0.7040736852
 40
1.0
 40
1.0
 40
1.0
 40
1.0
 10
12110.8399971879
 20
23433.0149977257
 30
0.0
 10
12122.1786805516
 20
23432.8201186941
 30
0.0
 10
12132.6240826161
 20
23427.7230010125
 30
0.0
 10
12159.1269328269
 20
23435.5482906761
 30
0.0
 10
12159.0903992064
 20
23430.782011485
 30
0.0
  0
SPLINE
  5
4B4
100
AcDbEntity
  8
0
100
AcDbSpline
 62
7
  6
CONTINUOUS
 70
0
 71
3
 72
9
 73
5
 74
0
 42
0.0000001
 43
0.0000001
 44
0.0000000001
 40
0.0
 40
0.0
 40
0.0
 40
0.0
 40
0.295916508
 40
1.0
 40
1.0
 40
1.0
 40
1.0
 10
9489.0903946447
 20
23430.7814065999
 30
0.0
 10
9489.0538621841
 20
23435.5474824106
 30
0.0
 10
9515.5563214328
 20
23427.7229807003
 30
0.0
 10
9526.0015701076
 20
23432.8200021559
 30
0.0
 10
9537.3403024795
 20
23433.0149315853
 30
0.0
  0
SPLINE
  5
4B5
100
AcDbEntity
  8
0
100
AcDbSpline
 62
7
  6
CONTINUOUS
 70
0
 71
3
 72
8
 73
4
 74
0
 42
0.0000001
 43
0.0000001
 44
0.0000000001
 40
0.0
 40
0.0
 40
0.0
 40
0.0
 40
1.0
 40
1.0
 40
1.0
 40
1.0
 10
21065.1526973765
 20
10891.4879250186
 30
0.0
 10
20982.0288532158
 20
10830.459833489
 30
0.0
 10
20875.4907906048
 20
10793.0057180323
 30
0.0
 10
20772.3799516865
 20
10791.5372762196
 30
0.0
  0
SPLINE
  5
4B6
100
AcDbEntity
  8
0
100
AcDbSpline
 62
7
  6
CONTINUOUS
 70
0
 71
3
 72
8
 73
4
 74
0
 42
0.0000001
 43
0.0000001
 44
0.0000000001
 40
0.0
 40
0.0
 40
0.0
 40
0.0
 40
1.0
 40
1.0
 40
1.0
 40
1.0
 10
21272.1345249871
 20
11291.2918717002
 30
0.0
 10
21270.6660831889
 20
11188.1810331749
 30
0.0
 10
21233.2120061376
 20
11081.6429427219
 30
0.0
 10
21172.1838761868
 20
10998.5191272572
 30
0.0
  0
SPLINE
  5
4B7
100
AcDbEntity
  8
0
100
AcDbSpline
 62
7
  6
CONTINUOUS
 70
0
 71
3
 72
9
 73
5
 74
0
 42
0.0000001
 43
0.0000001
 44
0.0000000001
 40
0.0
 40
0.0
 40
0.0
 40
0.0
 40
0.7041106127
 40
1.0
 40
1.0
 40
1.0
 40
1.0
 10
9537.2926072506
 20
23233.1128713525
 30
0.0
 10
9525.9646395086
 20
23232.9178877099
 30
0.0
 10
9515.5298961373
 20
23227.8258170259
 30
0.0
 10
9489.0538969641
 20
23235.6416468832
 30
0.0
 10
9489.0903900046
 20
23230.8807138865
 30
0.0
  0
SPLINE
  5
4B8
100
AcDbEntity
  8
0
100
AcDbSpline
 62
7
  6
CONTINUOUS
 70
0
 71
3
 72
9
 73
5
 74
0
 42
0.0000001
 43
0.0000001
 44
0.0000000001
 40
0.0
 40
0.0
 40
0.0
 40
0.0
 40
0.2958893883
 40
1.0
 40
1.0
 40
1.0
 40
1.0
 10
12159.0903992058
 20
23230.8807138802
 30
0.0
 10
12159.1268918481
 20
23235.6416469401
 30
0.0
 10
12132.6508932965
 20
23227.8258169822
 30
0.0
 10
12122.2161493481
 20
23232.9178877157
 30
0.0
 10
12110.8881815194
 20
23233.112871358
 30
0.0
  0
SPLINE
  5
4B9
100
AcDbEntity
  8
0
100
AcDbSpline
 62
7
  6
CONTINUOUS
 70
0
 71
3
 72
8
 73
4
 74
0
 42
0.0000001
 43
0.0000001
 44
0.0000000001
 40
0.0
 40
0.0
 40
0.0
 40
0.0
 40
1.0
 40
1.0
 40
1.0
 40
1.0
 10
21065.1526553187
 20
10891.4879250187
 30
0.0
 10
21104.5604459987
 20
10920.4204446931
 30
0.0
 10
21147.364753017
 20
10955.0427418035
 30
0.0
 10
21161.894908051
 20
11001.7218512174
 30
0.0
  0
ELLIPSE
  5
4BA
100
AcDbEntity
  8
0
100
AcDbEllipse
 62
7
  6
CONTINUOUS
 10
11459.0903946068
 20
23405.7807946965
 30
0.0
 11
200.0
 21
0.0
 31
0.0
 40
0.0314130633
 41
-1.5707963267
 42
0.0
  0
ELLIPSE
  5
4BB
100
AcDbEntity
  8
0
100
AcDbEllipse
 62
7
  6
CONTINUOUS
 10
10189.0903946068
 20
23405.7807946965
 30
0.0
 11
200.0
 21
0.0
 31
0.0
 40
0.0314130633
 41
3.1415926536
 42
4.7123889803
  0
ENDSEC
  0
SECTION
  2
OBJECTS
  0
DICTIONARY
  5
C
100
AcDbDictionary
280
0
281
1
  3
ACAD_GROUP
350
D
  3
ACAD_MLINESTYLE
350
17
  3
ACAD_LAYOUT
350
1A
  3
ACAD_PLOTSETTINGS
350
19
  3
ACAD_PLOTSTYLENAME
350
E
  0
DICTIONARY
  5
D
102
{ACAD_REACTORS
330
C
102
}
100
AcDbDictionary
280
0
281
1
  0
ACDBDICTIONARYWDFLT
  5
E
102
{ACAD_REACTORS
330
C
102
}
100
AcDbDictionary
281
1
  3
Normal
350
F
100
AcDbDictionaryWithDefault
340
F
  0
DICTIONARY
  5
17
102
{ACAD_REACTORS
330
C
102
}
100
AcDbDictionary
280
0
281
1
  3
Standard
350
18
  0
DICTIONARY
  5
19
102
{ACAD_REACTORS
330
C
102
}
100
AcDbDictionary
281
1
  0
DICTIONARY
  5
1A
102
{ACAD_REACTORS
330
C
102
}
100
AcDbDictionary
281
1
  3
Model
350
4BC
  3
Layout1
350
4BD
  0
ACDBPLACEHOLDER
  5
F
102
{ACAD_REACTORS
330
E
102
}
  0
MLINESTYLE
  5
18
102
{ACAD_REACTORS
330
17
102
}
100
AcDbMlineStyle
  2
STANDARD
 70
0
  3

 62
256
 51
90.0
 52
90.0
 71
2
 49
0.5
 62
256
  6
BYLAYER
 49
-0.5
 62
256
  6
BYLAYER
  0
LAYOUT
  5
4BC
102
{ACAD_REACTORS
330
1A
102
}
100
AcDbPlotSettings
  1

  2
none_device
  4

  6

 40
0.0
 41
0.0
 42
0.0
 43
0.0
 44
210.0
 45
297.0
 46
0.0
 47
0.0
 48
0.0
 49
0.0
140
0.0
141
0.0
142
1.0
143
1.0
 70
1024
 72
1
 73
0
 74
0
  7

 75
0
147
1.0
148
0.0
149
0.0
100
AcDbLayout
  1
Model
 70
0
 71
0
 10
0.0
 20
0.0
 11
210.0
 21
297.0
 12
0.0
 22
0.0
 32
0.0
 14
0.0
 24
0.0
 34
0.0
 15
0.0
 25
0.0
 35
0.0
146
0.0
 13
0.0
 23
0.0
 33
0.0
 16
1.0
 26
0.0
 36
0.0
 17
0.0
 27
1.0
 37
0.0
 76
0
330
210
345
0
346
0
  0
LAYOUT
  5
4BD
102
{ACAD_REACTORS
330
1A
102
}
100
AcDbPlotSettings
  1

  2
none_device
  4

  6

 40
0.0
 41
0.0
 42
0.0
 43
0.0
 44
210.0
 45
297.0
 46
0.0
 47
0.0
 48
0.0
 49
0.0
140
0.0
141
0.0
142
1.0
143
1.0
 70
0
 72
1
 73
0
 74
0
  7

 75
0
147
1.0
148
0.0
149
0.0
100
AcDbLayout
  1
Layout1
 70
0
 71
1
 10
0.0
 20
0.0
 11
210.0
 21
297.0
 12
0.0
 22
0.0
 32
0.0
 14
0.0
 24
0.0
 34
0.0
 15
0.0
 25
0.0
 35
0.0
146
0.0
 13
0.0
 23
0.0
 33
0.0
 16
1.0
 26
0.0
 36
0.0
 17
0.0
 27
1.0
 37
0.0
 76
0
330
211
345
0
346
0
  0
ENDSEC
  0
EOF
