999
DXF file: C:\Users\sesa63760\Dev\_Creo\CAD\MCADID0002082_3D-CAD\drw0001_7.dxf
999
Pro/ENGINEER 2019471 by Parametric Technology Corporation
  0
SECTION
  2
HEADER
  9
$ACADVER
  1
AC1024
  9
$DWGCODEPAGE
  3
ANSI_1252
  9
$EXTMAX
 10
90.243159501
 20
127.6296112943
 30
0.0
  9
$EXTMIN
 10
0.0
 20
0.0
 30
0.0
  9
$LIMMIN
 10
0.0
 20
0.0
  9
$LIMMAX
 10
90.243159501
 20
127.6296112943
  9
$VIEWCTR
 10
45.1215797505
 20
63.8148056471
  9
$VIEWSIZE
 40
127.6296112943
  9
$CLAYER
  8
0
  9
$LTSCALE
 40
8.3195598473
  9
$CELTYPE
  6
BYLAYER
  9
$DIMSCALE
 40
1.0
  9
$DIMASZ
 40
1.0743233274
  9
$DIMEXO
 40
1.0
  9
$DIMDLI
 40
5.7480595309
  9
$DIMEXE
 40
1.0
  9
$DIMCEN
 40
1.3613825205
  9
$DIMLFAC
 40
1.0
  9
$DIMBLK
  1
_FILLED
  9
$DIMALT
 70
0
  9
$DIMALTF
 40
0.0393700787
  9
$DIMTXT
 40
1.5040526584
  9
$DIMTOL
 70
1
  9
$DIMLIM
 70
0
  9
$DIMTFAC
 40
1.0
  9
$DIMTP
 40
0.01
  9
$DIMTM
 40
0.01
  9
$DIMGAP
 40
0.625
  9
$DIMDSEP
 70
46
  9
$AUNITS
 70
0
  9
$PDMODE
 70
3
  9
$PDSIZE
 40
0.3125
  9
$HANDSEED
  5
494
  9
$TILEMODE
 70
1
  9
$MEASUREMENT
 70
1
  9
$INSUNITS
 70
4
  0
ENDSEC
  0
SECTION
  2
CLASSES
  0
CLASS
  1
ACDBDICTIONARYWDFLT
  2
AcDbDictionaryWithDefault
  3
AutoCAD 2000
 90
0
 91
1
280
0
281
0
  0
CLASS
  1
ACDBPLACEHOLDER
  2
AcDbPlaceHolder
  3
AutoCAD 2000
 90
0
 91
1
280
0
281
0
  0
CLASS
  1
LAYOUT
  2
AcDbLayout
  3
AutoCAD 2000
 90
0
 91
0
280
0
281
0
  0
ENDSEC
  0
SECTION
  2
TABLES
  0
TABLE
  2
VPORT
  5
8
100
AcDbSymbolTable
 70
2
  0
VPORT
  5
1F4
100
AcDbSymbolTableRecord
100
AcDbViewportTableRecord
  2
*ACTIVE
 70
0
 10
0.0
 20
0.0
 11
1.0
 21
1.0
 12
45.1215797505
 22
63.8148056471
 13
0.0
 23
0.0
 14
1.0
 24
1.0
 15
0.0
 25
0.0
 16
0.0
 26
0.0
 36
1.0
 17
0.0
 27
0.0
 37
0.0
 40
127.6296112943
 41
0.7070707071
 42
50.0
 43
0.0
 44
0.0
 50
0.0
 51
0.0
 71
0
 72
100
 73
1
 74
1
 75
0
 76
0
 77
0
 78
0
  0
ENDTAB
  0
TABLE
  2
LTYPE
  5
5
100
AcDbSymbolTable
 70
6
  0
LTYPE
  5
14
100
AcDbSymbolTableRecord
100
AcDbLinetypeTableRecord
  2
BYBLOCK
 70
0
  3

 72
65
 73
0
 40
0.0
  0
LTYPE
  5
15
100
AcDbSymbolTableRecord
100
AcDbLinetypeTableRecord
  2
BYLAYER
 70
0
  3

 72
65
 73
0
 40
0.0
  0
LTYPE
  5
16
100
AcDbSymbolTableRecord
100
AcDbLinetypeTableRecord
  2
CONTINUOUS
 70
64
  3
Solid line
 72
65
 73
0
 40
0.0
  0
LTYPE
  5
1F5
100
AcDbSymbolTableRecord
100
AcDbLinetypeTableRecord
  2
CENTER
 70
64
  3
____ _ ____ _ ____ _ ____ _ ____ _ ____ _ ____
 72
65
 73
4
 40
0.6
 49
0.375
 74
0
 49
-0.075
 74
0
 49
0.075
 74
0
 49
-0.075
 74
0
  0
LTYPE
  5
1F6
100
AcDbSymbolTableRecord
100
AcDbLinetypeTableRecord
  2
HIDDEN
 70
64
  3
- - - - - - - - - - - - - - - - - - - -
 72
65
 73
2
 40
0.2
 49
0.1
 74
0
 49
-0.1
 74
0
  0
LTYPE
  5
1F7
100
AcDbSymbolTableRecord
100
AcDbLinetypeTableRecord
  2
PHANTOM
 70
64
  3
_____ _ _ _____ _ _ _____ _ _ _____
 72
65
 73
6
 40
0.8
 49
0.45
 74
0
 49
-0.05
 74
0
 49
0.1
 74
0
 49
-0.05
 74
0
 49
0.1
 74
0
 49
-0.05
 74
0
  0
LTYPE
  5
1F8
100
AcDbSymbolTableRecord
100
AcDbLinetypeTableRecord
  2
DOT
 70
64
  3
. . . . . . . . . . . . . . . . . . . .
 72
65
 73
2
 40
0.2
 49
0.1
 74
0
 49
-0.1
 74
0
  0
LTYPE
  5
1F9
100
AcDbSymbolTableRecord
100
AcDbLinetypeTableRecord
  2
DASHED
 70
64
  3
- - - - - - - - - - - - - - - - - - - -
 72
65
 73
2
 40
0.2
 49
0.1
 74
0
 49
-0.1
 74
0
  0
ENDTAB
  0
TABLE
  2
LAYER
  5
2
100
AcDbSymbolTable
 70
36
  0
LAYER
  5
10
100
AcDbSymbolTableRecord
100
AcDbLayerTableRecord
  2
0
 70
0
 62
7
  6
CONTINUOUS
370
-3
390
F
  0
LAYER
  5
1FA
100
AcDbSymbolTableRecord
100
AcDbLayerTableRecord
  2
DEFAULT_1
 70
0
 62
7
  6
CENTER
370
-3
390
F
  0
LAYER
  5
1FB
100
AcDbSymbolTableRecord
100
AcDbLayerTableRecord
  2
DEFAULT_2
 70
0
 62
8
  6
HIDDEN
370
-3
390
F
  0
LAYER
  5
1FC
100
AcDbSymbolTableRecord
100
AcDbLayerTableRecord
  2
DEFAULT_3
 70
0
 62
7
  6
PHANTOM
370
-3
390
F
  0
LAYER
  5
1FD
100
AcDbSymbolTableRecord
100
AcDbLayerTableRecord
  2
00_COMPONENTS
 70
0
 62
7
  6
CONTINUOUS
370
-3
390
F
  0
LAYER
  5
1FE
100
AcDbSymbolTableRecord
100
AcDbLayerTableRecord
  2
01_1_DEFAULT_DATUMS
 70
0
 62
7
  6
CONTINUOUS
370
-3
390
F
  0
LAYER
  5
1FF
100
AcDbSymbolTableRecord
100
AcDbLayerTableRecord
  2
01_PLANES
 70
0
 62
7
  6
CONTINUOUS
370
-3
390
F
  0
LAYER
  5
200
100
AcDbSymbolTableRecord
100
AcDbLayerTableRecord
  2
02_COORD_SYS
 70
0
 62
7
  6
CONTINUOUS
370
-3
390
F
  0
LAYER
  5
201
100
AcDbSymbolTableRecord
100
AcDbLayerTableRecord
  2
03_AXES
 70
0
 62
7
  6
CONTINUOUS
370
-3
390
F
  0
LAYER
  5
202
100
AcDbSymbolTableRecord
100
AcDbLayerTableRecord
  2
04_POINTS
 70
0
 62
7
  6
CONTINUOUS
370
-3
390
F
  0
LAYER
  5
203
100
AcDbSymbolTableRecord
100
AcDbLayerTableRecord
  2
05_CURVES
 70
0
 62
7
  6
CONTINUOUS
370
-3
390
F
  0
LAYER
  5
204
100
AcDbSymbolTableRecord
100
AcDbLayerTableRecord
  2
06_SURFS
 70
0
 62
7
  6
CONTINUOUS
370
-3
390
F
  0
LAYER
  5
205
100
AcDbSymbolTableRecord
100
AcDbLayerTableRecord
  2
07_COSMETICS
 70
0
 62
7
  6
CONTINUOUS
370
-3
390
F
  0
LAYER
  5
206
100
AcDbSymbolTableRecord
100
AcDbLayerTableRecord
  2
10_NOTES
 70
0
 62
7
  6
CONTINUOUS
370
-3
390
F
  0
LAYER
  5
207
100
AcDbSymbolTableRecord
100
AcDbLayerTableRecord
  2
11_NOTES_PUB
 70
0
 62
7
  6
CONTINUOUS
370
-3
390
F
  0
LAYER
  5
208
100
AcDbSymbolTableRecord
100
AcDbLayerTableRecord
  2
13_REF_GTOL
 70
0
 62
7
  6
CONTINUOUS
370
-3
390
F
  0
LAYER
  5
209
100
AcDbSymbolTableRecord
100
AcDbLayerTableRecord
  2
16_MISC
 70
0
 62
7
  6
CONTINUOUS
370
-3
390
F
  0
LAYER
  5
20A
100
AcDbSymbolTableRecord
100
AcDbLayerTableRecord
  2
17_NO_PRINT
 70
0
 62
7
  6
CONTINUOUS
370
-3
390
F
  0
LAYER
  5
20B
100
AcDbSymbolTableRecord
100
AcDbLayerTableRecord
  2
18_DATUM_CAMS_JOINTS
 70
0
 62
7
  6
CONTINUOUS
370
-3
390
F
  0
LAYER
  5
20C
100
AcDbSymbolTableRecord
100
AcDbLayerTableRecord
  2
19_DATUM_FUNCTIONAL
 70
0
 62
7
  6
CONTINUOUS
370
-3
390
F
  0
LAYER
  5
20D
100
AcDbSymbolTableRecord
100
AcDbLayerTableRecord
  2
20_DATUM_KINEMATIC_SCHEME
 70
0
 62
7
  6
CONTINUOUS
370
-3
390
F
  0
ENDTAB
  0
TABLE
  2
STYLE
  5
3
100
AcDbSymbolTable
 70
1
  0
STYLE
  5
11
100
AcDbSymbolTableRecord
100
AcDbTextStyleTableRecord
  2
STANDARD
 70
0
 40
0.0
 41
0.8
 50
0.0
 71
0
 42
0.2
  3
txt
  4

  0
STYLE
  5
20E
100
AcDbSymbolTableRecord
100
AcDbTextStyleTableRecord
  2
TEXTSTYLE_1
 70
0
 40
0.0
 41
0.8
 50
0.0
 71
0
 42
0.2
  3
gdt
  4

  0
ENDTAB
  0
TABLE
  2
VIEW
  5
6
100
AcDbSymbolTable
 70
0
  0
ENDTAB
  0
TABLE
  2
UCS
  5
7
100
AcDbSymbolTable
 70
0
  0
ENDTAB
  0
TABLE
  2
APPID
  5
9
100
AcDbSymbolTable
 70
1
  0
APPID
  5
20F
100
AcDbSymbolTableRecord
100
AcDbRegAppTableRecord
  2
ACAD
 70
0
  0
ENDTAB
  0
TABLE
  2
BLOCK_RECORD
  5
1
100
AcDbSymbolTable
 70
0
  0
BLOCK_RECORD
  5
210
100
AcDbSymbolTableRecord
100
AcDbBlockTableRecord
  2
*Model_Space
  0
BLOCK_RECORD
  5
211
100
AcDbSymbolTableRecord
100
AcDbBlockTableRecord
  2
*Paper_Space
  0
BLOCK_RECORD
  5
212
100
AcDbSymbolTableRecord
100
AcDbBlockTableRecord
  2
_FILLED
  0
ENDTAB
  0
TABLE
  2
DIMSTYLE
  5
A
100
AcDbSymbolTable
 70
1
100
AcDbDimStyleTable
 71
0
  0
DIMSTYLE
105
213
100
AcDbSymbolTableRecord
100
AcDbDimStyleTableRecord
  2
STANDARD
 70
0
  3

  4

 40
1.0
 41
1.0743233274
 42
1.0
 43
0.38
 44
1.0
 45
0.0
 46
0.0
 47
0.01
 48
0.01
140
1.5040526584
141
0.09
142
0.0
143
25.4
144
1.0
145
0.0
146
1.0
147
0.625
 71
1
 72
0
 73
0
 74
0
 75
0
 76
0
 77
1
 78
8
 79
2
170
0
171
1
172
0
173
0
174
0
175
0
176
0
177
0
178
0
270
2
179
2
271
2
272
2
273
2
274
2
275
0
280
0
281
0
282
0
283
1
284
8
285
0
286
0
287
3
288
0
340
11
278
46
341
212
342
212
343
212
344
212
  0
ENDTAB
  0
ENDSEC
  0
SECTION
  2
BLOCKS
  0
BLOCK
  5
20
100
AcDbEntity
  8
0
100
AcDbBlockBegin
  2
*Model_Space
 70
0
 10
0.0
 20
0.0
 30
0.0
  3
*Model_Space
  1

  0
ENDBLK
  5
21
100
AcDbEntity
  8
0
100
AcDbBlockEnd
  0
BLOCK
  5
1C
100
AcDbEntity
  8
0
100
AcDbBlockBegin
  2
*Paper_Space
 70
0
 10
0.0
 20
0.0
 30
0.0
  3
*Paper_Space
  1

  0
ENDBLK
  5
1D
100
AcDbEntity
  8
0
100
AcDbBlockEnd
  0
BLOCK
  5
214
100
AcDbEntity
  8
0
100
AcDbBlockBegin
  2
_FILLED
 70
64
 10
0.0
 20
0.0
  3
_FILLED
  1

  0
SOLID
  5
215
100
AcDbEntity
  8
0
  6
BYBLOCK
 62
0
100
AcDbTrace
 10
0.0
 20
0.0
 11
-1.0
 21
0.25
 12
-1.0
 22
-0.25
 13
-1.0
 23
-0.25
  0
ENDBLK
  5
216
100
AcDbEntity
  8
0
  6
BYBLOCK
 62
0
100
AcDbBlockEnd
  0
ENDSEC
  0
SECTION
  2
ENTITIES
  0
LINE
  5
217
100
AcDbEntity
  8
0
100
AcDbLine
 62
7
  6
CONTINUOUS
 10
9.6064428921
 20
69.8810712559
 11
9.9124272023
 21
56.6646128205
  0
LINE
  5
218
100
AcDbEntity
  8
0
100
AcDbLine
 62
7
  6
CONTINUOUS
 10
13.429259021
 20
56.7460336759
 11
13.1232747107
 21
69.9624921124
  0
LINE
  5
219
100
AcDbEntity
  8
0
100
AcDbLine
 62
7
  6
CONTINUOUS
 10
15.9575833202
 20
78.1745527943
 11
15.8807014513
 21
77.9630387613
  0
LWPOLYLINE
  5
21A
100
AcDbEntity
  8
0
100
AcDbPolyline
 62
7
  6
CONTINUOUS
 90
3
 70
0
 10
14.4338257265
 20
81.7303770916
 10
14.2298924114
 20
81.5178558784
 10
14.1877941005
 20
81.4673562701
  0
LINE
  5
21B
100
AcDbEntity
  8
0
100
AcDbLine
 62
7
  6
CONTINUOUS
 10
21.0816902666
 20
85.6056980488
 11
21.0820174541
 21
85.6059783533
  0
LINE
  5
21C
100
AcDbEntity
  8
0
100
AcDbLine
 62
7
  6
CONTINUOUS
 10
22.1030952068
 20
41.487893686
 11
22.1034350159
 21
41.4876288237
  0
LINE
  5
21D
100
AcDbEntity
  8
0
100
AcDbLine
 62
7
  6
CONTINUOUS
 10
15.2831113049
 20
45.0513154135
 11
15.2829860475
 21
45.0514262048
  0
LWPOLYLINE
  5
21E
100
AcDbEntity
  8
0
100
AcDbPolyline
 62
7
  6
CONTINUOUS
 90
3
 70
0
 10
14.9645807802
 20
45.3740730398
 10
15.1769137092
 20
45.1485923418
 10
15.2829805012
 20
45.0514310006
  0
LINE
  5
21F
100
AcDbEntity
  8
0
100
AcDbLine
 62
7
  6
CONTINUOUS
 10
16.6399483709
 20
48.6742742541
 11
16.5539806089
 21
48.8816813234
  0
LWPOLYLINE
  5
220
100
AcDbEntity
  8
0
100
AcDbPolyline
 62
7
  6
CONTINUOUS
 90
3
 70
0
 10
19.7112517158
 20
81.7725616116
 10
17.8990726545
 20
79.7559433295
 10
15.9575833202
 20
78.1745527943
  0
LWPOLYLINE
  5
221
100
AcDbEntity
  8
0
100
AcDbPolyline
 62
7
  6
CONTINUOUS
 90
4
 70
0
 10
20.9142550663
 20
83.0592480109
 10
20.5640638554
 20
82.7113811847
 10
20.0112830501
 20
82.1193780577
 10
19.7112516022
 20
81.7725616481
  0
LINE
  5
222
100
AcDbEntity
  8
0
100
AcDbLine
 62
7
  6
CONTINUOUS
 10
19.0603298273
 20
42.5677288827
 11
19.9957485577
 21
42.1615810337
  0
LWPOLYLINE
  5
223
100
AcDbEntity
  8
0
100
AcDbPolyline
 62
7
  6
CONTINUOUS
 90
3
 70
0
 10
16.6405779507
 20
48.6739379042
 10
18.6330234299
 20
47.2023693979
 10
20.5567326815
 20
45.2535013478
  0
LWPOLYLINE
  5
224
100
AcDbEntity
  8
0
100
AcDbPolyline
 62
7
  6
CONTINUOUS
 90
4
 70
0
 10
21.8204899834
 20
44.0217257453
 10
23.5867942773
 20
42.6717367168
 10
26.1421871157
 20
41.2441542829
 10
28.8025067312
 20
40.2164820555
  0
LINE
  5
225
100
AcDbEntity
  8
0
100
AcDbLine
 62
7
  6
CONTINUOUS
 10
20.5567822936
 20
45.253547255
 11
21.8205425383
 21
44.0217855047
  0
LINE
  5
226
100
AcDbEntity
  8
0
100
AcDbLine
 62
7
  6
CONTINUOUS
 10
15.9578623807
 20
78.1747238383
 11
15.9575833202
 21
78.1745527943
  0
LWPOLYLINE
  5
227
100
AcDbEntity
  8
0
100
AcDbPolyline
 62
7
  6
CONTINUOUS
 90
4
 70
0
 10
27.7150845791
 20
87.1857849535
 10
25.1320336614
 20
86.050105826
 10
22.6420909831
 20
84.5090556061
 10
20.9143449873
 20
83.0591546286
  0
LINE
  5
228
100
AcDbEntity
  8
0
100
AcDbLine
 62
7
  6
CONTINUOUS
 10
21.1055175583
 20
85.6062496926
 11
25.0552113922
 21
86.7631642806
  0
LINE
  5
229
100
AcDbEntity
  8
0
100
AcDbLine
 62
7
  6
CONTINUOUS
 10
25.1677980407
 20
86.3792969953
 11
21.445090575
 21
85.2888503592
  0
LWPOLYLINE
  5
22A
100
AcDbEntity
  8
0
100
AcDbPolyline
 62
7
  6
CONTINUOUS
 90
3
 70
0
 10
25.0326716082
 20
86.7624216346
 10
25.0856528883
 20
86.7777780868
 10
25.0914908248
 20
86.779424735
  0
LINE
  5
22B
100
AcDbEntity
  8
0
100
AcDbLine
 62
7
  6
CONTINUOUS
 10
80.7815234759
 20
44.5306409193
 11
80.9732049968
 21
44.5747141014
  0
LINE
  5
22C
100
AcDbEntity
  8
0
100
AcDbLine
 62
7
  6
CONTINUOUS
 10
22.1269224986
 20
41.4884453298
 11
26.1259250226
 21
40.5155570742
  0
LINE
  5
22D
100
AcDbEntity
  8
0
100
AcDbLine
 62
7
  6
CONTINUOUS
 10
22.4514428471
 20
41.8212195823
 11
26.2206261551
 21
40.9042234371
  0
LINE
  5
22E
100
AcDbEntity
  8
0
100
AcDbLine
 62
7
  6
CONTINUOUS
 10
22.1137177302
 20
41.4931465559
 11
22.0559495015
 21
41.507795039
  0
LINE
  5
22F
100
AcDbEntity
  8
0
100
AcDbLine
 62
7
  6
CONTINUOUS
 10
21.912258476
 20
41.5370324192
 11
22.1103812443
 21
41.4854503465
  0
LINE
  5
230
100
AcDbEntity
  8
0
100
AcDbLine
 62
7
  6
CONTINUOUS
 10
16.6402812771
 20
48.6740880331
 11
16.6399483709
 21
48.6742742541
  0
LWPOLYLINE
  5
231
100
AcDbEntity
  8
0
100
AcDbPolyline
 62
7
  6
CONTINUOUS
 90
3
 70
0
 10
15.9572803003
 20
78.174380601
 10
14.1147764315
 20
77.3961697475
 10
13.8583865857
 20
77.3714791998
  0
LINE
  5
232
100
AcDbEntity
  8
0
100
AcDbLine
 62
7
  6
CONTINUOUS
 10
46.1068193993
 20
38.1073809377
 11
48.6161540224
 21
38.1654764576
  0
LINE
  5
233
100
AcDbEntity
  8
0
100
AcDbLine
 62
7
  6
CONTINUOUS
 10
45.9921723861
 20
38.1050158979
 11
45.8730252152
 21
38.1035171525
  0
LINE
  5
234
100
AcDbEntity
  8
0
100
AcDbLine
 62
7
  6
CONTINUOUS
 10
28.8069221815
 20
39.9767312907
 11
28.8048871576
 21
39.9767458637
  0
LINE
  5
235
100
AcDbEntity
  8
0
100
AcDbLine
 62
7
  6
CONTINUOUS
 10
44.872909743
 20
38.1215631289
 11
45.9921723861
 21
38.1050158979
  0
LWPOLYLINE
  5
236
100
AcDbEntity
  8
0
100
AcDbPolyline
 62
7
  6
CONTINUOUS
 90
5
 70
0
 10
41.8909645827
 20
38.3112849873
 10
42.5571986675
 20
38.2582090582
 10
43.4055357307
 20
38.198267777
 10
43.8668629376
 20
38.1699679713
 10
44.872909743
 20
38.1215631289
  0
LINE
  5
237
100
AcDbEntity
  8
0
100
AcDbLine
 62
7
  6
CONTINUOUS
 10
19.9498867941
 20
75.050751076
 11
15.9988439293
 21
73.8938052556
  0
LINE
  5
238
100
AcDbEntity
  8
0
100
AcDbLine
 62
7
  6
CONTINUOUS
 10
15.7167147617
 20
45.405940174
 11
20.3014864879
 21
45.5120857214
  0
LINE
  5
239
100
AcDbEntity
  8
0
100
AcDbLine
 62
7
  6
CONTINUOUS
 10
75.6339999865
 20
46.793130947
 11
78.3156758596
 21
46.8552164706
  0
LINE
  5
23A
100
AcDbEntity
  8
0
100
AcDbLine
 62
7
  6
CONTINUOUS
 10
48.4324508272
 20
46.2463761734
 11
47.1727884558
 21
46.217212769
  0
LINE
  5
23B
100
AcDbEntity
  8
0
100
AcDbLine
 62
7
  6
CONTINUOUS
 10
46.7444820973
 20
46.2072967218
 11
45.9231162041
 21
46.1882806535
  0
LINE
  5
23C
100
AcDbEntity
  8
0
100
AcDbLine
 62
7
  6
CONTINUOUS
 10
46.3438580548
 20
46.7367077797
 11
50.6213253226
 21
46.8096140615
  0
LINE
  5
23D
100
AcDbEntity
  8
0
100
AcDbLine
 62
7
  6
CONTINUOUS
 10
16.4836833971
 20
52.9520103376
 11
20.4840349522
 21
51.9791533144
  0
LINE
  5
23E
100
AcDbEntity
  8
0
100
AcDbLine
 62
7
  6
CONTINUOUS
 10
27.7152093973
 20
87.1813044944
 11
27.7084006476
 21
87.4254653006
  0
LINE
  5
23F
100
AcDbEntity
  8
0
100
AcDbLine
 62
7
  6
CONTINUOUS
 10
28.8069221815
 20
39.9767312907
 11
28.8024240632
 21
40.2209638193
  0
LINE
  5
240
100
AcDbEntity
  8
0
100
AcDbLine
 62
7
  6
CONTINUOUS
 10
22.356742108
 20
41.4325548367
 11
22.4514432408
 21
41.8212211995
  0
LINE
  5
241
100
AcDbEntity
  8
0
100
AcDbLine
 62
7
  6
CONTINUOUS
 10
21.9059387371
 20
41.5468143324
 11
22.0079140438
 21
41.9332111066
  0
LINE
  5
242
100
AcDbEntity
  8
0
100
AcDbLine
 62
7
  6
CONTINUOUS
 10
76.2924907964
 20
48.8884390071
 11
76.4749604703
 21
48.8926635017
  0
LINE
  5
243
100
AcDbEntity
  8
0
100
AcDbLine
 62
7
  6
CONTINUOUS
 10
75.6899682061
 20
49.790488538
 11
75.892077728
 21
49.7951677297
  0
LINE
  5
244
100
AcDbEntity
  8
0
100
AcDbLine
 62
7
  6
CONTINUOUS
 10
76.3689852619
 20
50.2953752247
 11
76.524473424
 21
50.2989750497
  0
LINE
  5
245
100
AcDbEntity
  8
0
100
AcDbLine
 62
7
  6
CONTINUOUS
 10
75.6538615447
 20
50.3646370403
 11
75.809152568
 21
50.3682323012
  0
LINE
  5
246
100
AcDbEntity
  8
0
100
AcDbLine
 62
7
  6
CONTINUOUS
 10
46.2994810251
 20
49.7363723292
 11
50.570281829
 21
49.8091797903
  0
LWPOLYLINE
  5
247
100
AcDbEntity
  8
0
100
AcDbPolyline
 62
7
  6
CONTINUOUS
 90
3
 70
0
 10
14.5041163923
 20
49.3789537897
 10
14.7616729602
 20
49.366433771
 10
16.6402812771
 20
48.6740880331
  0
LINE
  5
248
100
AcDbEntity
  8
0
100
AcDbLine
 62
7
  6
CONTINUOUS
 10
21.007426129
 20
85.1561407987
 11
20.8875874022
 21
85.5376998279
  0
LINE
  5
249
100
AcDbEntity
  8
0
100
AcDbLine
 62
7
  6
CONTINUOUS
 10
21.4450910393
 20
85.2888487748
 11
21.3325043908
 21
85.6727160601
  0
LINE
  5
24A
100
AcDbEntity
  8
0
100
AcDbLine
 62
7
  6
CONTINUOUS
 10
26.2206261554
 20
40.904223437
 11
26.1259250226
 21
40.5155570742
  0
LINE
  5
24B
100
AcDbEntity
  8
0
100
AcDbLine
 62
7
  6
CONTINUOUS
 10
75.9866294865
 20
50.7865289633
 11
76.2793268062
 21
50.7933054222
  0
LINE
  5
24C
100
AcDbEntity
  8
0
100
AcDbLine
 62
7
  6
CONTINUOUS
 10
75.8563557999
 20
51.6019513528
 11
75.6913159963
 21
51.5981303905
  0
LINE
  5
24D
100
AcDbEntity
  8
0
100
AcDbLine
 62
7
  6
CONTINUOUS
 10
75.9074609636
 20
52.8533750599
 11
76.1676486996
 21
52.8593988646
  0
LINE
  5
24E
100
AcDbEntity
  8
0
100
AcDbLine
 62
7
  6
CONTINUOUS
 10
46.9743541517
 20
52.3312710159
 11
46.9118719935
 21
52.3298244438
  0
LINE
  5
24F
100
AcDbEntity
  8
0
100
AcDbLine
 62
7
  6
CONTINUOUS
 10
25.0552113922
 20
86.7631642806
 11
25.1677980407
 21
86.3792969953
  0
LINE
  5
250
100
AcDbEntity
  8
0
100
AcDbLine
 62
7
  6
CONTINUOUS
 10
15.716244997
 20
45.4063110816
 11
15.4461381792
 21
45.1159215491
  0
LINE
  5
251
100
AcDbEntity
  8
0
100
AcDbLine
 62
7
  6
CONTINUOUS
 10
76.3215433931
 20
53.5020834151
 11
76.4499516485
 21
53.5050562926
  0
LINE
  5
252
100
AcDbEntity
  8
0
100
AcDbLine
 62
7
  6
CONTINUOUS
 10
75.8511999456
 20
53.667348526
 11
75.9835467921
 21
53.6704125888
  0
LINE
  5
253
100
AcDbEntity
  8
0
100
AcDbLine
 62
7
  6
CONTINUOUS
 10
76.0067723831
 20
54.3439481945
 11
75.8727510772
 21
54.340845365
  0
LINE
  5
254
100
AcDbEntity
  8
0
100
AcDbLine
 62
7
  6
CONTINUOUS
 10
76.3908698182
 20
54.3930402964
 11
76.2611813811
 21
54.3900377805
  0
LINE
  5
255
100
AcDbEntity
  8
0
100
AcDbLine
 62
7
  6
CONTINUOUS
 10
75.5637858371
 20
54.7149080006
 11
76.4094677615
 21
54.7344870279
  0
LINE
  5
256
100
AcDbEntity
  8
0
100
AcDbLine
 62
7
  6
CONTINUOUS
 10
76.7665656881
 20
55.1736539099
 11
77.0592630079
 21
55.1804303688
  0
LINE
  5
257
100
AcDbEntity
  8
0
100
AcDbLine
 62
7
  6
CONTINUOUS
 10
76.7814653371
 20
55.3998369638
 11
76.9588142844
 21
55.4039429046
  0
LINE
  5
258
100
AcDbEntity
  8
0
100
AcDbLine
 62
7
  6
CONTINUOUS
 10
76.8436278725
 20
55.5363267154
 11
76.7783403531
 21
55.5348151942
  0
LINE
  5
259
100
AcDbEntity
  8
0
100
AcDbLine
 62
7
  6
CONTINUOUS
 10
76.3903519727
 20
55.5601601754
 11
75.5446700482
 21
55.5405811482
  0
LINE
  5
25A
100
AcDbEntity
  8
0
100
AcDbLine
 62
7
  6
CONTINUOUS
 10
76.6367026167
 20
55.7117555107
 11
76.7033683638
 21
55.7132989403
  0
LINE
  5
25B
100
AcDbEntity
  8
0
100
AcDbLine
 62
7
  6
CONTINUOUS
 10
76.4697935263
 20
55.8610090905
 11
76.5624561374
 21
55.8631543932
  0
LINE
  5
25C
100
AcDbEntity
  8
0
100
AcDbLine
 62
7
  6
CONTINUOUS
 10
76.5393398115
 20
56.0301921014
 11
76.8320371313
 21
56.0369685603
  0
LINE
  5
25D
100
AcDbEntity
  8
0
100
AcDbLine
 62
7
  6
CONTINUOUS
 10
75.8047437887
 20
56.0990030988
 11
75.9269597893
 21
56.1018326146
  0
LINE
  5
25E
100
AcDbEntity
  8
0
100
AcDbLine
 62
7
  6
CONTINUOUS
 10
76.5102295264
 20
56.1853454922
 11
76.8029268461
 21
56.1921219512
  0
LINE
  5
25F
100
AcDbEntity
  8
0
100
AcDbLine
 62
7
  6
CONTINUOUS
 10
76.6077611273
 20
56.3958273027
 11
76.3665189587
 21
56.3902421213
  0
LINE
  5
260
100
AcDbEntity
  8
0
100
AcDbLine
 62
7
  6
CONTINUOUS
 10
14.8826922825
 20
81.3962264977
 11
14.5997695526
 21
81.6734772302
  0
LINE
  5
261
100
AcDbEntity
  8
0
100
AcDbLine
 62
7
  6
CONTINUOUS
 10
75.7850210109
 20
56.5258321491
 11
76.2441983364
 21
56.5364629136
  0
LINE
  5
262
100
AcDbEntity
  8
0
100
AcDbLine
 62
7
  6
CONTINUOUS
 10
76.167870047
 20
57.3608114909
 11
75.9852032342
 21
57.3565824322
  0
LINE
  5
263
100
AcDbEntity
  8
0
100
AcDbLine
 62
7
  6
CONTINUOUS
 10
76.4237758206
 20
57.3848034008
 11
76.2744531599
 21
57.381346318
  0
LINE
  5
264
100
AcDbEntity
  8
0
100
AcDbLine
 62
7
  6
CONTINUOUS
 10
76.536727666
 20
57.612805215
 11
76.7919684613
 21
57.6187144893
  0
LINE
  5
265
100
AcDbEntity
  8
0
100
AcDbLine
 62
7
  6
CONTINUOUS
 10
76.719246454
 20
57.7127860989
 11
76.5345119507
 21
57.7085091695
  0
LINE
  5
266
100
AcDbEntity
  8
0
100
AcDbLine
 62
7
  6
CONTINUOUS
 10
75.7675101537
 20
57.741790999
 11
76.1573626248
 21
57.750816771
  0
LINE
  5
267
100
AcDbEntity
  8
0
100
AcDbLine
 62
7
  6
CONTINUOUS
 10
76.5177525098
 20
57.7812927612
 11
76.650592029
 21
57.7843682302
  0
LINE
  5
268
100
AcDbEntity
  8
0
100
AcDbLine
 62
7
  6
CONTINUOUS
 10
76.7867845223
 20
57.8426256887
 11
76.8906728854
 21
57.8450308874
  0
LINE
  5
269
100
AcDbEntity
  8
0
100
AcDbLine
 62
7
  6
CONTINUOUS
 10
76.5779175948
 20
57.8721176473
 11
76.5156831115
 21
57.8706768093
  0
LINE
  5
26A
100
AcDbEntity
  8
0
100
AcDbLine
 62
7
  6
CONTINUOUS
 10
76.2899303186
 20
58.1811732146
 11
76.4052766295
 21
58.183843685
  0
LINE
  5
26B
100
AcDbEntity
  8
0
100
AcDbLine
 62
7
  6
CONTINUOUS
 10
13.4292656758
 20
56.7457462317
 11
9.9124338572
 21
56.6643253758
  0
LINE
  5
26C
100
AcDbEntity
  8
0
100
AcDbLine
 62
7
  6
CONTINUOUS
 10
76.6353014792
 20
58.4448168524
 11
76.7022627602
 21
58.446367124
  0
LINE
  5
26D
100
AcDbEntity
  8
0
100
AcDbLine
 62
7
  6
CONTINUOUS
 10
76.2203731208
 20
58.5783928872
 11
75.7483943278
 21
58.5674657461
  0
LINE
  5
26E
100
AcDbEntity
  8
0
100
AcDbLine
 62
7
  6
CONTINUOUS
 10
76.4288275908
 20
58.6812324329
 11
76.5591153264
 21
58.6842488236
  0
LINE
  5
26F
100
AcDbEntity
  8
0
100
AcDbLine
 62
7
  6
CONTINUOUS
 10
75.7335044462
 20
59.1434594169
 11
75.8444608958
 21
59.1460282543
  0
LINE
  5
270
100
AcDbEntity
  8
0
100
AcDbLine
 62
7
  6
CONTINUOUS
 10
21.8466993521
 20
44.0514344578
 11
21.8205425383
 21
44.0217855047
  0
LINE
  5
271
100
AcDbEntity
  8
0
100
AcDbLine
 62
7
  6
CONTINUOUS
 10
20.5567823922
 20
45.2535472761
 11
20.5957650671
 21
45.2894638458
  0
LINE
  5
272
100
AcDbEntity
  8
0
100
AcDbLine
 62
7
  6
CONTINUOUS
 10
75.7148809635
 20
59.555409125
 11
76.2977397467
 21
59.5689033333
  0
LINE
  5
273
100
AcDbEntity
  8
0
100
AcDbLine
 62
7
  6
CONTINUOUS
 10
76.3986636862
 20
59.5716928217
 11
76.8919125455
 21
59.5831124023
  0
LINE
  5
274
100
AcDbEntity
  8
0
100
AcDbLine
 62
7
  6
CONTINUOUS
 10
76.8207592773
 20
59.9030584318
 11
76.3912222219
 21
59.8931138918
  0
LINE
  5
275
100
AcDbEntity
  8
0
100
AcDbLine
 62
7
  6
CONTINUOUS
 10
76.2786343641
 20
60.3941270013
 11
75.9154675219
 21
60.3857190487
  0
LINE
  5
276
100
AcDbEntity
  8
0
100
AcDbLine
 62
7
  6
CONTINUOUS
 10
76.6460015016
 20
60.8254014556
 11
76.5821913028
 21
60.823924137
  0
LINE
  5
277
100
AcDbEntity
  8
0
100
AcDbLine
 62
7
  6
CONTINUOUS
 10
76.4327137905
 20
60.8543381439
 11
76.3690023356
 21
60.8528631114
  0
LINE
  5
278
100
AcDbEntity
  8
0
100
AcDbLine
 62
7
  6
CONTINUOUS
 10
76.86159275
 20
60.892723071
 11
76.7978809462
 21
60.8912480304
  0
LINE
  5
279
100
AcDbEntity
  8
0
100
AcDbLine
 62
7
  6
CONTINUOUS
 10
76.0031074122
 20
61.5701289788
 11
75.7040128676
 21
61.5637644039
  0
LINE
  5
27A
100
AcDbEntity
  8
0
100
AcDbLine
 62
7
  6
CONTINUOUS
 10
75.701868801
 20
61.5813290838
 11
75.9012767677
 21
61.5859457297
  0
LINE
  5
27B
100
AcDbEntity
  8
0
100
AcDbLine
 62
7
  6
CONTINUOUS
 10
76.3508585122
 20
61.6365539088
 11
76.8444025565
 21
61.6479803235
  0
LINE
  5
27C
100
AcDbEntity
  8
0
100
AcDbLine
 62
7
  6
CONTINUOUS
 10
76.8375881701
 20
61.9423158515
 11
76.3440441259
 21
61.9308894369
  0
LINE
  5
27D
100
AcDbEntity
  8
0
100
AcDbLine
 62
7
  6
CONTINUOUS
 10
75.6547847932
 20
62.1511583521
 11
75.7623165623
 21
62.1536479021
  0
LINE
  5
27E
100
AcDbEntity
  8
0
100
AcDbLine
 62
7
  6
CONTINUOUS
 10
76.1402646835
 20
62.2427972058
 11
76.2476000116
 21
62.2452822078
  0
LINE
  5
27F
100
AcDbEntity
  8
0
100
AcDbLine
 62
7
  6
CONTINUOUS
 10
19.7518700594
 20
81.7384747672
 11
19.7112517158
 21
81.7725616116
  0
LINE
  5
280
100
AcDbEntity
  8
0
100
AcDbLine
 62
7
  6
CONTINUOUS
 10
20.9143449873
 20
83.0591546286
 11
20.9418939406
 21
83.0307084682
  0
LINE
  5
281
100
AcDbEntity
  8
0
100
AcDbLine
 62
7
  6
CONTINUOUS
 10
45.0937175769
 20
82.0127073162
 11
44.9032502514
 21
90.0934504305
  0
LINE
  5
282
100
AcDbEntity
  8
0
100
AcDbLine
 62
7
  6
CONTINUOUS
 10
46.1068193993
 20
38.1073809377
 11
45.9231162041
 21
46.1882806535
  0
LINE
  5
283
100
AcDbEntity
  8
0
100
AcDbLine
 62
7
  6
CONTINUOUS
 10
75.8748867181
 20
62.7258178825
 11
75.6912200638
 21
62.7215656757
  0
LINE
  5
284
100
AcDbEntity
  8
0
100
AcDbLine
 62
7
  6
CONTINUOUS
 10
76.6601177119
 20
62.986095821
 11
76.6173804405
 21
62.9851063779
  0
LINE
  5
285
100
AcDbEntity
  8
0
100
AcDbLine
 62
7
  6
CONTINUOUS
 10
76.516030887
 20
62.9886319301
 11
76.6172445668
 21
62.9909752052
  0
LINE
  5
286
100
AcDbEntity
  8
0
100
AcDbLine
 62
7
  6
CONTINUOUS
 10
76.4722580936
 20
63.3891596834
 11
76.5274025548
 21
63.3904363749
  0
LINE
  5
287
100
AcDbEntity
  8
0
100
AcDbLine
 62
7
  6
CONTINUOUS
 10
76.7482420525
 20
63.4140677596
 11
76.8095902831
 21
63.4154880793
  0
LINE
  5
288
100
AcDbEntity
  8
0
100
AcDbLine
 62
7
  6
CONTINUOUS
 10
76.144338111
 20
63.4158953539
 11
76.0323747291
 21
63.4133032043
  0
LINE
  5
289
100
AcDbEntity
  8
0
100
AcDbLine
 62
7
  6
CONTINUOUS
 10
75.9005406621
 20
63.4563209551
 11
75.9530229232
 21
63.457536012
  0
LINE
  5
28A
100
AcDbEntity
  8
0
100
AcDbLine
 62
7
  6
CONTINUOUS
 10
76.5999159485
 20
63.7394546381
 11
76.4950913197
 21
63.7370277631
  0
LINE
  5
28B
100
AcDbEntity
  8
0
100
AcDbLine
 62
7
  6
CONTINUOUS
 10
75.4783347265
 20
63.7292970908
 11
75.5034526104
 21
63.7298786141
  0
LINE
  5
28C
100
AcDbEntity
  8
0
100
AcDbLine
 62
7
  6
CONTINUOUS
 10
75.6279616067
 20
63.769347018
 11
76.2016623284
 21
63.782629201
  0
LINE
  5
28D
100
AcDbEntity
  8
0
100
AcDbLine
 62
7
  6
CONTINUOUS
 10
76.7574990914
 20
64.0100432774
 11
76.6951658642
 21
64.0086001533
  0
LINE
  5
28E
100
AcDbEntity
  8
0
100
AcDbLine
 62
7
  6
CONTINUOUS
 10
76.5992287229
 20
64.0321251366
 11
76.6358806438
 21
64.0329736932
  0
LINE
  5
28F
100
AcDbEntity
  8
0
100
AcDbLine
 62
7
  6
CONTINUOUS
 10
75.3396102241
 20
64.316425923
 11
75.5125395459
 21
64.3204295416
  0
LINE
  5
290
100
AcDbEntity
  8
0
100
AcDbLine
 62
7
  6
CONTINUOUS
 10
76.1825465395
 20
64.6083023486
 11
75.6088458179
 21
64.5950201656
  0
LINE
  5
291
100
AcDbEntity
  8
0
100
AcDbLine
 62
7
  6
CONTINUOUS
 10
76.4655539448
 20
65.0832423473
 11
76.6028211148
 21
65.0864203243
  0
LINE
  5
292
100
AcDbEntity
  8
0
100
AcDbLine
 62
7
  6
CONTINUOUS
 10
47.4125848745
 20
90.1515459504
 11
47.6030522
 21
82.0708028361
  0
LINE
  5
293
100
AcDbEntity
  8
0
100
AcDbLine
 62
7
  6
CONTINUOUS
 10
46.4431095083
 20
77.7429619191
 11
46.4852389502
 21
75.9262711381
  0
LINE
  5
294
100
AcDbEntity
  8
0
100
AcDbLine
 62
7
  6
CONTINUOUS
 10
46.3006172085
 20
83.8817654946
 11
46.1529225031
 21
90.122382546
  0
LINE
  5
295
100
AcDbEntity
  8
0
100
AcDbLine
 62
7
  6
CONTINUOUS
 10
46.2984067071
 20
83.9764402233
 11
46.3735404185
 21
80.742211285
  0
LINE
  5
296
100
AcDbEntity
  8
0
100
AcDbLine
 62
7
  6
CONTINUOUS
 10
47.7029570792
 20
77.7644360168
 11
47.7464724061
 21
75.8879887955
  0
LINE
  5
297
100
AcDbEntity
  8
0
100
AcDbLine
 62
7
  6
CONTINUOUS
 10
47.6030522
 20
82.0708028361
 11
47.6333811419
 21
80.7636861259
  0
LINE
  5
298
100
AcDbEntity
  8
0
100
AcDbLine
 62
7
  6
CONTINUOUS
 10
46.6741743427
 20
67.7456323353
 11
46.8416176475
 21
60.513210922
  0
LINE
  5
299
100
AcDbEntity
  8
0
100
AcDbLine
 62
7
  6
CONTINUOUS
 10
47.091170934
 20
49.7499464929
 11
47.0314741788
 21
52.3325934452
  0
LINE
  5
29A
100
AcDbEntity
  8
0
100
AcDbLine
 62
7
  6
CONTINUOUS
 10
48.2895846486
 20
52.4292030407
 11
48.3510326088
 21
49.7704810187
  0
LINE
  5
29B
100
AcDbEntity
  8
0
100
AcDbLine
 62
7
  6
CONTINUOUS
 10
47.1604647783
 20
46.7506924281
 11
47.3526740164
 21
38.3306450011
  0
LINE
  5
29C
100
AcDbEntity
  8
0
100
AcDbLine
 62
7
  6
CONTINUOUS
 10
48.4203238902
 20
46.7713383453
 11
48.6121170447
 21
38.370384249
  0
LINE
  5
29D
100
AcDbEntity
  8
0
100
AcDbLine
 62
7
  6
CONTINUOUS
 10
48.6121170447
 20
38.370384249
 11
48.6161540224
 21
38.1654764576
  0
LINE
  5
29E
100
AcDbEntity
  8
0
100
AcDbLine
 62
7
  6
CONTINUOUS
 10
47.356491651
 20
38.1363130532
 11
47.3526320017
 21
38.3329445857
  0
LINE
  5
29F
100
AcDbEntity
  8
0
100
AcDbLine
 62
7
  6
CONTINUOUS
 10
76.422519395
 20
65.5375359913
 11
76.4815044011
 21
65.5389015981
  0
LINE
  5
2A0
100
AcDbEntity
  8
0
100
AcDbLine
 62
7
  6
CONTINUOUS
 10
76.7000149043
 20
65.5439605015
 11
76.7602800921
 21
65.5453557468
  0
LINE
  5
2A1
100
AcDbEntity
  8
0
100
AcDbLine
 62
7
  6
CONTINUOUS
 10
75.5789612414
 20
65.7650739211
 11
75.8716585612
 21
65.77185038
  0
LINE
  5
2A2
100
AcDbEntity
  8
0
100
AcDbLine
 62
7
  6
CONTINUOUS
 10
76.5045880636
 20
65.9504629374
 11
76.4355587432
 21
65.948864787
  0
LINE
  5
2A3
100
AcDbEntity
  8
0
100
AcDbLine
 62
7
  6
CONTINUOUS
 10
76.7313949327
 20
65.9886859493
 11
76.6680770577
 21
65.9872200288
  0
LINE
  5
2A4
100
AcDbEntity
  8
0
100
AcDbLine
 62
7
  6
CONTINUOUS
 10
76.0090198027
 20
66.1684415275
 11
76.1569879894
 21
66.1718672518
  0
LINE
  5
2A5
100
AcDbEntity
  8
0
100
AcDbLine
 62
7
  6
CONTINUOUS
 10
75.5595337733
 20
66.4263310085
 11
75.6758467094
 21
66.429023858
  0
LINE
  5
2A6
100
AcDbEntity
  8
0
100
AcDbLine
 62
7
  6
CONTINUOUS
 10
75.2820445942
 20
66.8842294343
 11
76.1292038393
 21
66.9038426642
  0
LINE
  5
2A7
100
AcDbEntity
  8
0
100
AcDbLine
 62
7
  6
CONTINUOUS
 10
76.3941978871
 20
66.994441971
 11
76.6246339803
 21
66.9997769728
  0
LINE
  5
2A8
100
AcDbEntity
  8
0
100
AcDbLine
 62
7
  6
CONTINUOUS
 10
76.6129169299
 20
67.2930947532
 11
76.3210442375
 21
67.2863373859
  0
LINE
  5
2A9
100
AcDbEntity
  8
0
100
AcDbLine
 62
7
  6
CONTINUOUS
 10
76.6577948651
 20
67.4824834144
 11
76.7154012946
 21
67.4838171048
  0
LINE
  5
2AA
100
AcDbEntity
  8
0
100
AcDbLine
 62
7
  6
CONTINUOUS
 10
76.1100984937
 20
67.7290647326
 11
75.2629392487
 21
67.7094515027
  0
LINE
  5
2AB
100
AcDbEntity
  8
0
100
AcDbLine
 62
7
  6
CONTINUOUS
 10
76.4350945041
 20
67.7605281763
 11
76.3773896796
 21
67.7591922079
  0
LINE
  5
2AC
100
AcDbEntity
  8
0
100
AcDbLine
 62
7
  6
CONTINUOUS
 10
76.6854388198
 20
67.8417538957
 11
76.6253707709
 21
67.8403632145
  0
LINE
  5
2AD
100
AcDbEntity
  8
0
100
AcDbLine
 62
7
  6
CONTINUOUS
 10
76.3581693469
 20
68.5893809454
 11
76.6835225054
 21
68.5969134446
  0
LINE
  5
2AE
100
AcDbEntity
  8
0
100
AcDbLine
 62
7
  6
CONTINUOUS
 10
76.6767290426
 20
68.8903452148
 11
76.3513758842
 21
68.8828127156
  0
LINE
  5
2AF
100
AcDbEntity
  8
0
100
AcDbLine
 62
7
  6
CONTINUOUS
 10
75.8327612961
 20
68.9267093276
 11
75.5336951308
 21
68.9203418901
  0
LINE
  5
2B0
100
AcDbEntity
  8
0
100
AcDbLine
 62
7
  6
CONTINUOUS
 10
75.5315467659
 20
68.9370038286
 11
75.7309799176
 21
68.9416210577
  0
LINE
  5
2B1
100
AcDbEntity
  8
0
100
AcDbLine
 62
7
  6
CONTINUOUS
 10
76.3367125065
 20
69.243814834
 11
76.3981594809
 21
69.2452374397
  0
LINE
  5
2B2
100
AcDbEntity
  8
0
100
AcDbLine
 62
7
  6
CONTINUOUS
 10
76.3303371081
 20
69.519189043
 11
76.4244766908
 21
69.5213685403
  0
LINE
  5
2B3
100
AcDbEntity
  8
0
100
AcDbLine
 62
7
  6
CONTINUOUS
 10
75.4845193099
 20
69.5054788431
 11
75.5920510791
 21
69.5079683931
  0
LINE
  5
2B4
100
AcDbEntity
  8
0
100
AcDbLine
 62
7
  6
CONTINUOUS
 10
75.9699783137
 20
69.598019855
 11
76.0773136418
 21
69.6005048571
  0
LINE
  5
2B5
100
AcDbEntity
  8
0
100
AcDbLine
 62
7
  6
CONTINUOUS
 10
75.7045376145
 20
70.0837502057
 11
75.5210852862
 21
70.0795029609
  0
LINE
  5
2B6
100
AcDbEntity
  8
0
100
AcDbLine
 62
7
  6
CONTINUOUS
 10
76.3149941738
 20
70.4542572217
 11
76.6403473322
 21
70.4617897208
  0
LINE
  5
2B7
100
AcDbEntity
  8
0
100
AcDbLine
 62
7
  6
CONTINUOUS
 10
76.1935355686
 20
70.6447626295
 11
76.2426733994
 21
70.6459002569
  0
LINE
  5
2B8
100
AcDbEntity
  8
0
100
AcDbLine
 62
7
  6
CONTINUOUS
 10
76.6335538695
 20
70.755221491
 11
76.308200711
 21
70.7476889919
  0
LINE
  5
2B9
100
AcDbEntity
  8
0
100
AcDbLine
 62
7
  6
CONTINUOUS
 10
75.974009931
 20
70.7729239193
 11
75.8620465491
 21
70.7703317696
  0
LINE
  5
2BA
100
AcDbEntity
  8
0
100
AcDbLine
 62
7
  6
CONTINUOUS
 10
75.7304040058
 20
70.8119999918
 11
75.7827260731
 21
70.8132113399
  0
LINE
  5
2BB
100
AcDbEntity
  8
0
100
AcDbLine
 62
7
  6
CONTINUOUS
 10
76.8803295895
 20
54.8804913905
 11
76.792491697
 21
54.9235725865
  0
LINE
  5
2BC
100
AcDbEntity
  8
0
100
AcDbLine
 62
7
  6
CONTINUOUS
 10
75.4549938472
 20
71.2148437889
 11
76.0283993839
 21
71.2281191379
  0
LINE
  5
2BD
100
AcDbEntity
  8
0
100
AcDbLine
 62
7
  6
CONTINUOUS
 10
13.1232713655
 20
69.9626365997
 11
9.6064354057
 21
69.8813946182
  0
LINE
  5
2BE
100
AcDbEntity
  8
0
100
AcDbLine
 62
7
  6
CONTINUOUS
 10
76.3093716966
 20
71.8208996021
 11
76.4468323687
 21
71.824082059
  0
LINE
  5
2BF
100
AcDbEntity
  8
0
100
AcDbLine
 62
7
  6
CONTINUOUS
 10
76.0092731518
 20
72.0542433645
 11
75.4358676151
 21
72.0409680156
  0
LINE
  5
2C0
100
AcDbEntity
  8
0
100
AcDbLine
 62
7
  6
CONTINUOUS
 10
76.2665620158
 20
72.273842889
 11
76.3255470219
 21
72.2752084959
  0
LINE
  5
2C1
100
AcDbEntity
  8
0
100
AcDbLine
 62
7
  6
CONTINUOUS
 10
76.5440575251
 20
72.2802673992
 11
76.6043227129
 21
72.2816626445
  0
LINE
  5
2C2
100
AcDbEntity
  8
0
100
AcDbLine
 62
7
  6
CONTINUOUS
 10
76.3486097979
 20
72.6876719934
 11
76.2795804775
 21
72.6860738429
  0
LINE
  5
2C3
100
AcDbEntity
  8
0
100
AcDbLine
 62
7
  6
CONTINUOUS
 10
76.5753853001
 20
72.7272498422
 11
76.5120674251
 21
72.7257839218
  0
LINE
  5
2C4
100
AcDbEntity
  8
0
100
AcDbLine
 62
7
  6
CONTINUOUS
 10
75.4096223627
 20
72.7192302572
 11
75.5787982452
 21
72.723146977
  0
LINE
  5
2C5
100
AcDbEntity
  8
0
100
AcDbLine
 62
7
  6
CONTINUOUS
 10
75.4192341267
 20
73.2099745945
 11
75.6096928321
 21
73.2143840492
  0
LINE
  5
2C6
100
AcDbEntity
  8
0
100
AcDbLine
 62
7
  6
CONTINUOUS
 10
76.4845748746
 20
58.7166838697
 11
76.5591153264
 21
58.6842488236
  0
LINE
  5
2C7
100
AcDbEntity
  8
0
100
AcDbLine
 62
7
  6
CONTINUOUS
 10
75.3837880286
 20
74.2947071684
 11
75.9609357153
 21
74.3080691547
  0
LINE
  5
2C8
100
AcDbEntity
  8
0
100
AcDbLine
 62
7
  6
CONTINUOUS
 10
46.4281189232
 20
75.9249487088
 11
46.3656367651
 21
75.9235021367
  0
LINE
  5
2C9
100
AcDbEntity
  8
0
100
AcDbLine
 62
7
  6
CONTINUOUS
 10
75.899961151
 20
63.4813519258
 11
75.9530229233
 21
63.457536012
  0
LINE
  5
2CA
100
AcDbEntity
  8
0
100
AcDbLine
 62
7
  6
CONTINUOUS
 10
76.1909854093
 20
70.7549123131
 11
76.1997636187
 21
70.7615261218
  0
LINE
  5
2CB
100
AcDbEntity
  8
0
100
AcDbLine
 62
7
  6
CONTINUOUS
 10
76.2394587047
 20
70.435795165
 11
76.2308347884
 21
70.4294900477
  0
LINE
  5
2CC
100
AcDbEntity
  8
0
100
AcDbLine
 62
7
  6
CONTINUOUS
 10
50.0947980765
 20
77.8051422331
 11
45.8238855982
 21
77.7323329739
  0
LINE
  5
2CD
100
AcDbEntity
  8
0
100
AcDbLine
 62
7
  6
CONTINUOUS
 10
45.8173087897
 20
77.7322356739
 11
45.8238855982
 21
77.7323329739
  0
LINE
  5
2CE
100
AcDbEntity
  8
0
100
AcDbLine
 62
7
  6
CONTINUOUS
 10
75.8107579862
 20
80.794734148
 11
75.2336102996
 21
80.7813721617
  0
LINE
  5
2CF
100
AcDbEntity
  8
0
100
AcDbLine
 62
7
  6
CONTINUOUS
 10
47.6030522
 20
82.0708028361
 11
46.3433898286
 21
82.0416394317
  0
LINE
  5
2D0
100
AcDbEntity
  8
0
100
AcDbLine
 62
7
  6
CONTINUOUS
 10
45.91508347
 20
82.0317233845
 11
45.0937175769
 21
82.0127073162
  0
LINE
  5
2D1
100
AcDbEntity
  8
0
100
AcDbLine
 62
7
  6
CONTINUOUS
 10
77.4824356803
 20
82.8455722733
 11
74.8007598072
 21
82.7834867497
  0
LINE
  5
2D2
100
AcDbEntity
  8
0
100
AcDbLine
 62
7
  6
CONTINUOUS
 10
19.4685213834
 20
81.5024478925
 11
14.8833071089
 21
81.3962920994
  0
LINE
  5
2D3
100
AcDbEntity
  8
0
100
AcDbLine
 62
7
  6
CONTINUOUS
 10
50.0437545829
 20
80.8047079619
 11
45.7729313486
 21
80.7319002164
  0
LINE
  5
2D4
100
AcDbEntity
  8
0
100
AcDbLine
 62
7
  6
CONTINUOUS
 10
76.598632907
 20
64.0578603645
 11
76.6358806438
 21
64.0329736932
  0
LINE
  5
2D5
100
AcDbEntity
  8
0
100
AcDbLine
 62
7
  6
CONTINUOUS
 10
76.5107499963
 20
58.0837541118
 11
76.4052766296
 21
58.183843685
  0
LINE
  5
2D6
100
AcDbEntity
  8
0
100
AcDbLine
 62
7
  6
CONTINUOUS
 10
76.3772896905
 20
56.3241022174
 11
76.5102295264
 21
56.1853454922
  0
LINE
  5
2D7
100
AcDbEntity
  8
0
100
AcDbLine
 62
7
  6
CONTINUOUS
 10
76.6077611273
 20
56.3958273027
 11
76.8029268461
 21
56.1921219512
  0
LINE
  5
2D8
100
AcDbEntity
  8
0
100
AcDbLine
 62
7
  6
CONTINUOUS
 10
75.5034526104
 20
63.7298786141
 11
75.4788019293
 21
63.709117081
  0
LINE
  5
2D9
100
AcDbEntity
  8
0
100
AcDbLine
 62
7
  6
CONTINUOUS
 10
75.3667979406
 20
64.6278090157
 11
75.3912762777
 21
64.6482893907
  0
LINE
  5
2DA
100
AcDbEntity
  8
0
100
AcDbLine
 62
7
  6
CONTINUOUS
 10
75.7298281029
 20
70.8368751163
 11
75.7827260731
 21
70.8132113399
  0
LINE
  5
2DB
100
AcDbEntity
  8
0
100
AcDbLine
 62
7
  6
CONTINUOUS
 10
76.8436278725
 20
55.5363267154
 11
76.9588142844
 21
55.4039429046
  0
LINE
  5
2DC
100
AcDbEntity
  8
0
100
AcDbLine
 62
7
  6
CONTINUOUS
 10
76.7635416782
 20
57.2336797868
 11
76.5395182059
 21
57.4922727136
  0
LINE
  5
2DD
100
AcDbEntity
  8
0
100
AcDbLine
 62
7
  6
CONTINUOUS
 10
76.5779175948
 20
57.8721176473
 11
76.650592029
 21
57.7843682302
  0
LINE
  5
2DE
100
AcDbEntity
  8
0
100
AcDbLine
 62
7
  6
CONTINUOUS
 10
76.719246454
 20
57.7127860989
 11
76.7919684613
 21
57.6187144893
  0
LINE
  5
2DF
100
AcDbEntity
  8
0
100
AcDbLine
 62
7
  6
CONTINUOUS
 10
76.7767412726
 20
55.6038846859
 11
76.7033683638
 21
55.7132989403
  0
LINE
  5
2E0
100
AcDbEntity
  8
0
100
AcDbLine
 62
7
  6
CONTINUOUS
 10
76.635793348
 20
55.7510297865
 11
76.5624561374
 21
55.8631543932
  0
LWPOLYLINE
  5
2E1
100
AcDbEntity
  8
0
100
AcDbPolyline
 62
7
  6
CONTINUOUS
 90
6
 70
0
 10
44.5328594364
 20
90.0807095754
 10
43.6713198208
 20
90.0221797456
 10
42.6685886461
 20
89.9272679746
 10
42.2090643663
 20
89.877648731
 10
41.3644112745
 20
89.7785118166
 10
40.7013456386
 20
89.6946600706
  0
LINE
  5
2E2
100
AcDbEntity
  8
0
100
AcDbLine
 62
7
  6
CONTINUOUS
 10
27.7084006476
 20
87.4254653006
 11
27.7063677031
 21
87.4253771289
  0
LINE
  5
2E3
100
AcDbEntity
  8
0
100
AcDbLine
 62
7
  6
CONTINUOUS
 10
44.8745725691
 20
90.0927864916
 11
44.5328655124
 21
90.080745094
  0
LINE
  5
2E4
100
AcDbEntity
  8
0
100
AcDbLine
 62
7
  6
CONTINUOUS
 10
47.4125848745
 20
90.1515459504
 11
44.9032502514
 21
90.0934504305
  0
LINE
  5
2E5
100
AcDbEntity
  8
0
100
AcDbLine
 62
7
  6
CONTINUOUS
 10
80.0310609757
 20
85.2467404221
 11
79.838062946
 21
85.2817717359
  0
LINE
  5
2E6
100
AcDbEntity
  8
0
100
AcDbLine
 62
7
  6
CONTINUOUS
 10
75.4536740021
 20
73.4263961028
 11
75.6096928321
 21
73.2143840492
  0
LINE
  5
2E7
100
AcDbEntity
  8
0
100
AcDbLine
 62
7
  6
CONTINUOUS
 10
75.6339999865
 20
46.793130947
 11
74.8007598072
 21
82.7834867497
  0
LINE
  5
2E8
100
AcDbEntity
  8
0
100
AcDbLine
 62
7
  6
CONTINUOUS
 10
75.5637858371
 20
54.7149080006
 11
75.5446700482
 21
55.5405811482
  0
LINE
  5
2E9
100
AcDbEntity
  8
0
100
AcDbLine
 62
7
  6
CONTINUOUS
 10
75.2820445942
 20
66.8842294343
 11
75.2629392487
 21
67.7094515027
  0
LINE
  5
2EA
100
AcDbEntity
  8
0
100
AcDbLine
 62
7
  6
CONTINUOUS
 10
75.4549938472
 20
71.2148437889
 11
75.4358676151
 21
72.0409680156
  0
LINE
  5
2EB
100
AcDbEntity
  8
0
100
AcDbLine
 62
7
  6
CONTINUOUS
 10
75.3837880286
 20
74.2947071684
 11
75.2336102996
 21
80.7813721617
  0
LINE
  5
2EC
100
AcDbEntity
  8
0
100
AcDbLine
 62
7
  6
CONTINUOUS
 10
75.7675101537
 20
57.741790999
 11
75.7483943278
 21
58.5674657461
  0
LINE
  5
2ED
100
AcDbEntity
  8
0
100
AcDbLine
 62
7
  6
CONTINUOUS
 10
75.6279616067
 20
63.769347018
 11
75.6088458179
 21
64.5950201656
  0
LINE
  5
2EE
100
AcDbEntity
  8
0
100
AcDbLine
 62
7
  6
CONTINUOUS
 10
75.9012767678
 20
61.5859457297
 11
75.8748867181
 21
62.7258178825
  0
LINE
  5
2EF
100
AcDbEntity
  8
0
100
AcDbLine
 62
7
  6
CONTINUOUS
 10
75.7309799176
 20
68.9416210577
 11
75.7045376145
 21
70.0837502057
  0
LINE
  5
2F0
100
AcDbEntity
  8
0
100
AcDbLine
 62
7
  6
CONTINUOUS
 10
76.097654653
 20
55.5533837165
 11
76.1167704418
 21
54.727710569
  0
LINE
  5
2F1
100
AcDbEntity
  8
0
100
AcDbLine
 62
7
  6
CONTINUOUS
 10
75.9859370444
 20
60.3873505424
 11
76.005042427
 21
59.5621268744
  0
LINE
  5
2F2
100
AcDbEntity
  8
0
100
AcDbLine
 62
7
  6
CONTINUOUS
 10
75.7165758321
 20
72.0474669056
 11
75.7357020642
 21
71.221342679
  0
LINE
  5
2F3
100
AcDbEntity
  8
0
100
AcDbLine
 62
7
  6
CONTINUOUS
 10
75.817401174
 20
67.7222882737
 11
75.8365065195
 21
66.8970662053
  0
LINE
  5
2F4
100
AcDbEntity
  8
0
100
AcDbLine
 62
7
  6
CONTINUOUS
 10
75.8898492198
 20
64.6015258896
 11
75.9089650086
 21
63.7758527421
  0
LINE
  5
2F5
100
AcDbEntity
  8
0
100
AcDbLine
 62
7
  6
CONTINUOUS
 10
75.5180606665
 20
80.7879576891
 11
75.6682383955
 21
74.3012926958
  0
LINE
  5
2F6
100
AcDbEntity
  8
0
100
AcDbLine
 62
7
  6
CONTINUOUS
 10
75.7827260731
 20
70.8132113399
 11
75.8263924506
 21
68.927118349
  0
LINE
  5
2F7
100
AcDbEntity
  8
0
100
AcDbLine
 62
7
  6
CONTINUOUS
 10
75.9530229233
 20
63.457536012
 11
75.9967101873
 21
61.5705408628
  0
LINE
  5
2F8
100
AcDbEntity
  8
0
100
AcDbLine
 62
7
  6
CONTINUOUS
 10
76.3903519727
 20
55.5601601754
 11
76.4094677615
 21
54.7344870279
  0
LINE
  5
2F9
100
AcDbEntity
  8
0
100
AcDbLine
 62
7
  6
CONTINUOUS
 10
76.2786343641
 20
60.3941270013
 11
76.2977397467
 21
59.5689033333
  0
LINE
  5
2FA
100
AcDbEntity
  8
0
100
AcDbLine
 62
7
  6
CONTINUOUS
 10
76.0092731518
 20
72.0542433645
 11
76.0283993839
 21
71.2281191379
  0
LINE
  5
2FB
100
AcDbEntity
  8
0
100
AcDbLine
 62
7
  6
CONTINUOUS
 10
76.1100984937
 20
67.7290647326
 11
76.1292038393
 21
66.9038426642
  0
LINE
  5
2FC
100
AcDbEntity
  8
0
100
AcDbLine
 62
7
  6
CONTINUOUS
 10
76.1825465395
 20
64.6083023486
 11
76.2016623284
 21
63.782629201
  0
LINE
  5
2FD
100
AcDbEntity
  8
0
100
AcDbLine
 62
7
  6
CONTINUOUS
 10
75.8107579862
 20
80.794734148
 11
75.9609357153
 21
74.3080691547
  0
LINE
  5
2FE
100
AcDbEntity
  8
0
100
AcDbLine
 62
7
  6
CONTINUOUS
 10
76.4052766296
 20
58.183843685
 11
76.4237758206
 21
57.3848034008
  0
LINE
  5
2FF
100
AcDbEntity
  8
0
100
AcDbLine
 62
7
  6
CONTINUOUS
 10
76.3986636862
 20
59.5716928217
 11
76.3690023356
 21
60.8528631114
  0
LINE
  5
300
100
AcDbEntity
  8
0
100
AcDbLine
 62
7
  6
CONTINUOUS
 10
76.3508585122
 20
61.6365539088
 11
76.3440441259
 21
61.9308894369
  0
LINE
  5
301
100
AcDbEntity
  8
0
100
AcDbLine
 62
7
  6
CONTINUOUS
 10
76.5393398115
 20
56.0301921014
 11
76.543217341
 21
55.8627089812
  0
LINE
  5
302
100
AcDbEntity
  8
0
100
AcDbLine
 62
7
  6
CONTINUOUS
 10
76.4327137905
 20
60.8543381439
 11
76.4549336768
 21
59.8945889242
  0
LINE
  5
303
100
AcDbEntity
  8
0
100
AcDbLine
 62
7
  6
CONTINUOUS
 10
76.5219226361
 20
57.6011714276
 11
76.5107499963
 21
58.0837541118
  0
LINE
  5
304
100
AcDbEntity
  8
0
100
AcDbLine
 62
7
  6
CONTINUOUS
 10
76.5624561374
 20
55.8631543932
 11
76.5737646509
 21
55.3747028817
  0
LINE
  5
305
100
AcDbEntity
  8
0
100
AcDbLine
 62
7
  6
CONTINUOUS
 10
76.5591153264
 20
58.6842488236
 11
76.5779175948
 21
57.8721176473
  0
LINE
  5
306
100
AcDbEntity
  8
0
100
AcDbLine
 62
7
  6
CONTINUOUS
 10
76.6493071334
 20
55.1673253996
 11
76.635793348
 21
55.7510297865
  0
LINE
  5
307
100
AcDbEntity
  8
0
100
AcDbLine
 62
7
  6
CONTINUOUS
 10
76.3883010523
 20
67.2878944997
 11
76.3773896796
 21
67.7591922079
  0
LINE
  5
308
100
AcDbEntity
  8
0
100
AcDbLine
 62
7
  6
CONTINUOUS
 10
76.3581693469
 20
68.5893809454
 11
76.3513758842
 21
68.8828127156
  0
LINE
  5
309
100
AcDbEntity
  8
0
100
AcDbLine
 62
7
  6
CONTINUOUS
 10
76.3149941738
 20
70.4542572217
 11
76.308200711
 21
70.7476889919
  0
LINE
  5
30A
100
AcDbEntity
  8
0
100
AcDbLine
 62
7
  6
CONTINUOUS
 10
76.5917737614
 20
59.8977570134
 11
76.5992152258
 21
59.5763359434
  0
LINE
  5
30B
100
AcDbEntity
  8
0
100
AcDbLine
 62
7
  6
CONTINUOUS
 10
76.3408565498
 20
70.7484450321
 11
76.3476500125
 21
70.4550132619
  0
LINE
  5
30C
100
AcDbEntity
  8
0
100
AcDbLine
 62
7
  6
CONTINUOUS
 10
76.3840317229
 20
68.8835687559
 11
76.3908251857
 21
68.5901369856
  0
LINE
  5
30D
100
AcDbEntity
  8
0
100
AcDbLine
 62
7
  6
CONTINUOUS
 10
76.5448908504
 20
61.9355393926
 11
76.5517052367
 21
61.6412038646
  0
LINE
  5
30E
100
AcDbEntity
  8
0
100
AcDbLine
 62
7
  6
CONTINUOUS
 10
76.650592029
 20
57.7843682302
 11
76.6320092546
 21
58.5870187471
  0
LINE
  5
30F
100
AcDbEntity
  8
0
100
AcDbLine
 62
7
  6
CONTINUOUS
 10
76.6036273507
 20
59.8980314449
 11
76.5821913028
 21
60.823924137
  0
LINE
  5
310
100
AcDbEntity
  8
0
100
AcDbLine
 62
7
  6
CONTINUOUS
 10
76.7033683638
 20
55.7132989403
 11
76.7193905355
 21
55.0212491862
  0
LINE
  5
311
100
AcDbEntity
  8
0
100
AcDbLine
 62
7
  6
CONTINUOUS
 10
76.4350945041
 20
67.7605281763
 11
76.4460058768
 21
67.2892304681
  0
LINE
  5
312
100
AcDbEntity
  8
0
100
AcDbLine
 62
7
  6
CONTINUOUS
 10
76.4527993396
 20
66.9957986979
 11
76.4587985207
 21
66.7366745344
  0
LINE
  5
313
100
AcDbEntity
  8
0
100
AcDbLine
 62
7
  6
CONTINUOUS
 10
76.6460015016
 20
60.8254014556
 11
76.6674375496
 21
59.8995087635
  0
LINE
  5
314
100
AcDbEntity
  8
0
100
AcDbLine
 62
7
  6
CONTINUOUS
 10
76.7022627602
 20
58.446367124
 11
76.719246454
 21
57.7127860989
  0
LINE
  5
315
100
AcDbEntity
  8
0
100
AcDbLine
 62
7
  6
CONTINUOUS
 10
76.792491697
 20
54.9235725865
 11
76.7767412726
 21
55.6038846859
  0
LINE
  5
316
100
AcDbEntity
  8
0
100
AcDbLine
 62
7
  6
CONTINUOUS
 10
76.6172445668
 20
62.9909752052
 11
76.5999159485
 21
63.7394546381
  0
LINE
  5
317
100
AcDbEntity
  8
0
100
AcDbLine
 62
7
  6
CONTINUOUS
 10
76.6358806438
 20
64.0329736932
 11
76.6601177119
 21
62.986095821
  0
LINE
  5
318
100
AcDbEntity
  8
0
100
AcDbLine
 62
7
  6
CONTINUOUS
 10
76.7919684613
 20
57.6187144893
 11
76.77743042
 21
58.2466598212
  0
LINE
  5
319
100
AcDbEntity
  8
0
100
AcDbLine
 62
7
  6
CONTINUOUS
 10
76.8320371313
 20
56.0369685603
 11
76.8436278725
 21
55.5363267154
  0
LINE
  5
31A
100
AcDbEntity
  8
0
100
AcDbLine
 62
7
  6
CONTINUOUS
 10
76.8207592773
 20
59.9030584318
 11
76.7978809462
 21
60.8912480304
  0
LINE
  5
31B
100
AcDbEntity
  8
0
100
AcDbLine
 62
7
  6
CONTINUOUS
 10
76.9407540812
 20
56.1840218698
 11
76.9588142844
 21
55.4039429046
  0
LINE
  5
31C
100
AcDbEntity
  8
0
100
AcDbLine
 62
7
  6
CONTINUOUS
 10
76.86159275
 20
60.892723071
 11
76.8919125455
 21
59.5831124023
  0
LINE
  5
31D
100
AcDbEntity
  8
0
100
AcDbLine
 62
7
  6
CONTINUOUS
 10
76.6335538695
 20
70.755221491
 11
76.6403473322
 21
70.4617897208
  0
LINE
  5
31E
100
AcDbEntity
  8
0
100
AcDbLine
 62
7
  6
CONTINUOUS
 10
76.6767290426
 20
68.8903452148
 11
76.6835225054
 21
68.5969134446
  0
LINE
  5
31F
100
AcDbEntity
  8
0
100
AcDbLine
 62
7
  6
CONTINUOUS
 10
76.8375881701
 20
61.9423158515
 11
76.8444025565
 21
61.6479803235
  0
LINE
  5
320
100
AcDbEntity
  8
0
100
AcDbLine
 62
7
  6
CONTINUOUS
 10
77.0726424884
 20
82.8360848385
 11
77.9058826677
 21
46.8457290358
  0
LINE
  5
321
100
AcDbEntity
  8
0
100
AcDbLine
 62
7
  6
CONTINUOUS
 10
78.3156758596
 20
46.8552164706
 11
77.4824356803
 21
82.8455722733
  0
LINE
  5
322
100
AcDbEntity
  8
0
100
AcDbLine
 62
7
  6
CONTINUOUS
 10
76.3644462659
 20
69.6758076758
 11
76.4244766908
 21
69.5213685403
  0
LINE
  5
323
100
AcDbEntity
  8
0
100
AcDbLine
 62
7
  6
CONTINUOUS
 10
76.4587985207
 20
66.7366745344
 11
76.3210442375
 21
67.2863373859
  0
LINE
  5
324
100
AcDbEntity
  8
0
100
AcDbLine
 62
7
  6
CONTINUOUS
 10
79.8380631161
 20
85.2817651193
 11
80.7815232827
 21
44.5306492667
  0
LINE
  5
325
100
AcDbEntity
  8
0
100
AcDbLine
 62
7
  6
CONTINUOUS
 10
80.9732010718
 20
44.5747248894
 11
80.0315753077
 21
85.2466069273
  0
LWPOLYLINE
  5
326
100
AcDbEntity
  8
0
100
AcDbPolyline
 62
7
  6
CONTINUOUS
 90
3
 70
0
 10
80.224554306
 20
43.5836147862
 10
80.8459387034
 20
44.0629063911
 10
80.9732038905
 20
44.5747249518
  0
LWPOLYLINE
  5
327
100
AcDbEntity
  8
0
100
AcDbPolyline
 62
7
  6
CONTINUOUS
 90
4
 70
0
 10
80.031577918
 20
85.2466069901
 10
79.9580827152
 20
85.6004033369
 10
79.7892138711
 20
85.8764495628
 10
79.2378691904
 20
86.2020078314
  0
ARC
  5
328
100
AcDbEntity
  8
0
100
AcDbCircle
 62
7
  6
CONTINUOUS
 10
28.1994728206
 20
62.229811176
 40
24.0279169468
100
AcDbArc
 50
106.3261994933
 51
107.4279080909
  0
ARC
  5
329
100
AcDbEntity
  8
0
100
AcDbCircle
 62
7
  6
CONTINUOUS
 10
28.0817426114
 20
62.6314397669
 40
24.0094279187
100
AcDbArc
 50
106.6962384104
 51
106.9325844072
  0
ARC
  5
32A
100
AcDbEntity
  8
0
100
AcDbCircle
 62
7
  6
CONTINUOUS
 10
28.081465776
 20
62.6323827248
 40
24.0084451805
100
AcDbArc
 50
106.3263332423
 51
106.6962521213
  0
ARC
  5
32B
100
AcDbEntity
  8
0
100
AcDbCircle
 62
7
  6
CONTINUOUS
 10
28.0802361705
 20
62.636392061
 40
24.0042515706
100
AcDbArc
 50
106.9325872798
 51
107.4360233466
  0
ARC
  5
32C
100
AcDbEntity
  8
0
100
AcDbCircle
 62
7
  6
CONTINUOUS
 10
25.8983779825
 20
57.0346973102
 40
15.9999777577
100
AcDbArc
 50
181.3260539422
 51
208.0298042969
  0
ARC
  5
32D
100
AcDbEntity
  8
0
100
AcDbCircle
 62
7
  6
CONTINUOUS
 10
25.8852986511
 20
57.0343945006
 40
15.9999777577
100
AcDbArc
 50
228.498717744
 51
256.3300855519
  0
ARC
  5
32E
100
AcDbEntity
  8
0
100
AcDbCircle
 62
7
  6
CONTINUOUS
 10
25.9084900684
 20
57.0349314228
 40
15.9999777577
100
AcDbArc
 50
181.3261953176
 51
256.3250349841
  0
ARC
  5
32F
100
AcDbEntity
  8
0
100
AcDbCircle
 62
7
  6
CONTINUOUS
 10
12.6252323471
 20
41.9197412181
 40
7.9939685058
100
AcDbArc
 50
59.2746346069
 51
60.5621005082
  0
ARC
  5
330
100
AcDbEntity
  8
0
100
AcDbCircle
 62
7
  6
CONTINUOUS
 10
23.4964321286
 20
47.1157615563
 40
5.791618172
100
AcDbArc
 50
254.0606256951
 51
255.5667316224
  0
ARC
  5
331
100
AcDbEntity
  8
0
100
AcDbCircle
 62
7
  6
CONTINUOUS
 10
23.4955323676
 20
47.1123199754
 40
5.7880609448
100
AcDbArc
 50
255.5668656698
 51
256.3205487688
  0
ARC
  5
332
100
AcDbEntity
  8
0
100
AcDbCircle
 62
7
  6
CONTINUOUS
 10
22.4807576243
 20
43.0374077833
 40
1.5948739258
100
AcDbArc
 50
250.3725270684
 51
256.3023874571
  0
ARC
  5
333
100
AcDbEntity
  8
0
100
AcDbCircle
 62
7
  6
CONTINUOUS
 10
15.5592446894
 20
44.8799287494
 40
0.0514082117
100
AcDbArc
 50
229.8205737068
 51
239.9082299021
  0
ARC
  5
334
100
AcDbEntity
  8
0
100
AcDbCircle
 62
7
  6
CONTINUOUS
 10
39.8936601235
 20
-100.7006696399
 40
191.0
100
AcDbArc
 50
78.1646565744
 51
79.8108986443
  0
ARC
  5
335
100
AcDbEntity
  8
0
100
AcDbCircle
 62
7
  6
CONTINUOUS
 10
39.8889131771
 20
-100.7007795401
 40
191.0
100
AcDbArc
 50
78.1110686467
 51
78.1632696301
  0
ARC
  5
336
100
AcDbEntity
  8
0
100
AcDbCircle
 62
7
  6
CONTINUOUS
 10
39.89795173
 20
-100.7005702814
 40
190.9999999997
100
AcDbArc
 50
79.8096390953
 51
87.7451941397
  0
ARC
  5
337
100
AcDbEntity
  8
0
100
AcDbCircle
 62
7
  6
CONTINUOUS
 10
40.9028834253
 20
-100.172663854
 40
189.4974760871
100
AcDbArc
 50
78.1432539928
 51
79.791320282
  0
ARC
  5
338
100
AcDbEntity
  8
0
100
AcDbCircle
 62
7
  6
CONTINUOUS
 10
45.3520079009
 20
7.978036822
 40
81.38800533
100
AcDbArc
 50
102.7513942682
 51
102.9397246853
  0
ARC
  5
339
100
AcDbEntity
  8
0
100
AcDbCircle
 62
7
  6
CONTINUOUS
 10
32.3295042774
 20
61.8298231431
 40
25.9791719028
100
AcDbArc
 50
105.6895300691
 51
106.1778390227
  0
ARC
  5
33A
100
AcDbEntity
  8
0
100
AcDbCircle
 62
7
  6
CONTINUOUS
 10
34.5442769414
 20
59.1354329159
 40
19.7521970162
100
AcDbArc
 50
241.2270945288
 51
242.9112954417
  0
ARC
  5
33B
100
AcDbEntity
  8
0
100
AcDbCircle
 62
7
  6
CONTINUOUS
 10
33.1677344083
 20
56.7456559945
 40
17.0091855482
100
AcDbArc
 50
226.2564936661
 51
228.2723931026
  0
ARC
  5
33C
100
AcDbEntity
  8
0
100
AcDbCircle
 62
7
  6
CONTINUOUS
 10
33.063144227
 20
56.6431911311
 40
16.8628443395
100
AcDbArc
 50
224.2782744042
 51
226.2725071837
  0
ARC
  5
33D
100
AcDbEntity
  8
0
100
AcDbCircle
 62
7
  6
CONTINUOUS
 10
32.8087260095
 20
56.3903991838
 40
16.5042069047
100
AcDbArc
 50
222.2691789534
 51
224.2665828736
  0
ARC
  5
33E
100
AcDbEntity
  8
0
100
AcDbCircle
 62
7
  6
CONTINUOUS
 10
45.7502778623
 20
52.5239579812
 40
14.420986061
100
AcDbArc
 50
270.4874418789
 51
270.961114739
  0
ARC
  5
33F
100
AcDbEntity
  8
0
100
AcDbCircle
 62
7
  6
CONTINUOUS
 10
45.7638028464
 20
51.6988211354
 40
13.5957384421
100
AcDbArc
 50
270.962453284
 51
271.3248192067
  0
ARC
  5
340
100
AcDbEntity
  8
0
100
AcDbCircle
 62
7
  6
CONTINUOUS
 10
46.3246409101
 20
48.2365860015
 40
1.5
100
AcDbArc
 50
90.9732012807
 51
270.9732012807
  0
ARC
  5
341
100
AcDbEntity
  8
0
100
AcDbCircle
 62
7
  6
CONTINUOUS
 10
47.1591912053
 20
48.598585381
 40
1.3682240735
100
AcDbArc
 50
113.1914461294
 51
121.7471559246
  0
ARC
  5
342
100
AcDbEntity
  8
0
100
AcDbCircle
 62
7
  6
CONTINUOUS
 10
47.1150104804
 20
48.7278622532
 40
1.2308667399
100
AcDbArc
 50
91.3343338518
 51
96.1223056113
  0
ARC
  5
343
100
AcDbEntity
  8
0
100
AcDbCircle
 62
7
  6
CONTINUOUS
 10
11.6339798176
 20
84.7356774069
 40
7.9939526481
100
AcDbArc
 50
302.08977557
 51
303.3778096937
  0
ARC
  5
344
100
AcDbEntity
  8
0
100
AcDbCircle
 62
7
  6
CONTINUOUS
 10
14.701823115
 20
81.9146281105
 40
0.0512777978
100
AcDbArc
 50
123.3857497754
 51
132.8337699349
  0
ARC
  5
345
100
AcDbEntity
  8
0
100
AcDbCircle
 62
7
  6
CONTINUOUS
 10
25.5923123712
 20
70.2512561903
 40
15.9998838454
100
AcDbArc
 50
154.6228014091
 51
181.3265616487
  0
ARC
  5
346
100
AcDbEntity
  8
0
100
AcDbCircle
 62
7
  6
CONTINUOUS
 10
25.5791642511
 20
70.2509517881
 40
15.9998838454
100
AcDbArc
 50
106.3255442287
 51
106.3912386899
  0
ARC
  5
347
100
AcDbEntity
  8
0
100
AcDbCircle
 62
7
  6
CONTINUOUS
 10
25.5786113789
 20
70.2509389882
 40
15.9998838454
100
AcDbArc
 50
106.5356791526
 51
134.1532176733
  0
ARC
  5
348
100
AcDbEntity
  8
0
100
AcDbCircle
 62
7
  6
CONTINUOUS
 10
25.5906002124
 20
70.2512165508
 40
15.9998838454
100
AcDbArc
 50
114.2557755895
 51
117.999157709
  0
ARC
  5
349
100
AcDbEntity
  8
0
100
AcDbCircle
 62
7
  6
CONTINUOUS
 10
25.6024620721
 20
70.2514911737
 40
15.9998838454
100
AcDbArc
 50
106.3237122777
 51
181.3265616427
  0
ARC
  5
34A
100
AcDbEntity
  8
0
100
AcDbCircle
 62
7
  6
CONTINUOUS
 10
25.3753901351
 20
71.24044441
 40
14.9851049737
100
AcDbArc
 50
107.4268325967
 51
110.643957697
  0
ARC
  5
34B
100
AcDbEntity
  8
0
100
AcDbCircle
 62
7
  6
CONTINUOUS
 10
28.1830806577
 20
65.3800721961
 40
24.246055524
100
AcDbArc
 50
255.2353144961
 51
256.3261531167
  0
ARC
  5
34C
100
AcDbEntity
  8
0
100
AcDbCircle
 62
7
  6
CONTINUOUS
 10
28.0321459552
 20
64.7603725575
 40
24.0082753706
100
AcDbArc
 50
255.7284753943
 51
256.0060805765
  0
ARC
  5
34D
100
AcDbEntity
  8
0
100
AcDbCircle
 62
7
  6
CONTINUOUS
 10
28.0306136877
 20
64.7543910573
 40
24.0021007215
100
AcDbArc
 50
255.2162247719
 51
255.586236418
  0
ARC
  5
34E
100
AcDbEntity
  8
0
100
AcDbCircle
 62
7
  6
CONTINUOUS
 10
22.7337834122
 20
80.0491181476
 40
5.7908157161
100
AcDbArc
 50
106.3322897465
 51
108.5914215058
  0
ARC
  5
34F
100
AcDbEntity
  8
0
100
AcDbCircle
 62
7
  6
CONTINUOUS
 10
21.5300616024
 20
84.0777180502
 40
1.5924155313
100
AcDbArc
 50
108.2541966703
 51
110.4253242795
  0
ARC
  5
350
100
AcDbEntity
  8
0
100
AcDbCircle
 62
7
  6
CONTINUOUS
 10
21.5243339111
 20
84.0953718154
 40
1.5738547351
100
AcDbArc
 50
106.3347089808
 51
106.893816255
  0
ARC
  5
351
100
AcDbEntity
  8
0
100
AcDbCircle
 62
7
  6
CONTINUOUS
 10
32.2641806931
 20
65.867323775
 40
26.0906543533
100
AcDbArc
 50
256.4949023536
 51
257.0012185989
  0
ARC
  5
352
100
AcDbEntity
  8
0
100
AcDbCircle
 62
7
  6
CONTINUOUS
 10
34.348822798
 20
68.5142456588
 40
19.7968607748
100
AcDbArc
 50
119.6766228192
 51
121.3732426383
  0
ARC
  5
353
100
AcDbEntity
  8
0
100
AcDbCircle
 62
7
  6
CONTINUOUS
 10
33.1649982445
 20
70.5587099673
 40
17.4631335104
100
AcDbArc
 50
134.4226424126
 51
136.3824796948
  0
ARC
  5
354
100
AcDbEntity
  8
0
100
AcDbCircle
 62
7
  6
CONTINUOUS
 10
32.7215802777
 20
70.9810803955
 40
16.8507477988
100
AcDbArc
 50
136.3821118742
 51
138.3740939501
  0
ARC
  5
355
100
AcDbEntity
  8
0
100
AcDbCircle
 62
7
  6
CONTINUOUS
 10
32.2649300525
 20
71.3868654389
 40
16.2398542488
100
AcDbArc
 50
138.3740481309
 51
140.4002571654
  0
ARC
  5
356
100
AcDbEntity
  8
0
100
AcDbCircle
 62
7
  6
CONTINUOUS
 10
46.758461258
 20
64.1294347155
 40
11.8
100
AcDbArc
 50
271.0523147491
 51
91.3262542757
  0
CIRCLE
  5
357
100
AcDbEntity
  8
0
100
AcDbCircle
 62
7
  6
CONTINUOUS
 10
46.6387587929
 20
64.1265002042
 40
11.7998368555
  0
CIRCLE
  5
358
100
AcDbEntity
  8
0
100
AcDbCircle
 62
7
  6
CONTINUOUS
 10
46.6358085686
 20
64.126432435
 40
11.7615481868
  0
ARC
  5
359
100
AcDbEntity
  8
0
100
AcDbCircle
 62
7
  6
CONTINUOUS
 10
46.5805432051
 20
64.1253155989
 40
10.3250000011
100
AcDbArc
 50
91.5911852782
 51
91.3255735204
  0
ARC
  5
35A
100
AcDbEntity
  8
0
100
AcDbCircle
 62
7
  6
CONTINUOUS
 10
46.5796653583
 20
64.168707801
 40
10.2815991042
100
AcDbArc
 50
91.3262768123
 51
91.5916443198
  0
CIRCLE
  5
35B
100
AcDbEntity
  8
0
100
AcDbCircle
 62
7
  6
CONTINUOUS
 10
46.5471157201
 20
64.1245416937
 40
10.1500000009
  0
CIRCLE
  5
35C
100
AcDbEntity
  8
0
100
AcDbCircle
 62
7
  6
CONTINUOUS
 10
46.5065204698
 20
64.1236018421
 40
9.1500000006
  0
CIRCLE
  5
35D
100
AcDbEntity
  8
0
100
AcDbCircle
 62
7
  6
CONTINUOUS
 10
46.4659269376
 20
64.1226620303
 40
8.2500000005
  0
CIRCLE
  5
35E
100
AcDbEntity
  8
0
100
AcDbCircle
 62
7
  6
CONTINUOUS
 10
46.4255007909
 20
64.1217251489
 40
7.1500011834
  0
CIRCLE
  5
35F
100
AcDbEntity
  8
0
100
AcDbCircle
 62
7
  6
CONTINUOUS
 10
46.4183350844
 20
64.121560195
 40
5.6500121548
  0
ARC
  5
360
100
AcDbEntity
  8
0
100
AcDbCircle
 62
7
  6
CONTINUOUS
 10
46.4457828138
 20
64.1221956583
 40
3.6500106445
100
AcDbArc
 50
91.679869274
 51
270.9726534619
  0
CIRCLE
  5
361
100
AcDbEntity
  8
0
100
AcDbCircle
 62
7
  6
CONTINUOUS
 10
46.4183241595
 20
64.1215589762
 40
3.650010611
  0
ARC
  5
362
100
AcDbEntity
  8
0
100
AcDbCircle
 62
7
  6
CONTINUOUS
 10
47.2304789873
 20
80.2217592264
 40
2.3695585677
100
AcDbArc
 50
171.3483241303
 51
176.6202503704
  0
ARC
  5
363
100
AcDbEntity
  8
0
100
AcDbCircle
 62
7
  6
CONTINUOUS
 10
45.9618462799
 20
79.419409087
 40
1.7167088937
100
AcDbArc
 50
75.8915543911
 51
91.009813642
  0
ARC
  5
364
100
AcDbEntity
  8
0
100
AcDbCircle
 62
7
  6
CONTINUOUS
 10
45.7981136641
 20
79.2321141731
 40
1.5
100
AcDbArc
 50
90.9732012807
 51
270.9732012807
  0
ARC
  5
365
100
AcDbEntity
  8
0
100
AcDbCircle
 62
7
  6
CONTINUOUS
 10
45.4938099284
 20
135.4750405967
 40
96.9503736162
100
AcDbArc
 50
259.8265921317
 51
260.0621638373
  0
ARC
  5
366
100
AcDbEntity
  8
0
100
AcDbCircle
 62
7
  6
CONTINUOUS
 10
41.2848472386
 20
112.0127670415
 40
73.113560804
100
AcDbArc
 50
259.6202213464
 51
259.825569557
  0
ARC
  5
367
100
AcDbEntity
  8
0
100
AcDbCircle
 62
7
  6
CONTINUOUS
 10
32.2771806734
 20
228.4653396514
 40
191.0000000004
100
AcDbArc
 50
274.9073285962
 51
282.8428836406
  0
ARC
  5
368
100
AcDbEntity
  8
0
100
AcDbCircle
 62
7
  6
CONTINUOUS
 10
32.2581013053
 20
228.46489793
 40
191.0
100
AcDbArc
 50
284.4922009786
 51
284.519968113
  0
ARC
  5
369
100
AcDbEntity
  8
0
100
AcDbCircle
 62
7
  6
CONTINUOUS
 10
32.272889067
 20
228.4652402928
 40
191.0
100
AcDbArc
 50
282.8441454409
 51
284.4903717113
  0
ARC
  5
36A
100
AcDbEntity
  8
0
100
AcDbCircle
 62
7
  6
CONTINUOUS
 10
32.2681421206
 20
228.4651303926
 40
191.0
100
AcDbArc
 50
284.4892531058
 51
284.5414540942
  0
ARC
  5
36B
100
AcDbEntity
  8
0
100
AcDbCircle
 62
7
  6
CONTINUOUS
 10
33.4226880617
 20
227.5031044734
 40
189.0020598773
100
AcDbArc
 50
282.8590423312
 51
284.5114288659
  0
ARC
  5
36C
100
AcDbEntity
  8
0
100
AcDbCircle
 62
7
  6
CONTINUOUS
 10
49.3292480315
 20
-9.567915544
 40
99.3790822875
100
AcDbArc
 50
102.5919314843
 51
102.7550761128
  0
ARC
  5
36D
100
AcDbEntity
  8
0
100
AcDbCircle
 62
7
  6
CONTINUOUS
 10
66.1943883024
 20
55.7394451234
 40
10.9156142484
100
AcDbArc
 50
2.3994667693
 51
5.8519211058
  0
ARC
  5
36E
100
AcDbEntity
  8
0
100
AcDbCircle
 62
7
  6
CONTINUOUS
 10
65.0881248285
 20
50.4534113637
 40
10.8077138516
100
AcDbArc
 50
356.4911189816
 51
357.1757662702
  0
ARC
  5
36F
100
AcDbEntity
  8
0
100
AcDbCircle
 62
7
  6
CONTINUOUS
 10
86.2860325173
 20
53.7022308546
 40
10.4328451941
100
AcDbArc
 50
176.4906213114
 51
181.3470125725
  0
ARC
  5
370
100
AcDbEntity
  8
0
100
AcDbCircle
 62
7
  6
CONTINUOUS
 10
85.8859370067
 20
57.8673013754
 40
10.0240861729
100
AcDbArc
 50
184.4789071234
 51
186.0677252441
  0
ARC
  5
371
100
AcDbEntity
  8
0
100
AcDbCircle
 62
7
  6
CONTINUOUS
 10
66.440835601
 20
53.2850593469
 40
10.0115334844
100
AcDbArc
 50
1.2591388882
 51
6.3539656991
  0
ARC
  5
372
100
AcDbEntity
  8
0
100
AcDbCircle
 62
7
  6
CONTINUOUS
 10
85.7809521525
 20
57.8547833608
 40
9.9183663697
100
AcDbArc
 50
186.0599233514
 51
187.6776908793
  0
ARC
  5
373
100
AcDbEntity
  8
0
100
AcDbCircle
 62
7
  6
CONTINUOUS
 10
85.9996710891
 20
57.855452077
 40
9.8442359298
100
AcDbArc
 50
182.8801379028
 51
187.6999855681
  0
ARC
  5
374
100
AcDbEntity
  8
0
100
AcDbCircle
 62
7
  6
CONTINUOUS
 10
85.5987122283
 20
57.8440143881
 40
9.7359200382
100
AcDbArc
 50
183.9037383635
 51
184.4742821665
  0
ARC
  5
375
100
AcDbEntity
  8
0
100
AcDbCircle
 62
7
  6
CONTINUOUS
 10
68.332410908
 20
55.8354899394
 40
8.7754475423
100
AcDbArc
 50
0.3717727535
 51
2.3573580374
  0
ARC
  5
376
100
AcDbEntity
  8
0
100
AcDbCircle
 62
7
  6
CONTINUOUS
 10
84.3152039092
 20
57.5658838763
 40
8.052623069
100
AcDbArc
 50
192.4467378742
 51
193.1151637239
  0
ARC
  5
377
100
AcDbEntity
  8
0
100
AcDbCircle
 62
7
  6
CONTINUOUS
 10
69.2675198456
 20
56.0665829074
 40
7.8278566343
100
AcDbArc
 50
11.7910874428
 51
13.1319713712
  0
ARC
  5
378
100
AcDbEntity
  8
0
100
AcDbCircle
 62
7
  6
CONTINUOUS
 10
83.7914176228
 20
57.4494980338
 40
7.5160626129
100
AcDbArc
 50
192.1673357159
 51
192.4409617031
  0
ARC
  5
379
100
AcDbEntity
  8
0
100
AcDbCircle
 62
7
  6
CONTINUOUS
 10
69.6511091643
 20
56.2080889375
 40
7.1355928773
100
AcDbArc
 50
8.9823092401
 51
10.691956568
  0
ARC
  5
37A
100
AcDbEntity
  8
0
100
AcDbCircle
 62
7
  6
CONTINUOUS
 10
70.0451767025
 20
56.2321454443
 40
7.032778004
100
AcDbArc
 50
8.757995338
 51
11.7653455765
  0
ARC
  5
37B
100
AcDbEntity
  8
0
100
AcDbCircle
 62
7
  6
CONTINUOUS
 10
69.797285765
 20
56.2341684276
 40
6.9871157367
100
AcDbArc
 50
10.704201361
 51
11.3394962905
  0
ARC
  5
37C
100
AcDbEntity
  8
0
100
AcDbCircle
 62
7
  6
CONTINUOUS
 10
70.5519470896
 20
62.3110025374
 40
5.585242427
100
AcDbArc
 50
1.3519751019
 51
4.6158157957
  0
ARC
  5
37D
100
AcDbEntity
  8
0
100
AcDbCircle
 62
7
  6
CONTINUOUS
 10
80.8578308273
 20
59.5422043659
 40
5.1412664654
100
AcDbArc
 50
179.8631316829
 51
181.3270182987
  0
ARC
  5
37E
100
AcDbEntity
  8
0
100
AcDbCircle
 62
7
  6
CONTINUOUS
 10
80.8473506639
 20
56.506070159
 40
5.0605160821
100
AcDbArc
 50
179.7593412514
 51
181.3250572215
  0
ARC
  5
37F
100
AcDbEntity
  8
0
100
AcDbCircle
 62
7
  6
CONTINUOUS
 10
72.0048583274
 20
63.3061841363
 40
4.805975085
100
AcDbArc
 50
1.303209969
 51
3.6785291335
  0
ARC
  5
380
100
AcDbEntity
  8
0
100
AcDbCircle
 62
7
  6
CONTINUOUS
 10
72.4948041632
 20
56.8223600856
 40
4.5132601733
100
AcDbArc
 50
13.0965392225
 51
18.3958995064
  0
ARC
  5
381
100
AcDbEntity
  8
0
100
AcDbCircle
 62
7
  6
CONTINUOUS
 10
80.7589268254
 20
56.7337049362
 40
4.4002805605
100
AcDbArc
 50
193.0693193462
 51
197.9896030864
  0
ARC
  5
382
100
AcDbEntity
  8
0
100
AcDbCircle
 62
7
  6
CONTINUOUS
 10
79.7675668555
 20
57.8660096161
 40
3.5072661892
100
AcDbArc
 50
174.6149785846
 51
175.7299999253
  0
ARC
  5
383
100
AcDbEntity
  8
0
100
AcDbCircle
 62
7
  6
CONTINUOUS
 10
79.3850965171
 20
57.9014019304
 40
3.1231624409
100
AcDbArc
 50
174.1056712913
 51
174.6029076182
  0
ARC
  5
384
100
AcDbEntity
  8
0
100
AcDbCircle
 62
7
  6
CONTINUOUS
 10
73.7431201885
 20
63.4676530491
 40
3.0011993338
100
AcDbArc
 50
7.1441760329
 51
10.3839516953
  0
ARC
  5
385
100
AcDbEntity
  8
0
100
AcDbCircle
 62
7
  6
CONTINUOUS
 10
73.8281917447
 20
55.6699339209
 40
2.98138954
100
AcDbArc
 50
353.636487124
 51
354.6739141689
  0
ARC
  5
386
100
AcDbEntity
  8
0
100
AcDbCircle
 62
7
  6
CONTINUOUS
 10
74.1746328146
 20
55.6315631416
 40
2.6328301436
100
AcDbArc
 50
352.8557443844
 51
353.6307463634
  0
ARC
  5
387
100
AcDbEntity
  8
0
100
AcDbCircle
 62
7
  6
CONTINUOUS
 10
78.0915495892
 20
63.254300844
 40
1.6062091631
100
AcDbArc
 50
189.9737572007
 51
190.7867460282
  0
ARC
  5
388
100
AcDbEntity
  8
0
100
AcDbCircle
 62
7
  6
CONTINUOUS
 10
77.0337885886
 20
58.3030475576
 40
1.1382738608
100
AcDbArc
 50
167.1313725839
 51
168.5809881903
  0
ARC
  5
389
100
AcDbEntity
  8
0
100
AcDbCircle
 62
7
  6
CONTINUOUS
 10
57.6466628939
 20
215.8086734541
 40
178.203095685
100
AcDbArc
 50
262.724488501
 51
263.5735675197
  0
ARC
  5
38A
100
AcDbEntity
  8
0
100
AcDbCircle
 62
7
  6
CONTINUOUS
 10
57.398610529
 20
213.8780995431
 40
176.256656689
100
AcDbArc
 50
262.598347245
 51
262.7249975815
  0
ARC
  5
38B
100
AcDbEntity
  8
0
100
AcDbCircle
 62
7
  6
CONTINUOUS
 10
57.0406609102
 20
211.1343377607
 40
173.4896448802
100
AcDbArc
 50
262.0928479934
 51
262.5988439685
  0
ARC
  5
38C
100
AcDbEntity
  8
0
100
AcDbCircle
 62
7
  6
CONTINUOUS
 10
56.9666924083
 20
209.7919057148
 40
172.1480286985
100
AcDbArc
 50
263.5743186379
 51
263.7547244335
  0
ARC
  5
38D
100
AcDbEntity
  8
0
100
AcDbCircle
 62
7
  6
CONTINUOUS
 10
81.311629403
 20
66.3361803608
 40
5.7521942007
100
AcDbArc
 50
181.3063442414
 51
185.8851663675
  0
ARC
  5
38E
100
AcDbEntity
  8
0
100
AcDbCircle
 62
7
  6
CONTINUOUS
 10
70.343237225
 20
69.664906651
 40
5.6236861335
100
AcDbArc
 50
1.351587905
 51
4.6000860717
  0
ARC
  5
38F
100
AcDbEntity
  8
0
100
AcDbCircle
 62
7
  6
CONTINUOUS
 10
71.381601315
 20
72.1662208564
 40
5.223997091
100
AcDbArc
 50
1.2662460521
 51
6.165146321
  0
ARC
  5
390
100
AcDbEntity
  8
0
100
AcDbCircle
 62
7
  6
CONTINUOUS
 10
71.5914765742
 20
65.4311886929
 40
5.1700642088
100
AcDbArc
 50
1.2653270481
 51
6.1903425527
  0
ARC
  5
391
100
AcDbEntity
  8
0
100
AcDbCircle
 62
7
  6
CONTINUOUS
 10
71.1019241189
 20
66.0567342916
 40
5.0563748213
100
AcDbArc
 50
356.376351824
 51
1.3047297895
  0
ARC
  5
392
100
AcDbEntity
  8
0
100
AcDbCircle
 62
7
  6
CONTINUOUS
 10
71.1875236177
 20
66.060139271
 40
4.9707201976
100
AcDbArc
 50
1.287958416
 51
4.1012510766
  0
ARC
  5
393
100
AcDbEntity
  8
0
100
AcDbCircle
 62
7
  6
CONTINUOUS
 10
79.0282739948
 20
66.5085415263
 40
3.3533702097
100
AcDbArc
 50
178.6849860969
 51
181.3587685185
  0
ARC
  5
394
100
AcDbEntity
  8
0
100
AcDbCircle
 62
7
  6
CONTINUOUS
 10
78.7165667767
 20
66.51698372
 40
3.0415516156
100
AcDbArc
 50
175.7806929735
 51
178.709220877
  0
ARC
  5
395
100
AcDbEntity
  8
0
100
AcDbCircle
 62
7
  6
CONTINUOUS
 10
78.5262055878
 20
66.4964384347
 40
2.8511559868
100
AcDbArc
 50
181.3548647425
 51
185.9159990211
  0
ARC
  5
396
100
AcDbEntity
  8
0
100
AcDbCircle
 62
7
  6
CONTINUOUS
 10
78.4413672064
 20
66.5385094724
 40
2.765514435
100
AcDbArc
 50
172.6170883693
 51
175.8059648823
  0
ARC
  5
397
100
AcDbEntity
  8
0
100
AcDbCircle
 62
7
  6
CONTINUOUS
 10
74.1383640584
 20
66.466454039
 40
1.8847620431
100
AcDbArc
 50
12.55947203
 51
13.3053862126
  0
SPLINE
  5
398
100
AcDbEntity
  8
0
100
AcDbSpline
 62
7
  6
CONTINUOUS
 70
0
 71
3
 72
31
 73
27
 74
0
 42
0.0000001
 43
0.0000001
 44
0.0000000001
 40
0.0
 40
0.0
 40
0.0
 40
0.0
 40
0.0282088332
 40
0.0565661073
 40
0.0851637001
 40
0.1141249948
 40
0.1435392842
 40
0.1734717579
 40
0.2039664172
 40
0.2350416584
 40
0.2988261347
 40
0.3646289064
 40
0.4319191443
 40
0.4999956612
 40
0.5680724882
 40
0.6353636141
 40
0.7011677477
 40
0.7649538631
 40
0.7960299503
 40
0.8265254287
 40
0.8564586895
 40
0.8858736654
 40
0.9148355082
 40
0.9434335355
 40
0.9717911139
 40
1.0
 40
1.0
 40
1.0
 40
1.0
 10
50.0959389342
 20
77.8051615817
 30
0.0
 10
50.4776920872
 20
77.8116141593
 30
0.0
 10
51.2446692167
 20
77.780360046
 30
0.0
 10
52.3858605386
 20
77.6018008664
 30
0.0
 10
53.5093843761
 20
77.2922966774
 30
0.0
 10
54.6046485241
 20
76.8543871523
 30
0.0
 10
55.6616789278
 20
76.2914857702
 30
0.0
 10
56.670168535
 20
75.6081185216
 30
0.0
 10
57.6201347288
 20
74.8100772576
 30
0.0
 10
58.8056417291
 20
73.5929887642
 30
0.0
 10
60.0876117783
 20
71.8189639016
 30
0.0
 10
61.2362717896
 20
69.3993890628
 30
0.0
 10
61.9643583474
 20
66.7617725758
 30
0.0
 10
62.2418459202
 20
64.0092039774
 30
0.0
 10
62.0577911178
 20
61.2488008038
 30
0.0
 10
61.4194897671
 20
58.587994327
 30
0.0
 10
60.3534686676
 20
56.1308334777
 30
0.0
 10
59.1323357928
 20
54.3143329868
 30
0.0
 10
57.9887337058
 20
53.05772751
 30
0.0
 10
57.0663424953
 20
52.2279190521
 30
0.0
 10
56.0815755528
 20
51.5107357581
 30
0.0
 10
55.0442131382
 20
50.9123079508
 30
0.0
 10
53.9644066351
 20
50.437503431
 30
0.0
 10
52.8520067476
 20
50.0900759689
 30
0.0
 10
51.7175159744
 20
49.8729208846
 30
0.0
 10
50.9520349572
 20
49.8156760685
 30
0.0
 10
50.570281829
 20
49.8091797903
 30
0.0
  0
SPLINE
  5
399
100
AcDbEntity
  8
0
100
AcDbSpline
 62
7
  6
CONTINUOUS
 70
0
 71
3
 72
33
 73
29
 74
0
 42
0.0000001
 43
0.0000001
 44
0.0000000001
 40
0.0
 40
0.0
 40
0.0
 40
0.0
 40
0.0293661897
 40
0.0588115839
 40
0.0883963348
 40
0.1181909599
 40
0.1482511555
 40
0.1786227927
 40
0.2093400167
 40
0.24042315
 40
0.2718783086
 40
0.3036971509
 40
0.3682578717
 40
0.4338507343
 40
0.4999994077
 40
0.5661481249
 40
0.6317411148
 40
0.6963020373
 40
0.7281209893
 40
0.7595762648
 40
0.7906595155
 40
0.8213768536
 40
0.8517485893
 40
0.8818088685
 40
0.9116035688
 40
0.9411883629
 40
0.9706337961
 40
1.0
 40
1.0
 40
1.0
 40
1.0
 10
50.0452387159
 20
80.8047331324
 30
0.0
 10
50.5348787883
 20
80.8130092673
 30
0.0
 10
51.5173205936
 20
80.7738527303
 30
0.0
 10
52.9771610321
 20
80.5489608264
 30
0.0
 10
54.4097343019
 20
80.160377035
 30
0.0
 10
55.8002178807
 20
79.6127034209
 30
0.0
 10
57.1350041716
 20
78.9120906673
 30
0.0
 10
58.4012164467
 20
78.0662307529
 30
0.0
 10
59.5869490618
 20
77.0840293502
 30
0.0
 10
60.6813015305
 20
75.9756141356
 30
0.0
 10
61.6745210896
 20
74.7519807325
 30
0.0
 10
62.8573250679
 20
72.9752888532
 30
0.0
 10
64.0359245386
 20
70.5271112411
 30
0.0
 10
64.9214862391
 20
67.3590987099
 30
0.0
 10
65.2579840618
 20
64.0602126746
 30
0.0
 10
65.0334289063
 20
60.7518185476
 30
0.0
 10
64.2556890467
 20
57.5556210554
 30
0.0
 10
63.1607138017
 20
55.0689092367
 30
0.0
 10
62.0387834236
 20
53.2531555531
 30
0.0
 10
61.0875992226
 20
51.996561131
 30
0.0
 10
60.0314369785
 20
50.8516895015
 30
0.0
 10
58.8796713767
 20
49.8298609137
 30
0.0
 10
57.6428569006
 20
48.9415610056
 30
0.0
 10
56.3325862067
 20
48.1960973024
 30
0.0
 10
54.9614671952
 20
47.6015948581
 30
0.0
 10
53.5428912878
 20
47.1646585786
 30
0.0
 10
52.0915145378
 20
46.8903947539
 30
0.0
 10
51.1109646801
 20
46.8179462354
 30
0.0
 10
50.6213253226
 20
46.8096140615
 30
0.0
  0
SPLINE
  5
39A
100
AcDbEntity
  8
0
100
AcDbSpline
 62
7
  6
CONTINUOUS
 70
0
 71
3
 72
10
 73
6
 74
0
 42
0.0000001
 43
0.0000001
 44
0.0000000001
 40
0.0
 40
0.0
 40
0.0
 40
0.0
 40
0.5079431482
 40
0.7569154741
 40
1.0
 40
1.0
 40
1.0
 40
1.0
 10
45.9315915852
 20
81.1358513608
 30
0.0
 10
45.7418084753
 20
81.132627368
 30
0.0
 10
45.4565320983
 20
81.0804945223
 30
0.0
 10
45.1173335659
 20
80.9206310625
 30
0.0
 10
44.9666015615
 20
80.8130184494
 30
0.0
 10
44.8980986901
 20
80.7533635796
 30
0.0
  0
SPLINE
  5
39B
100
AcDbEntity
  8
0
100
AcDbSpline
 62
7
  6
CONTINUOUS
 70
0
 71
3
 72
16
 73
12
 74
0
 42
0.0000001
 43
0.0000001
 44
0.0000000001
 40
0.0
 40
0.0
 40
0.0
 40
0.0
 40
0.1606120921
 40
0.3168163035
 40
0.4641721048
 40
0.5992953449
 40
0.7197219005
 40
0.824752357
 40
0.9163320553
 40
0.9587559065
 40
1.0
 40
1.0
 40
1.0
 40
1.0
 10
49.3045653023
 20
79.2919995795
 30
0.0
 10
49.3062236449
 20
79.1943765138
 30
0.0
 10
49.3190608518
 20
79.0018297049
 30
0.0
 10
49.3663358619
 20
78.7231378475
 30
0.0
 10
49.4399298451
 20
78.4661683796
 30
0.0
 10
49.5369655935
 20
78.2404260629
 30
0.0
 10
49.6543605346
 20
78.0539749784
 30
0.0
 10
49.7883621058
 20
77.9132631629
 30
0.0
 10
49.9153983176
 20
77.8373506514
 30
0.0
 10
50.0186197261
 20
77.8088820265
 30
0.0
 10
50.0696844789
 20
77.8047177483
 30
0.0
 10
50.0947534545
 20
77.8051414763
 30
0.0
  0
SPLINE
  5
39C
100
AcDbEntity
  8
0
100
AcDbSpline
 62
7
  6
CONTINUOUS
 70
0
 71
3
 72
9
 73
5
 74
0
 42
0.0000001
 43
0.0000001
 44
0.0000000001
 40
0.0
 40
0.0
 40
0.0
 40
0.0
 40
0.5027236756
 40
1.0
 40
1.0
 40
1.0
 40
1.0
 10
46.522726231
 20
46.3370243265
 30
0.0
 10
46.6354479898
 20
46.3389392184
 30
0.0
 10
46.8598349683
 20
46.3647031801
 30
0.0
 10
47.0749180868
 20
46.4339652471
 30
0.0
 10
47.1769947214
 20
46.4788681953
 30
0.0
  0
SPLINE
  5
39D
100
AcDbEntity
  8
0
100
AcDbSpline
 62
7
  6
CONTINUOUS
 70
0
 71
3
 72
16
 73
12
 74
0
 42
0.0000001
 43
0.0000001
 44
0.0000000001
 40
0.0
 40
0.0
 40
0.0
 40
0.0
 40
0.1606158607
 40
0.3168213705
 40
0.4641767004
 40
0.599297664
 40
0.7197196649
 40
0.8247590776
 40
0.9163037525
 40
0.9587024127
 40
1.0
 40
1.0
 40
1.0
 40
1.0
 10
47.7651476698
 20
48.2613153041
 30
0.0
 10
47.7634894023
 20
48.3589339487
 30
0.0
 10
47.7697790891
 20
48.5517955215
 30
0.0
 10
47.8075569329
 20
48.831915763
 30
0.0
 10
47.8723768624
 20
49.091218768
 30
0.0
 10
47.9616871006
 20
49.3201017841
 30
0.0
 10
48.0726587064
 20
49.5104353232
 30
0.0
 10
48.201825898
 20
49.6555510431
 30
0.0
 10
48.3261451911
 20
49.7357466548
 30
0.0
 10
48.4283265594
 20
49.7677210628
 30
0.0
 10
48.4792372349
 20
49.7735965491
 30
0.0
 10
48.5043369504
 20
49.7740236865
 30
0.0
  0
SPLINE
  5
39E
100
AcDbEntity
  8
0
100
AcDbSpline
 62
7
  6
CONTINUOUS
 70
0
 71
3
 72
16
 73
12
 74
0
 42
0.0000001
 43
0.0000001
 44
0.0000000001
 40
0.0
 40
0.0
 40
0.0
 40
0.0
 40
0.1606120921
 40
0.3168163035
 40
0.4641721048
 40
0.5992953449
 40
0.7197219005
 40
0.824752357
 40
0.9163320553
 40
0.9587559065
 40
1.0
 40
1.0
 40
1.0
 40
1.0
 10
49.8310925484
 20
48.2964714079
 30
0.0
 10
49.832750891
 20
48.1988483422
 30
0.0
 10
49.8455880978
 20
48.0063015332
 30
0.0
 10
49.892863108
 20
47.7276096758
 30
0.0
 10
49.9664570912
 20
47.470640208
 30
0.0
 10
50.0634928395
 20
47.2448978913
 30
0.0
 10
50.1808877807
 20
47.0584468068
 30
0.0
 10
50.3148893519
 20
46.9177349913
 30
0.0
 10
50.4419255637
 20
46.8418224798
 30
0.0
 10
50.5451469722
 20
46.8133538549
 30
0.0
 10
50.596211725
 20
46.8091895767
 30
0.0
 10
50.6212807006
 20
46.8096133047
 30
0.0
  0
SPLINE
  5
39F
100
AcDbEntity
  8
0
100
AcDbSpline
 62
7
  6
CONTINUOUS
 70
0
 71
3
 72
16
 73
12
 74
0
 42
0.0000001
 43
0.0000001
 44
0.0000000001
 40
0.0
 40
0.0
 40
0.0
 40
0.0
 40
0.04129651
 40
0.0836947667
 40
0.1752403255
 40
0.2802819445
 40
0.4007063633
 40
0.5358290329
 40
0.683184622
 40
0.8393883521
 40
1.0
 40
1.0
 40
1.0
 40
1.0
 10
48.555335822
 20
46.7744572009
 30
0.0
 10
48.5302349167
 20
46.7740329332
 30
0.0
 10
48.4791515327
 20
46.7781791276
 30
0.0
 10
48.3759378256
 20
46.8066727106
 30
0.0
 10
48.2489601085
 20
46.8826123395
 30
0.0
 10
48.1149313539
 20
47.0232737312
 30
0.0
 10
47.9975517589
 20
47.2097466973
 30
0.0
 10
47.9005124388
 20
47.435483335
 30
0.0
 10
47.8269174259
 20
47.6924535788
 30
0.0
 10
47.7796436377
 20
47.9711454435
 30
0.0
 10
47.7668060124
 20
48.1636922367
 30
0.0
 10
47.7651476698
 20
48.2613153041
 30
0.0
  0
SPLINE
  5
3A0
100
AcDbEntity
  8
0
100
AcDbSpline
 62
7
  6
CONTINUOUS
 70
0
 71
3
 72
16
 73
12
 74
0
 42
0.0000001
 43
0.0000001
 44
0.0000000001
 40
0.0
 40
0.0
 40
0.0
 40
0.0
 40
0.1606158607
 40
0.3168213705
 40
0.4641767004
 40
0.599297664
 40
0.7197196649
 40
0.8247590776
 40
0.9163037525
 40
0.9587024127
 40
1.0
 40
1.0
 40
1.0
 40
1.0
 10
47.2386204237
 20
79.2568434757
 30
0.0
 10
47.2369621562
 20
79.3544621204
 30
0.0
 10
47.243251843
 20
79.5473236931
 30
0.0
 10
47.2810296868
 20
79.8274439346
 30
0.0
 10
47.3458496164
 20
80.0867469397
 30
0.0
 10
47.4351598545
 20
80.3156299557
 30
0.0
 10
47.5461314603
 20
80.5059634948
 30
0.0
 10
47.6752986519
 20
80.6510792147
 30
0.0
 10
47.799617945
 20
80.7312748264
 30
0.0
 10
47.9017993133
 20
80.7632492344
 30
0.0
 10
47.9527099888
 20
80.7691247207
 30
0.0
 10
47.9778097043
 20
80.7695518581
 30
0.0
  0
SPLINE
  5
3A1
100
AcDbEntity
  8
0
100
AcDbSpline
 62
7
  6
CONTINUOUS
 70
0
 71
3
 72
16
 73
12
 74
0
 42
0.0000001
 43
0.0000001
 44
0.0000000001
 40
0.0
 40
0.0
 40
0.0
 40
0.0
 40
0.0412452325
 40
0.083669508
 40
0.1752482995
 40
0.2802765493
 40
0.4007006822
 40
0.5358222066
 40
0.6831777362
 40
0.8393837119
 40
1.0
 40
1.0
 40
1.0
 40
1.0
 10
50.570281829
 20
49.8091797903
 30
0.0
 10
50.5452140035
 20
49.8087531792
 30
0.0
 10
50.4943225135
 20
49.8028602386
 30
0.0
 10
50.3921325635
 20
49.7709105078
 30
0.0
 10
50.2677539291
 20
49.6907399553
 30
0.0
 10
50.1386156432
 20
49.5455747715
 30
0.0
 10
50.0276279743
 20
49.3552625787
 30
0.0
 10
49.9383215192
 20
49.1263740186
 30
0.0
 10
49.8735026044
 20
48.8670718448
 30
0.0
 10
49.8357235477
 20
48.5869515953
 30
0.0
 10
49.8294342811
 20
48.3940900407
 30
0.0
 10
49.8310925484
 20
48.2964714079
 30
0.0
  0
SPLINE
  5
3A2
100
AcDbEntity
  8
0
100
AcDbSpline
 62
7
  6
CONTINUOUS
 70
0
 71
3
 72
16
 73
12
 74
0
 42
0.0000001
 43
0.0000001
 44
0.0000000001
 40
0.0
 40
0.0
 40
0.0
 40
0.0
 40
0.0412452325
 40
0.083669508
 40
0.1752482995
 40
0.2802765493
 40
0.4007006822
 40
0.5358222066
 40
0.6831777362
 40
0.8393837119
 40
1.0
 40
1.0
 40
1.0
 40
1.0
 10
50.0437545829
 20
80.8047079619
 30
0.0
 10
50.0186867575
 20
80.8042813508
 30
0.0
 10
49.9677952674
 20
80.7983884102
 30
0.0
 10
49.8656053174
 20
80.7664386794
 30
0.0
 10
49.741226683
 20
80.686268127
 30
0.0
 10
49.6120883971
 20
80.5411029432
 30
0.0
 10
49.5011007282
 20
80.3507907503
 30
0.0
 10
49.4117942731
 20
80.1219021902
 30
0.0
 10
49.3469753583
 20
79.8626000164
 30
0.0
 10
49.3091963016
 20
79.5824797669
 30
0.0
 10
49.302907035
 20
79.3896182123
 30
0.0
 10
49.3045653023
 20
79.2919995795
 30
0.0
  0
SPLINE
  5
3A3
100
AcDbEntity
  8
0
100
AcDbSpline
 62
7
  6
CONTINUOUS
 70
0
 71
3
 72
16
 73
12
 74
0
 42
0.0000001
 43
0.0000001
 44
0.0000000001
 40
0.0
 40
0.0
 40
0.0
 40
0.0
 40
0.04129651
 40
0.0836947667
 40
0.1752403255
 40
0.2802819445
 40
0.4007063633
 40
0.5358290329
 40
0.683184622
 40
0.8393883521
 40
1.0
 40
1.0
 40
1.0
 40
1.0
 10
48.0288085759
 20
77.7699853725
 30
0.0
 10
48.0037076706
 20
77.7695611048
 30
0.0
 10
47.9526242866
 20
77.7737072992
 30
0.0
 10
47.8494105795
 20
77.8022008822
 30
0.0
 10
47.7224328624
 20
77.8781405112
 30
0.0
 10
47.5884041078
 20
78.0188019028
 30
0.0
 10
47.4710245129
 20
78.2052748689
 30
0.0
 10
47.3739851927
 20
78.4310115066
 30
0.0
 10
47.3003901798
 20
78.6879817505
 30
0.0
 10
47.2531163916
 20
78.9666736151
 30
0.0
 10
47.2402787663
 20
79.1592204083
 30
0.0
 10
47.2386204237
 20
79.2568434757
 30
0.0
  0
SPLINE
  5
3A4
100
AcDbEntity
  8
0
100
AcDbSpline
 62
7
  6
CONTINUOUS
 70
0
 71
3
 72
9
 73
5
 74
0
 42
0.0000001
 43
0.0000001
 44
0.0000000001
 40
0.0
 40
0.0
 40
0.0
 40
0.0
 40
0.2545141692
 40
1.0
 40
1.0
 40
1.0
 40
1.0
 10
75.6558473227
 20
50.2788648243
 30
0.0
 10
75.6532552142
 20
50.3908264287
 30
0.0
 10
75.6484004487
 20
50.8308293609
 30
0.0
 10
75.6653298315
 20
51.2711318093
 30
0.0
 10
75.6913159963
 20
51.5981303905
 30
0.0
  0
SPLINE
  5
3A5
100
AcDbEntity
  8
0
100
AcDbSpline
 62
7
  6
CONTINUOUS
 70
0
 71
3
 72
15
 73
11
 74
0
 42
0.0000001
 43
0.0000001
 44
0.0000000001
 40
0.0
 40
0.0
 40
0.0
 40
0.0
 40
0.0452425699
 40
0.0770301166
 40
0.1158819071
 40
0.2142757073
 40
0.3377236551
 40
0.4820730912
 40
0.643160899
 40
1.0
 40
1.0
 40
1.0
 40
1.0
 10
75.9336253835
 20
48.800635744
 30
0.0
 10
75.9178948585
 20
48.8002715546
 30
0.0
 10
75.8924137238
 20
48.8168103368
 30
0.0
 10
75.8677866507
 20
48.8479630463
 30
0.0
 10
75.8373884049
 20
48.8987613003
 30
0.0
 10
75.8032262101
 20
48.9829796689
 30
0.0
 10
75.767201942
 20
49.1052908778
 30
0.0
 10
75.7361850003
 20
49.2513121159
 30
0.0
 10
75.7016150872
 20
49.4791171849
 30
0.0
 10
75.6856555016
 20
49.6587044005
 30
0.0
 10
75.6772623412
 20
49.7825239652
 30
0.0
  0
SPLINE
  5
3A6
100
AcDbEntity
  8
0
100
AcDbSpline
 62
7
  6
CONTINUOUS
 70
0
 71
3
 72
9
 73
5
 74
0
 42
0.0000001
 43
0.0000001
 44
0.0000000001
 40
0.0
 40
0.0
 40
0.0
 40
0.0
 40
0.7518920789
 40
1.0
 40
1.0
 40
1.0
 40
1.0
 10
75.6772623412
 20
49.7825239652
 30
0.0
 10
75.6688410892
 20
49.906757949
 30
0.0
 10
75.6613073132
 20
50.0722432668
 30
0.0
 10
75.6567983407
 20
50.2377872634
 30
0.0
 10
75.6558473227
 20
50.2788648243
 30
0.0
  0
SPLINE
  5
3A7
100
AcDbEntity
  8
0
100
AcDbSpline
 62
7
  6
CONTINUOUS
 70
0
 71
3
 72
13
 73
9
 74
0
 42
0.0000001
 43
0.0000001
 44
0.0000000001
 40
0.0
 40
0.0
 40
0.0
 40
0.0
 40
0.3016316497
 40
0.6085473126
 40
0.7516435389
 40
0.8715183534
 40
0.956468659
 40
1.0
 40
1.0
 40
1.0
 40
1.0
 10
76.3707202161
 20
50.2204369056
 30
0.0
 10
76.3693493185
 20
50.2796504315
 30
0.0
 10
76.3667871925
 20
50.3990532026
 30
0.0
 10
76.3528875971
 20
50.5465617964
 30
0.0
 10
76.3352628577
 20
50.6564163602
 30
0.0
 10
76.3190202805
 20
50.7244924173
 30
0.0
 10
76.3054980164
 20
50.7676406797
 30
0.0
 10
76.287872475
 20
50.7935032695
 30
0.0
 10
76.2793268062
 20
50.7933054222
 30
0.0
  0
SPLINE
  5
3A8
100
AcDbEntity
  8
0
100
AcDbSpline
 62
7
  6
CONTINUOUS
 70
0
 71
3
 72
9
 73
5
 74
0
 42
0.0000001
 43
0.0000001
 44
0.0000000001
 40
0.0
 40
0.0
 40
0.0
 40
0.0
 40
0.2284358496
 40
1.0
 40
1.0
 40
1.0
 40
1.0
 10
76.2924907964
 20
48.8884390071
 30
0.0
 10
76.3053550283
 20
48.9892665275
 30
0.0
 10
76.3557196094
 20
49.431301352
 30
0.0
 10
76.3786664418
 20
49.8772135477
 30
0.0
 10
76.370720216
 20
50.2204369056
 30
0.0
  0
SPLINE
  5
3A9
100
AcDbEntity
  8
0
100
AcDbSpline
 62
7
  6
CONTINUOUS
 70
0
 71
3
 72
16
 73
12
 74
0
 42
0.0000001
 43
0.0000001
 44
0.0000000001
 40
0.0
 40
0.0
 40
0.0
 40
0.0
 40
0.0369124094
 40
0.0679463884
 40
0.1079168443
 40
0.1563098204
 40
0.2123848523
 40
0.344191453
 40
0.496249164
 40
0.661197522
 40
1.0
 40
1.0
 40
1.0
 40
1.0
 10
75.892077728
 20
49.7951677297
 30
0.0
 10
75.9045148083
 20
49.7954556701
 30
0.0
 10
75.9212175641
 20
49.8190048513
 30
0.0
 10
75.9321647729
 20
49.8518258217
 30
0.0
 10
75.9418192438
 20
49.8915646143
 30
0.0
 10
75.9496952852
 20
49.9394124665
 30
0.0
 10
75.9595232327
 20
50.0185381273
 30
0.0
 10
75.9685643988
 20
50.1327370796
 30
0.0
 10
75.9766995057
 20
50.2837994883
 30
0.0
 10
75.9859979318
 20
50.5046205616
 30
0.0
 10
75.9927761526
 20
50.6742791599
 30
0.0
 10
75.9995019914
 20
50.7882658821
 30
0.0
  0
SPLINE
  5
3AA
100
AcDbEntity
  8
0
100
AcDbSpline
 62
7
  6
CONTINUOUS
 70
0
 71
3
 72
12
 73
8
 74
0
 42
0.0000001
 43
0.0000001
 44
0.0000000001
 40
0.0
 40
0.0
 40
0.0
 40
0.0
 40
0.3345576426
 40
0.6182186362
 40
0.8423323731
 40
0.929773474
 40
1.0
 40
1.0
 40
1.0
 40
1.0
 10
75.9995019914
 20
50.7882658821
 30
0.0
 10
76.005759623
 20
50.894317623
 30
0.0
 10
76.0209111316
 20
51.09014219
 30
0.0
 10
76.0550030638
 20
51.3554902279
 30
0.0
 10
76.0921166984
 20
51.5412547193
 30
0.0
 10
76.1283348021
 20
51.6570363543
 30
0.0
 10
76.1481749083
 20
51.7032265637
 30
0.0
 10
76.1589329112
 20
51.7227598822
 30
0.0
  0
SPLINE
  5
3AB
100
AcDbEntity
  8
0
100
AcDbSpline
 62
7
  6
CONTINUOUS
 70
0
 71
3
 72
9
 73
5
 74
0
 42
0.0000001
 43
0.0000001
 44
0.0000000001
 40
0.0
 40
0.0
 40
0.0
 40
0.0
 40
0.3270361418
 40
1.0
 40
1.0
 40
1.0
 40
1.0
 10
76.1589329112
 20
51.7227598822
 30
0.0
 10
76.164206366
 20
51.7323349003
 30
0.0
 10
76.1809526014
 20
51.7601551782
 30
0.0
 10
76.2102690349
 20
51.7872021007
 30
0.0
 10
76.2327567821
 20
51.7877227317
 30
0.0
  0
SPLINE
  5
3AC
100
AcDbEntity
  8
0
100
AcDbSpline
 62
7
  6
CONTINUOUS
 70
0
 71
3
 72
9
 73
5
 74
0
 42
0.0000001
 43
0.0000001
 44
0.0000000001
 40
0.0
 40
0.0
 40
0.0
 40
0.0
 40
0.2563149781
 40
1.0
 40
1.0
 40
1.0
 40
1.0
 10
76.3181257381
 20
53.6497030581
 30
0.0
 10
76.3166570815
 20
53.7131391171
 30
0.0
 10
76.305887523
 20
53.9605374708
 30
0.0
 10
76.2800390442
 20
54.2069002501
 30
0.0
 10
76.2611813811
 20
54.3900377805
 30
0.0
  0
SPLINE
  5
3AD
100
AcDbEntity
  8
0
100
AcDbSpline
 62
7
  6
CONTINUOUS
 70
0
 71
3
 72
13
 73
9
 74
0
 42
0.0000001
 43
0.0000001
 44
0.0000000001
 40
0.0
 40
0.0
 40
0.0
 40
0.0
 40
0.1033148899
 40
0.1933857631
 40
0.3130841711
 40
0.4621286516
 40
0.6328685733
 40
1.0
 40
1.0
 40
1.0
 40
1.0
 10
76.1676486996
 20
52.8593988646
 30
0.0
 10
76.1962449153
 20
52.8600609174
 30
0.0
 10
76.2362121714
 20
52.913265192
 30
0.0
 10
76.2654494257
 20
52.9906545325
 30
0.0
 10
76.2891107172
 20
53.0888968106
 30
0.0
 10
76.3048537415
 20
53.2091477155
 30
0.0
 10
76.3190340578
 20
53.3990635579
 30
0.0
 10
76.3204783553
 20
53.5480858615
 30
0.0
 10
76.3181257381
 20
53.6497030581
 30
0.0
  0
SPLINE
  5
3AE
100
AcDbEntity
  8
0
100
AcDbSpline
 62
7
  6
CONTINUOUS
 70
0
 71
3
 72
14
 73
10
 74
0
 42
0.0000001
 43
0.0000001
 44
0.0000000001
 40
0.0
 40
0.0
 40
0.0
 40
0.0
 40
0.1129303789
 40
0.2031185701
 40
0.3179241463
 40
0.4570061332
 40
0.6193707317
 40
0.8019640952
 40
1.0
 40
1.0
 40
1.0
 40
1.0
 10
76.189459992
 20
51.9768752761
 30
0.0
 10
76.1542246076
 20
51.9760595148
 30
0.0
 10
76.0998739132
 20
52.0293490038
 30
0.0
 10
76.0533372259
 20
52.1131788359
 30
0.0
 10
76.0122445068
 20
52.2138966023
 30
0.0
 10
75.9755231262
 20
52.3382398369
 30
0.0
 10
75.9431582361
 20
52.48603716
 30
0.0
 10
75.9160179682
 20
52.6533294385
 30
0.0
 10
75.9015910869
 20
52.7712799651
 30
0.0
 10
75.8950388676
 20
52.8327373724
 30
0.0
  0
SPLINE
  5
3AF
100
AcDbEntity
  8
0
100
AcDbSpline
 62
7
  6
CONTINUOUS
 70
0
 71
3
 72
9
 73
5
 74
0
 42
0.0000001
 43
0.0000001
 44
0.0000000001
 40
0.0
 40
0.0
 40
0.0
 40
0.0
 40
0.2448782734
 40
1.0
 40
1.0
 40
1.0
 40
1.0
 10
75.8950388676
 20
52.8327373724
 30
0.0
 10
75.8896256276
 20
52.8835115727
 30
0.0
 10
75.870203959
 20
53.0911379439
 30
0.0
 10
75.8597148124
 20
53.2995637104
 30
0.0
 10
75.8560703641
 20
53.4569792978
 30
0.0
  0
SPLINE
  5
3B0
100
AcDbEntity
  8
0
100
AcDbSpline
 62
7
  6
CONTINUOUS
 70
0
 71
3
 72
13
 73
9
 74
0
 42
0.0000001
 43
0.0000001
 44
0.0000000001
 40
0.0
 40
0.0
 40
0.0
 40
0.0
 40
0.3864414293
 40
0.5556789849
 40
0.6972444192
 40
0.8096196344
 40
0.8950290702
 40
1.0
 40
1.0
 40
1.0
 40
1.0
 10
75.7868792216
 20
56.5273257191
 30
0.0
 10
75.7873561732
 20
56.6414133952
 30
0.0
 10
75.7930389501
 20
56.8055586567
 30
0.0
 10
75.8158406154
 20
57.0104009802
 30
0.0
 10
75.8391084404
 20
57.1329974626
 30
0.0
 10
75.8698074313
 20
57.2296876694
 30
0.0
 10
75.9070369506
 20
57.3081124735
 30
0.0
 10
75.9542210856
 20
57.3558651408
 30
0.0
 10
75.9852032342
 20
57.3565824322
 30
0.0
  0
SPLINE
  5
3B1
100
AcDbEntity
  8
0
100
AcDbSpline
 62
7
  6
CONTINUOUS
 70
0
 71
3
 72
9
 73
5
 74
0
 42
0.0000001
 43
0.0000001
 44
0.0000000001
 40
0.0
 40
0.0
 40
0.0
 40
0.0
 40
0.2295283146
 40
1.0
 40
1.0
 40
1.0
 40
1.0
 10
75.9037008116
 20
55.5488933432
 30
0.0
 10
75.8858085956
 20
55.6113702926
 30
0.0
 10
75.818964915
 20
55.8867612703
 30
0.0
 10
75.7932370263
 20
56.1709557013
 30
0.0
 10
75.7881878051
 20
56.3890480026
 30
0.0
  0
SPLINE
  5
3B2
100
AcDbEntity
  8
0
100
AcDbSpline
 62
7
  6
CONTINUOUS
 70
0
 71
3
 72
11
 73
7
 74
0
 42
0.0000001
 43
0.0000001
 44
0.0000000001
 40
0.0
 40
0.0
 40
0.0
 40
0.0
 40
0.3781594907
 40
0.6566338189
 40
0.8536760744
 40
1.0
 40
1.0
 40
1.0
 40
1.0
 10
76.3060392792
 20
58.414610202
 30
0.0
 10
76.3149689071
 20
58.4605575383
 30
0.0
 10
76.3342968209
 20
58.5398577954
 30
0.0
 10
76.3762519315
 20
58.6373772826
 30
0.0
 10
76.4244288329
 20
58.6995434538
 30
0.0
 10
76.4664496832
 20
58.7170713612
 30
0.0
 10
76.4845561911
 20
58.7174908464
 30
0.0
  0
SPLINE
  5
3B3
100
AcDbEntity
  8
0
100
AcDbSpline
 62
7
  6
CONTINUOUS
 70
0
 71
3
 72
11
 73
7
 74
0
 42
0.0000001
 43
0.0000001
 44
0.0000000001
 40
0.0
 40
0.0
 40
0.0
 40
0.0
 40
0.2055887227
 40
0.4479582917
 40
0.7225127805
 40
1.0
 40
1.0
 40
1.0
 40
1.0
 10
76.4441942503
 20
55.8653560213
 30
0.0
 10
76.4175069203
 20
55.9891387165
 30
0.0
 10
76.3666028698
 20
56.2604781057
 30
0.0
 10
76.3100519254
 20
56.7020924727
 30
0.0
 10
76.2698716848
 20
57.1898622421
 30
0.0
 10
76.2574141326
 20
57.5298576393
 30
0.0
 10
76.2567735535
 20
57.70076729
 30
0.0
  0
SPLINE
  5
3B4
100
AcDbEntity
  8
0
100
AcDbSpline
 62
7
  6
CONTINUOUS
 70
0
 71
3
 72
9
 73
5
 74
0
 42
0.0000001
 43
0.0000001
 44
0.0000000001
 40
0.0
 40
0.0
 40
0.0
 40
0.0
 40
0.2629819605
 40
1.0
 40
1.0
 40
1.0
 40
1.0
 10
76.2567735535
 20
57.70076729
 30
0.0
 10
76.2566333778
 20
57.7381668419
 30
0.0
 10
76.2571856154
 20
57.8803738415
 30
0.0
 10
76.2622045489
 20
58.022627126
 30
0.0
 10
76.2700359411
 20
58.1271487071
 30
0.0
  0
SPLINE
  5
3B5
100
AcDbEntity
  8
0
100
AcDbSpline
 62
7
  6
CONTINUOUS
 70
0
 71
3
 72
9
 73
5
 74
0
 42
0.0000001
 43
0.0000001
 44
0.0000000001
 40
0.0
 40
0.0
 40
0.0
 40
0.0
 40
0.2656013283
 40
1.0
 40
1.0
 40
1.0
 40
1.0
 10
76.2784462769
 20
58.2221322174
 30
0.0
 10
76.2802153207
 20
58.2392590049
 30
0.0
 10
76.2874340229
 20
58.303678732
 30
0.0
 10
76.2969875292
 20
58.3678703974
 30
0.0
 10
76.3060392792
 20
58.414610202
 30
0.0
  0
SPLINE
  5
3B6
100
AcDbEntity
  8
0
100
AcDbSpline
 62
7
  6
CONTINUOUS
 70
0
 71
3
 72
9
 73
5
 74
0
 42
0.0000001
 43
0.0000001
 44
0.0000000001
 40
0.0
 40
0.0
 40
0.0
 40
0.0
 40
0.2266702329
 40
1.0
 40
1.0
 40
1.0
 40
1.0
 10
76.7193905355
 20
55.0212491862
 30
0.0
 10
76.7130873359
 20
55.0317507613
 30
0.0
 10
76.6871096516
 20
55.0791777889
 30
0.0
 10
76.6656874171
 20
55.1288833385
 30
0.0
 10
76.6493071334
 20
55.1673253996
 30
0.0
  0
SPLINE
  5
3B7
100
AcDbEntity
  8
0
100
AcDbSpline
 62
7
  6
CONTINUOUS
 70
0
 71
3
 72
9
 73
5
 74
0
 42
0.0000001
 43
0.0000001
 44
0.0000000001
 40
0.0
 40
0.0
 40
0.0
 40
0.0
 40
0.2604267625
 40
1.0
 40
1.0
 40
1.0
 40
1.0
 10
76.4724253341
 20
63.3819360191
 30
0.0
 10
76.471680583
 20
63.4141042444
 30
0.0
 10
76.4711728393
 20
63.5376579154
 30
0.0
 10
76.4786417065
 20
63.6613267396
 30
0.0
 10
76.4898668151
 20
63.7520121046
 30
0.0
  0
SPLINE
  5
3B8
100
AcDbEntity
  8
0
100
AcDbSpline
 62
7
  6
CONTINUOUS
 70
0
 71
3
 72
9
 73
5
 74
0
 42
0.0000001
 43
0.0000001
 44
0.0000000001
 40
0.0
 40
0.0
 40
0.0
 40
0.0
 40
0.2582387275
 40
1.0
 40
1.0
 40
1.0
 40
1.0
 10
76.4898668151
 20
63.7520121046
 30
0.0
 10
76.4906806611
 20
63.758587001
 30
0.0
 10
76.4939584056
 20
63.784031579
 30
0.0
 10
76.4977496515
 20
63.8094113697
 30
0.0
 10
76.5009099109
 20
63.8281768937
 30
0.0
  0
SPLINE
  5
3B9
100
AcDbEntity
  8
0
100
AcDbSpline
 62
7
  6
CONTINUOUS
 70
0
 71
3
 72
12
 73
8
 74
0
 42
0.0000001
 43
0.0000001
 44
0.0000000001
 40
0.0
 40
0.0
 40
0.0
 40
0.0
 40
0.3672122274
 40
0.6607376026
 40
0.7761489976
 40
0.8697514812
 40
1.0
 40
1.0
 40
1.0
 40
1.0
 10
76.5009099109
 20
63.8281768937
 30
0.0
 10
76.5061724712
 20
63.8594258158
 30
0.0
 10
76.5174180575
 20
63.9153953637
 30
0.0
 10
76.5363586706
 20
63.9797462709
 30
0.0
 10
76.5547532349
 20
64.0193889315
 30
0.0
 10
76.5699736578
 20
64.0437729596
 30
0.0
 10
76.5873940442
 20
64.0576842537
 30
0.0
 10
76.5986309608
 20
64.0579444264
 30
0.0
  0
SPLINE
  5
3BA
100
AcDbEntity
  8
0
100
AcDbSpline
 62
7
  6
CONTINUOUS
 70
0
 71
3
 72
11
 73
7
 74
0
 42
0.0000001
 43
0.0000001
 44
0.0000000001
 40
0.0
 40
0.0
 40
0.0
 40
0.0
 40
0.3137090411
 40
0.4448574689
 40
0.6019437333
 40
1.0
 40
1.0
 40
1.0
 40
1.0
 10
76.6531250593
 20
62.692344878
 30
0.0
 10
76.6209210003
 20
62.6915992972
 30
0.0
 10
76.5842141395
 20
62.7372530062
 30
0.0
 10
76.5585547462
 20
62.7911703119
 30
0.0
 10
76.533940305
 20
62.8580128589
 30
0.0
 10
76.5213765244
 20
62.9135417859
 30
0.0
 10
76.5137212257
 20
62.9536922433
 30
0.0
  0
SPLINE
  5
3BB
100
AcDbEntity
  8
0
100
AcDbSpline
 62
7
  6
CONTINUOUS
 70
0
 71
3
 72
9
 73
5
 74
0
 42
0.0000001
 43
0.0000001
 44
0.0000000001
 40
0.0
 40
0.0
 40
0.0
 40
0.0
 40
0.480984084
 40
1.0
 40
1.0
 40
1.0
 40
1.0
 10
76.5096147687
 20
62.9761100836
 30
0.0
 10
76.4982821807
 20
63.0405002838
 30
0.0
 10
76.4818233303
 20
63.1756096517
 30
0.0
 10
76.4740582418
 20
63.3114054217
 30
0.0
 10
76.4724253341
 20
63.3819360191
 30
0.0
  0
SPLINE
  5
3BC
100
AcDbEntity
  8
0
100
AcDbSpline
 62
7
  6
CONTINUOUS
 70
0
 71
3
 72
9
 73
5
 74
0
 42
0.0000001
 43
0.0000001
 44
0.0000000001
 40
0.0
 40
0.0
 40
0.0
 40
0.0
 40
0.256742469
 40
1.0
 40
1.0
 40
1.0
 40
1.0
 10
76.7465175416
 20
63.4885549995
 30
0.0
 10
76.7458176154
 20
63.5187870931
 30
0.0
 10
76.7417109374
 20
63.6365005898
 30
0.0
 10
76.7319272781
 20
63.7540401131
 30
0.0
 10
76.7210192433
 20
63.8409018409
 30
0.0
  0
SPLINE
  5
3BD
100
AcDbEntity
  8
0
100
AcDbSpline
 62
7
  6
CONTINUOUS
 70
0
 71
3
 72
9
 73
5
 74
0
 42
0.0000001
 43
0.0000001
 44
0.0000000001
 40
0.0
 40
0.0
 40
0.0
 40
0.0
 40
0.2329396418
 40
1.0
 40
1.0
 40
1.0
 40
1.0
 10
76.6601177119
 20
62.986095821
 30
0.0
 10
76.6654453961
 20
62.9955043584
 30
0.0
 10
76.686768335
 20
63.0367726327
 30
0.0
 10
76.7021263754
 20
63.0809492296
 30
0.0
 10
76.7114329962
 20
63.1153156678
 30
0.0
  0
SPLINE
  5
3BE
100
AcDbEntity
  8
0
100
AcDbSpline
 62
7
  6
CONTINUOUS
 70
0
 71
3
 72
9
 73
5
 74
0
 42
0.0000001
 43
0.0000001
 44
0.0000000001
 40
0.0
 40
0.0
 40
0.0
 40
0.0
 40
0.2320863078
 40
1.0
 40
1.0
 40
1.0
 40
1.0
 10
76.7114329962
 20
63.1153156678
 30
0.0
 10
76.7148458921
 20
63.1279184244
 30
0.0
 10
76.7281210856
 20
63.1826077546
 30
0.0
 10
76.7361116998
 20
63.2384924414
 30
0.0
 10
76.7402032109
 20
63.281499495
 30
0.0
  0
SPLINE
  5
3BF
100
AcDbEntity
  8
0
100
AcDbSpline
 62
7
  6
CONTINUOUS
 70
0
 71
3
 72
9
 73
5
 74
0
 42
0.0000001
 43
0.0000001
 44
0.0000000001
 40
0.0
 40
0.0
 40
0.0
 40
0.0
 40
0.2330908823
 40
1.0
 40
1.0
 40
1.0
 40
1.0
 10
76.7402032109
 20
63.281499495
 30
0.0
 10
76.7417280595
 20
63.2975276183
 30
0.0
 10
76.7470233906
 20
63.3664093638
 30
0.0
 10
76.7477436406
 20
63.4355957952
 30
0.0
 10
76.7465175416
 20
63.4885549995
 30
0.0
  0
SPLINE
  5
3C0
100
AcDbEntity
  8
0
100
AcDbSpline
 62
7
  6
CONTINUOUS
 70
0
 71
3
 72
9
 73
5
 74
0
 42
0.0000001
 43
0.0000001
 44
0.0000000001
 40
0.0
 40
0.0
 40
0.0
 40
0.0
 40
0.2549298658
 40
1.0
 40
1.0
 40
1.0
 40
1.0
 10
76.4229792324
 20
65.5176741136
 30
0.0
 10
76.4221305658
 20
65.5543307907
 30
0.0
 10
76.420618105
 20
65.6981553676
 30
0.0
 10
76.4265439384
 20
65.8420813785
 30
0.0
 10
76.4355587432
 20
65.948864787
 30
0.0
  0
SPLINE
  5
3C1
100
AcDbEntity
  8
0
100
AcDbSpline
 62
7
  6
CONTINUOUS
 70
0
 71
3
 72
12
 73
8
 74
0
 42
0.0000001
 43
0.0000001
 44
0.0000000001
 40
0.0
 40
0.0
 40
0.0
 40
0.0
 40
0.1282626105
 40
0.212461208
 40
0.316546995
 40
0.599353862
 40
1.0
 40
1.0
 40
1.0
 40
1.0
 10
76.6157260637
 20
64.7886136358
 30
0.0
 10
76.6010765978
 20
64.7882744749
 30
0.0
 10
76.5766370916
 20
64.7984406027
 30
0.0
 10
76.5510796702
 20
64.8240434196
 30
0.0
 10
76.5205342674
 20
64.8687637383
 30
0.0
 10
76.4877482409
 20
64.9534617212
 30
0.0
 10
76.4712189658
 20
65.0298780333
 30
0.0
 10
76.4632007613
 20
65.0749421671
 30
0.0
  0
SPLINE
  5
3C2
100
AcDbEntity
  8
0
100
AcDbSpline
 62
7
  6
CONTINUOUS
 70
0
 71
3
 72
9
 73
5
 74
0
 42
0.0000001
 43
0.0000001
 44
0.0000000001
 40
0.0
 40
0.0
 40
0.0
 40
0.0
 40
0.2371916819
 40
1.0
 40
1.0
 40
1.0
 40
1.0
 10
76.4632007613
 20
65.0749421671
 30
0.0
 10
76.4612275691
 20
65.0860319566
 30
0.0
 10
76.4533748884
 20
65.1328692959
 30
0.0
 10
76.4471637156
 20
65.1799731278
 30
0.0
 10
76.4430919816
 20
65.2159684726
 30
0.0
  0
SPLINE
  5
3C3
100
AcDbEntity
  8
0
100
AcDbSpline
 62
7
  6
CONTINUOUS
 70
0
 71
3
 72
9
 73
5
 74
0
 42
0.0000001
 43
0.0000001
 44
0.0000000001
 40
0.0
 40
0.0
 40
0.0
 40
0.0
 40
0.2447060497
 40
1.0
 40
1.0
 40
1.0
 40
1.0
 10
76.4430919816
 20
65.2159684726
 30
0.0
 10
76.4403191601
 20
65.2404810428
 30
0.0
 10
76.4302976151
 20
65.3407970605
 30
0.0
 10
76.4247415688
 20
65.441553071
 30
0.0
 10
76.4229792324
 20
65.5176741136
 30
0.0
  0
SPLINE
  5
3C4
100
AcDbEntity
  8
0
100
AcDbSpline
 62
7
  6
CONTINUOUS
 70
0
 71
3
 72
9
 73
5
 74
0
 42
0.0000001
 43
0.0000001
 44
0.0000000001
 40
0.0
 40
0.0
 40
0.0
 40
0.0
 40
0.2554118505
 40
1.0
 40
1.0
 40
1.0
 40
1.0
 10
76.6988756613
 20
65.5931681155
 30
0.0
 10
76.6980965647
 20
65.6268198338
 30
0.0
 10
76.6933071162
 20
65.7585252497
 30
0.0
 10
76.681383195
 20
65.8899970616
 30
0.0
 10
76.6680770577
 20
65.9872200288
 30
0.0
  0
SPLINE
  5
3C5
100
AcDbEntity
  8
0
100
AcDbSpline
 62
7
  6
CONTINUOUS
 70
0
 71
3
 72
12
 73
8
 74
0
 42
0.0000001
 43
0.0000001
 44
0.0000000001
 40
0.0
 40
0.0
 40
0.0
 40
0.0
 40
0.0432262904
 40
0.1166970604
 40
0.3503070764
 40
0.6617991094
 40
1.0
 40
1.0
 40
1.0
 40
1.0
 10
76.6028211148
 20
65.0864203243
 30
0.0
 10
76.6104176368
 20
65.0865961972
 30
0.0
 10
76.6276223709
 20
65.1027790608
 30
0.0
 10
76.6517692654
 20
65.1579427467
 30
0.0
 10
76.6773664421
 20
65.2655726847
 30
0.0
 10
76.6962077529
 20
65.4191867265
 30
0.0
 10
76.7002516842
 20
65.5337332094
 30
0.0
 10
76.6988756613
 20
65.5931681155
 30
0.0
  0
SPLINE
  5
3C6
100
AcDbEntity
  8
0
100
AcDbSpline
 62
7
  6
CONTINUOUS
 70
0
 71
3
 72
9
 73
5
 74
0
 42
0.0000001
 43
0.0000001
 44
0.0000000001
 40
0.0
 40
0.0
 40
0.0
 40
0.0
 40
0.2591886641
 40
1.0
 40
1.0
 40
1.0
 40
1.0
 10
76.6572514074
 20
67.5059571242
 30
0.0
 10
76.656579317
 20
67.5349868938
 30
0.0
 10
76.6520975976
 20
67.6469289507
 30
0.0
 10
76.6397486955
 20
67.7586231768
 30
0.0
 10
76.6253707709
 20
67.8403632145
 30
0.0
  0
SPLINE
  5
3C7
100
AcDbEntity
  8
0
100
AcDbSpline
 62
7
  6
CONTINUOUS
 70
0
 71
3
 72
11
 73
7
 74
0
 42
0.0000001
 43
0.0000001
 44
0.0000000001
 40
0.0
 40
0.0
 40
0.0
 40
0.0
 40
0.1169679684
 40
0.3314901279
 40
0.6335725277
 40
1.0
 40
1.0
 40
1.0
 40
1.0
 10
76.6129169299
 20
67.2930947532
 30
0.0
 10
76.6177973124
 20
67.2932077427
 30
0.0
 10
76.6281753644
 20
67.3060274872
 30
0.0
 10
76.6367776892
 20
67.3296500481
 30
0.0
 10
76.64617318
 20
67.3659794568
 30
0.0
 10
76.6503940015
 20
67.3934257428
 30
0.0
 10
76.6522698574
 20
67.4086032104
 30
0.0
  0
SPLINE
  5
3C8
100
AcDbEntity
  8
0
100
AcDbSpline
 62
7
  6
CONTINUOUS
 70
0
 71
3
 72
9
 73
5
 74
0
 42
0.0000001
 43
0.0000001
 44
0.0000000001
 40
0.0
 40
0.0
 40
0.0
 40
0.0
 40
0.2417334462
 40
1.0
 40
1.0
 40
1.0
 40
1.0
 10
76.6522698574
 20
67.4086032104
 30
0.0
 10
76.6532337937
 20
67.4164023767
 30
0.0
 10
76.6566349051
 20
67.448733828
 30
0.0
 10
76.6578219565
 20
67.481313251
 30
0.0
 10
76.6572514073
 20
67.5059571242
 30
0.0
  0
SPLINE
  5
3C9
100
AcDbEntity
  8
0
100
AcDbSpline
 62
7
  6
CONTINUOUS
 70
0
 71
3
 72
9
 73
5
 74
0
 42
0.0000001
 43
0.0000001
 44
0.0000000001
 40
0.0
 40
0.0
 40
0.0
 40
0.0
 40
0.2692631399
 40
1.0
 40
1.0
 40
1.0
 40
1.0
 10
76.3349566657
 20
69.3196553113
 30
0.0
 10
76.3342133534
 20
69.3517613914
 30
0.0
 10
76.3342291034
 20
69.470996908
 30
0.0
 10
76.3461443532
 20
69.5905969092
 30
0.0
 10
76.3644462659
 20
69.6758076758
 30
0.0
  0
SPLINE
  5
3CA
100
AcDbEntity
  8
0
100
AcDbSpline
 62
7
  6
CONTINUOUS
 70
0
 71
3
 72
9
 73
5
 74
0
 42
0.0000001
 43
0.0000001
 44
0.0000000001
 40
0.0
 40
0.0
 40
0.0
 40
0.0
 40
0.1990470414
 40
1.0
 40
1.0
 40
1.0
 40
1.0
 10
76.4267073689
 20
68.8845567723
 30
0.0
 10
76.4216112722
 20
68.8967997442
 30
0.0
 10
76.3971706953
 20
68.9587823388
 30
0.0
 10
76.3780217078
 20
69.0228769106
 30
0.0
 10
76.3660090699
 20
69.0748696442
 30
0.0
  0
SPLINE
  5
3CB
100
AcDbEntity
  8
0
100
AcDbSpline
 62
7
  6
CONTINUOUS
 70
0
 71
3
 72
9
 73
5
 74
0
 42
0.0000001
 43
0.0000001
 44
0.0000000001
 40
0.0
 40
0.0
 40
0.0
 40
0.0
 40
0.2284424723
 40
1.0
 40
1.0
 40
1.0
 40
1.0
 10
76.3660090699
 20
69.0748696442
 30
0.0
 10
76.3617755306
 20
69.0931931204
 30
0.0
 10
76.3450614785
 20
69.1738058017
 30
0.0
 10
76.3364268098
 20
69.2561550034
 30
0.0
 10
76.3349566657
 20
69.3196553113
 30
0.0
  0
SPLINE
  5
3CC
100
AcDbEntity
  8
0
100
AcDbSpline
 62
7
  6
CONTINUOUS
 70
0
 71
3
 72
9
 73
5
 74
0
 42
0.0000001
 43
0.0000001
 44
0.0000000001
 40
0.0
 40
0.0
 40
0.0
 40
0.0
 40
0.2549197309
 40
1.0
 40
1.0
 40
1.0
 40
1.0
 10
76.26701141
 20
72.2544320904
 30
0.0
 10
76.2661618911
 20
72.2911255765
 30
0.0
 10
76.2646460792
 20
72.4351002822
 30
0.0
 10
76.2705687419
 20
72.5791764405
 30
0.0
 10
76.2795804775
 20
72.6860738429
 30
0.0
  0
SPLINE
  5
3CD
100
AcDbEntity
  8
0
100
AcDbSpline
 62
7
  6
CONTINUOUS
 70
0
 71
3
 72
12
 73
8
 74
0
 42
0.0000001
 43
0.0000001
 44
0.0000000001
 40
0.0
 40
0.0
 40
0.0
 40
0.0
 40
0.1279463367
 40
0.2121857217
 40
0.3164071869
 40
0.5995194482
 40
1.0
 40
1.0
 40
1.0
 40
1.0
 10
76.4597896081
 20
71.5240167757
 30
0.0
 10
76.4450856688
 20
71.5236763536
 30
0.0
 10
76.4205518557
 20
71.534034472
 30
0.0
 10
76.3949824393
 20
71.5599029548
 30
0.0
 10
76.364385369
 20
71.6050618185
 30
0.0
 10
76.3315820711
 20
71.6903755606
 30
0.0
 10
76.3150332275
 20
71.7672993964
 30
0.0
 10
76.3070117128
 20
71.8126318097
 30
0.0
  0
SPLINE
  5
3CE
100
AcDbEntity
  8
0
100
AcDbSpline
 62
7
  6
CONTINUOUS
 70
0
 71
3
 72
9
 73
5
 74
0
 42
0.0000001
 43
0.0000001
 44
0.0000000001
 40
0.0
 40
0.0
 40
0.0
 40
0.0
 40
0.2373962817
 40
1.0
 40
1.0
 40
1.0
 40
1.0
 10
76.3070117128
 20
71.8126318097
 30
0.0
 10
76.3050596894
 20
71.8236633835
 30
0.0
 10
76.2972931886
 20
71.8702129478
 30
0.0
 10
76.2911360717
 20
71.9170226927
 30
0.0
 10
76.2870970372
 20
71.9527832821
 30
0.0
  0
SPLINE
  5
3CF
100
AcDbEntity
  8
0
100
AcDbSpline
 62
7
  6
CONTINUOUS
 70
0
 71
3
 72
9
 73
5
 74
0
 42
0.0000001
 43
0.0000001
 44
0.0000000001
 40
0.0
 40
0.0
 40
0.0
 40
0.0
 40
0.2447288292
 40
1.0
 40
1.0
 40
1.0
 40
1.0
 10
76.2870970372
 20
71.9527832821
 30
0.0
 10
76.2843286543
 20
71.9772938442
 30
0.0
 10
76.2743225877
 20
72.0775917084
 30
0.0
 10
76.268773351
 20
72.1783281237
 30
0.0
 10
76.26701141
 20
72.2544320904
 30
0.0
  0
SPLINE
  5
3D0
100
AcDbEntity
  8
0
100
AcDbSpline
 62
7
  6
CONTINUOUS
 70
0
 71
3
 72
9
 73
5
 74
0
 42
0.0000001
 43
0.0000001
 44
0.0000000001
 40
0.0
 40
0.0
 40
0.0
 40
0.0
 40
0.2553635609
 40
1.0
 40
1.0
 40
1.0
 40
1.0
 10
76.5429078388
 20
72.3299260924
 30
0.0
 10
76.5421253371
 20
72.3637248909
 30
0.0
 10
76.5373214094
 20
72.4960312425
 30
0.0
 10
76.5253821673
 20
72.6281039946
 30
0.0
 10
76.5120674251
 20
72.7257839218
 30
0.0
  0
SPLINE
  5
3D1
100
AcDbEntity
  8
0
100
AcDbSpline
 62
7
  6
CONTINUOUS
 70
0
 71
3
 72
12
 73
8
 74
0
 42
0.0000001
 43
0.0000001
 44
0.0000000001
 40
0.0
 40
0.0
 40
0.0
 40
0.0
 40
0.0432464774
 40
0.1166999458
 40
0.3502257243
 40
0.6616752827
 40
1.0
 40
1.0
 40
1.0
 40
1.0
 10
76.4468323687
 20
71.824082059
 30
0.0
 10
76.4544198025
 20
71.8242577214
 30
0.0
 10
76.4716097909
 20
71.8403894104
 30
0.0
 10
76.4957655348
 20
71.8954344828
 30
0.0
 10
76.5213710969
 20
72.0028427888
 30
0.0
 10
76.5402341629
 20
72.1561977238
 30
0.0
 10
76.5442820769
 20
72.2705682779
 30
0.0
 10
76.5429078388
 20
72.3299260924
 30
0.0
  0
SPLINE
  5
3D2
100
AcDbEntity
  8
0
100
AcDbSpline
 62
7
  6
CONTINUOUS
 70
0
 71
3
 72
12
 73
8
 74
0
 42
0.0000001
 43
0.0000001
 44
0.0000000001
 40
0.0
 40
0.0
 40
0.0
 40
0.0
 40
0.261258651
 40
0.5620156264
 40
0.8310653591
 40
0.9319481779
 40
1.0
 40
1.0
 40
1.0
 40
1.0
 10
76.187749791
 20
70.5457109791
 30
0.0
 10
76.184950458
 20
70.5638296192
 30
0.0
 10
76.1816325751
 20
70.6032122673
 30
0.0
 10
76.180068007
 20
70.661462324
 30
0.0
 10
76.1814742461
 20
70.7087027255
 30
0.0
 10
76.1856669378
 20
70.739039406
 30
0.0
 10
76.1886384252
 20
70.7507533604
 30
0.0
 10
76.1909854093
 20
70.7549123131
 30
0.0
  0
SPLINE
  5
3D3
100
AcDbEntity
  8
0
100
AcDbSpline
 62
7
  6
CONTINUOUS
 70
0
 71
3
 72
9
 73
5
 74
0
 42
0.0000001
 43
0.0000001
 44
0.0000000001
 40
0.0
 40
0.0
 40
0.0
 40
0.0
 40
0.2716263068
 40
1.0
 40
1.0
 40
1.0
 40
1.0
 10
75.405661213
 20
72.8903252095
 30
0.0
 10
75.4045317196
 20
72.9391117051
 30
0.0
 10
75.4047596059
 20
73.1186972731
 30
0.0
 10
75.4238650632
 20
73.2989790875
 30
0.0
 10
75.4536740021
 20
73.4263961028
 30
0.0
  0
SPLINE
  5
3D4
100
AcDbEntity
  8
0
100
AcDbSpline
 62
7
  6
CONTINUOUS
 70
0
 71
3
 72
10
 73
6
 74
0
 42
0.0000001
 43
0.0000001
 44
0.0000000001
 40
0.0
 40
0.0
 40
0.0
 40
0.0
 40
0.1664307751
 40
0.3959083019
 40
1.0
 40
1.0
 40
1.0
 40
1.0
 10
75.6006122337
 20
72.0447821439
 30
0.0
 10
75.5775343256
 20
72.0873766982
 30
0.0
 10
75.5315489796
 20
72.1934706345
 30
0.0
 10
75.4432773622
 20
72.4710550839
 30
0.0
 10
75.4097311053
 20
72.7145333102
 30
0.0
 10
75.405661213
 20
72.8903252095
 30
0.0
  0
SPLINE
  5
3D5
100
AcDbEntity
  8
0
100
AcDbSpline
 62
7
  6
CONTINUOUS
 70
0
 71
3
 72
14
 73
10
 74
0
 42
0.0000001
 43
0.0000001
 44
0.0000000001
 40
0.0
 40
0.0
 40
0.0
 40
0.0
 40
0.1123645452
 40
0.199560002
 40
0.3112503658
 40
0.4484812217
 40
0.6115066573
 40
0.7972406879
 40
1.0
 40
1.0
 40
1.0
 40
1.0
 10
75.8184499542
 20
68.070103326
 30
0.0
 10
75.7842777806
 20
68.0693121799
 30
0.0
 10
75.7296003461
 20
68.1152563311
 30
0.0
 10
75.6818538819
 20
68.1942954913
 30
0.0
 10
75.6404076021
 20
68.288982252
 30
0.0
 10
75.6031835661
 20
68.4085110769
 30
0.0
 10
75.57033828
 20
68.5528717899
 30
0.0
 10
75.5426254369
 20
68.7183700947
 30
0.0
 10
75.527940503
 20
68.8356731611
 30
0.0
 10
75.5212971238
 20
68.8969937919
 30
0.0
  0
SPLINE
  5
3D6
100
AcDbEntity
  8
0
100
AcDbSpline
 62
7
  6
CONTINUOUS
 70
0
 71
3
 72
9
 73
5
 74
0
 42
0.0000001
 43
0.0000001
 44
0.0000000001
 40
0.0
 40
0.0
 40
0.0
 40
0.0
 40
0.2451465389
 40
1.0
 40
1.0
 40
1.0
 40
1.0
 10
75.5212971238
 20
68.8969937919
 30
0.0
 10
75.516423434
 20
68.941979592
 30
0.0
 10
75.4988112008
 20
69.1257257935
 30
0.0
 10
75.4890401587
 20
69.3102086689
 30
0.0
 10
75.4858152762
 20
69.449501843
 30
0.0
  0
SPLINE
  5
3D7
100
AcDbEntity
  8
0
100
AcDbSpline
 62
7
  6
CONTINUOUS
 70
0
 71
3
 72
9
 73
5
 74
0
 42
0.0000001
 43
0.0000001
 44
0.0000000001
 40
0.0
 40
0.0
 40
0.0
 40
0.0
 40
0.2677744314
 40
1.0
 40
1.0
 40
1.0
 40
1.0
 10
75.9488081044
 20
70.1159286506
 30
0.0
 10
75.9441450897
 20
70.1746817422
 30
0.0
 10
75.9235304838
 20
70.393824379
 30
0.0
 10
75.8919626803
 20
70.6119679533
 30
0.0
 10
75.8620465491
 20
70.7703317696
 30
0.0
  0
SPLINE
  5
3D8
100
AcDbEntity
  8
0
100
AcDbSpline
 62
7
  6
CONTINUOUS
 70
0
 71
3
 72
9
 73
5
 74
0
 42
0.0000001
 43
0.0000001
 44
0.0000000001
 40
0.0
 40
0.0
 40
0.0
 40
0.0
 40
0.25624101
 40
1.0
 40
1.0
 40
1.0
 40
1.0
 10
75.4858152762
 20
69.449501843
 30
0.0
 10
75.4844790288
 20
69.5072187167
 30
0.0
 10
75.4826850218
 20
69.7325201415
 30
0.0
 10
75.4928756637
 20
69.9579889272
 30
0.0
 10
75.5085410299
 20
70.1248275894
 30
0.0
  0
SPLINE
  5
3D9
100
AcDbEntity
  8
0
100
AcDbSpline
 62
7
  6
CONTINUOUS
 70
0
 71
3
 72
13
 73
9
 74
0
 42
0.0000001
 43
0.0000001
 44
0.0000000001
 40
0.0
 40
0.0
 40
0.0
 40
0.0
 40
0.3674799784
 40
0.5274793139
 40
0.6678293918
 40
0.7860183778
 40
0.8802424054
 40
1.0
 40
1.0
 40
1.0
 40
1.0
 10
75.5085410299
 20
70.1248275894
 30
0.0
 10
75.5173509627
 20
70.2186547871
 30
0.0
 10
75.5336116118
 20
70.3530553084
 30
0.0
 10
75.5655541382
 20
70.5215161192
 30
0.0
 10
75.5911520649
 20
70.6254821086
 30
0.0
 10
75.6206289735
 20
70.7122387728
 30
0.0
 10
75.6548870465
 20
70.7868892505
 30
0.0
 10
75.6991139948
 20
70.8366226738
 30
0.0
 10
75.729817487
 20
70.8373336472
 30
0.0
  0
SPLINE
  5
3DA
100
AcDbEntity
  8
0
100
AcDbSpline
 62
7
  6
CONTINUOUS
 70
0
 71
3
 72
9
 73
5
 74
0
 42
0.0000001
 43
0.0000001
 44
0.0000000001
 40
0.0
 40
0.0
 40
0.0
 40
0.0
 40
0.2549195745
 40
1.0
 40
1.0
 40
1.0
 40
1.0
 10
75.5609302489
 20
66.2050416485
 30
0.0
 10
75.559579915
 20
66.2633669651
 30
0.0
 10
75.5571704448
 20
66.4922189038
 30
0.0
 10
75.566584458
 20
66.7212321021
 30
0.0
 10
75.5809085649
 20
66.8911486621
 30
0.0
  0
SPLINE
  5
3DB
100
AcDbEntity
  8
0
100
AcDbSpline
 62
7
  6
CONTINUOUS
 70
0
 71
3
 72
15
 73
11
 74
0
 42
0.0000001
 43
0.0000001
 44
0.0000000001
 40
0.0
 40
0.0
 40
0.0
 40
0.0
 40
0.0501407366
 40
0.1132972091
 40
0.1967551471
 40
0.3046776922
 40
0.4398046043
 40
0.6037637761
 40
0.7928269211
 40
1.0
 40
1.0
 40
1.0
 40
1.0
 10
75.8871994406
 20
64.9388669308
 30
0.0
 10
75.8721524519
 20
64.9385185665
 30
0.0
 10
75.8378074797
 20
64.9483991221
 30
0.0
 10
75.7926952023
 20
64.9881158346
 30
0.0
 10
75.7494571501
 20
65.0516692373
 30
0.0
 10
75.7085111956
 20
65.1410711634
 30
0.0
 10
75.6708287288
 20
65.2574949203
 30
0.0
 10
75.6381919845
 20
65.4004843115
 30
0.0
 10
75.6105596834
 20
65.5664185303
 30
0.0
 10
75.5961748262
 20
65.684523282
 30
0.0
 10
75.5897527381
 20
65.7463790764
 30
0.0
  0
SPLINE
  5
3DC
100
AcDbEntity
  8
0
100
AcDbSpline
 62
7
  6
CONTINUOUS
 70
0
 71
3
 72
13
 73
9
 74
0
 42
0.0000001
 43
0.0000001
 44
0.0000000001
 40
0.0
 40
0.0
 40
0.0
 40
0.0
 40
0.2609657744
 40
0.5606183346
 40
0.7031778487
 40
0.8293475356
 40
0.930758929
 40
1.0
 40
1.0
 40
1.0
 40
1.0
 10
75.3576335338
 20
64.0363520524
 30
0.0
 10
75.349800411
 20
64.0875269794
 30
0.0
 10
75.3405356881
 20
64.1985394511
 30
0.0
 10
75.3365443785
 20
64.3380497357
 30
0.0
 10
75.3390838943
 20
64.4507640602
 30
0.0
 10
75.343875839
 20
64.5241757988
 30
0.0
 10
75.3519075968
 20
64.5823084305
 30
0.0
 10
75.3602815596
 20
64.6157168805
 30
0.0
 10
75.3667979406
 20
64.6278090157
 30
0.0
  0
SPLINE
  5
3DD
100
AcDbEntity
  8
0
100
AcDbSpline
 62
7
  6
CONTINUOUS
 70
0
 71
3
 72
14
 73
10
 74
0
 42
0.0000001
 43
0.0000001
 44
0.0000000001
 40
0.0
 40
0.0
 40
0.0
 40
0.0
 40
0.1123997264
 40
0.1996409451
 40
0.3113719007
 40
0.4486171503
 40
0.6116150921
 40
0.7972970335
 40
1.0
 40
1.0
 40
1.0
 40
1.0
 10
75.9887572476
 20
60.7139769189
 30
0.0
 10
75.9545949176
 20
60.7131860008
 30
0.0
 10
75.8999544894
 20
60.7591742384
 30
0.0
 10
75.852245978
 20
60.8382030267
 30
0.0
 10
75.81082209
 20
60.9328676621
 30
0.0
 10
75.7736121585
 20
61.0523292588
 30
0.0
 10
75.7407680954
 20
61.196578808
 30
0.0
 10
75.7130521524
 20
61.3619323674
 30
0.0
 10
75.6983603027
 20
61.4791297282
 30
0.0
 10
75.6917121222
 20
61.5403953233
 30
0.0
  0
SPLINE
  5
3DE
100
AcDbEntity
  8
0
100
AcDbSpline
 62
7
  6
CONTINUOUS
 70
0
 71
3
 72
9
 73
5
 74
0
 42
0.0000001
 43
0.0000001
 44
0.0000000001
 40
0.0
 40
0.0
 40
0.0
 40
0.0
 40
0.2451124529
 40
1.0
 40
1.0
 40
1.0
 40
1.0
 10
75.6917121222
 20
61.5403953233
 30
0.0
 10
75.6868191336
 20
61.5854861359
 30
0.0
 10
75.669137604
 20
61.7696879777
 30
0.0
 10
75.6593347499
 20
61.9546309111
 30
0.0
 10
75.656101683
 20
62.0942775942
 30
0.0
  0
SPLINE
  5
3DF
100
AcDbEntity
  8
0
100
AcDbSpline
 62
7
  6
CONTINUOUS
 70
0
 71
3
 72
9
 73
5
 74
0
 42
0.0000001
 43
0.0000001
 44
0.0000000001
 40
0.0
 40
0.0
 40
0.0
 40
0.0
 40
0.2677710025
 40
1.0
 40
1.0
 40
1.0
 40
1.0
 10
76.1190749141
 20
62.7604697265
 30
0.0
 10
76.1144081783
 20
62.8190816294
 30
0.0
 10
76.0937790986
 20
63.0376995649
 30
0.0
 10
76.0622058993
 20
63.255311328
 30
0.0
 10
76.0323747291
 20
63.4133032043
 30
0.0
  0
SPLINE
  5
3E0
100
AcDbEntity
  8
0
100
AcDbSpline
 62
7
  6
CONTINUOUS
 70
0
 71
3
 72
9
 73
5
 74
0
 42
0.0000001
 43
0.0000001
 44
0.0000000001
 40
0.0
 40
0.0
 40
0.0
 40
0.0
 40
0.2561645073
 40
1.0
 40
1.0
 40
1.0
 40
1.0
 10
75.656101683
 20
62.0942775942
 30
0.0
 10
75.6547709878
 20
62.1517546524
 30
0.0
 10
75.6529681049
 20
62.3761869173
 30
0.0
 10
75.6630589351
 20
62.6007847318
 30
0.0
 10
75.6785708737
 20
62.7670057431
 30
0.0
  0
SPLINE
  5
3E1
100
AcDbEntity
  8
0
100
AcDbSpline
 62
7
  6
CONTINUOUS
 70
0
 71
3
 72
13
 73
9
 74
0
 42
0.0000001
 43
0.0000001
 44
0.0000000001
 40
0.0
 40
0.0
 40
0.0
 40
0.0
 40
0.3674489545
 40
0.5274710695
 40
0.6678543673
 40
0.7860747845
 40
0.8803148315
 40
1.0
 40
1.0
 40
1.0
 40
1.0
 10
75.6785708737
 20
62.7670057431
 30
0.0
 10
75.6873523906
 20
62.8611056913
 30
0.0
 10
75.7035834575
 20
62.9959077002
 30
0.0
 10
75.7355108603
 20
63.1648912098
 30
0.0
 10
75.7611126555
 20
63.2692013516
 30
0.0
 10
75.7906108259
 20
63.3562619826
 30
0.0
 10
75.824886443
 20
63.4311460766
 30
0.0
 10
75.8691753199
 20
63.4811035984
 30
0.0
 10
75.8999504014
 20
63.4818162329
 30
0.0
  0
SPLINE
  5
3E2
100
AcDbEntity
  8
0
100
AcDbSpline
 62
7
  6
CONTINUOUS
 70
0
 71
3
 72
9
 73
5
 74
0
 42
0.0000001
 43
0.0000001
 44
0.0000000001
 40
0.0
 40
0.0
 40
0.0
 40
0.0
 40
0.2313247212
 40
1.0
 40
1.0
 40
1.0
 40
1.0
 10
75.8305203007
 20
58.5693671072
 30
0.0
 10
75.8131837377
 20
58.6335640456
 30
0.0
 10
75.7486658225
 20
58.9139055157
 30
0.0
 10
75.7230575753
 20
59.2022346449
 30
0.0
 10
75.7179432508
 20
59.4231389689
 30
0.0
  0
SPLINE
  5
3E3
100
AcDbEntity
  8
0
100
AcDbSpline
 62
7
  6
CONTINUOUS
 70
0
 71
3
 72
14
 73
10
 74
0
 42
0.0000001
 43
0.0000001
 44
0.0000000001
 40
0.0
 40
0.0
 40
0.0
 40
0.0
 40
0.198022376
 40
0.3862981257
 40
0.5549705405
 40
0.695959111
 40
0.8084867031
 40
0.8944152799
 40
1.0
 40
1.0
 40
1.0
 40
1.0
 10
75.7165790309
 20
59.5544858258
 30
0.0
 10
75.7167198505
 20
59.6130858928
 30
0.0
 10
75.718941069
 20
59.7274198152
 30
0.0
 10
75.7286135988
 20
59.8913757931
 30
0.0
 10
75.7449748358
 20
60.0380420666
 30
0.0
 10
75.7686236191
 20
60.1605520973
 30
0.0
 10
75.7995567999
 20
60.2574816938
 30
0.0
 10
75.8370185038
 20
60.3363007781
 30
0.0
 10
75.8842304863
 20
60.3849958563
 30
0.0
 10
75.9154675219
 20
60.3857190487
 30
0.0
  0
SPLINE
  5
3E4
100
AcDbEntity
  8
0
100
AcDbSpline
 62
7
  6
CONTINUOUS
 70
0
 71
3
 72
12
 73
8
 74
0
 42
0.0000001
 43
0.0000001
 44
0.0000000001
 40
0.0
 40
0.0
 40
0.0
 40
0.0
 40
0.1398190246
 40
0.2335974973
 40
0.3476514156
 40
0.6366881737
 40
1.0
 40
1.0
 40
1.0
 40
1.0
 10
76.0031055666
 20
61.5701289361
 30
0.0
 10
76.0153363459
 20
61.5704114709
 30
0.0
 10
76.0346823774
 20
61.5832496512
 30
0.0
 10
76.0513820701
 20
61.6083454326
 30
0.0
 10
76.0702998155
 20
61.6477804603
 30
0.0
 10
76.0889632494
 20
61.7124286174
 30
0.0
 10
76.0995894926
 20
61.7685487255
 30
0.0
 10
76.1045519893
 20
61.7999484679
 30
0.0
  0
SPLINE
  5
3E5
100
AcDbEntity
  8
0
100
AcDbSpline
 62
7
  6
CONTINUOUS
 70
0
 71
3
 72
9
 73
5
 74
0
 42
0.0000001
 43
0.0000001
 44
0.0000000001
 40
0.0
 40
0.0
 40
0.0
 40
0.0
 40
0.4699292357
 40
1.0
 40
1.0
 40
1.0
 40
1.0
 10
76.1045519893
 20
61.7999484679
 30
0.0
 10
76.1203025794
 20
61.8996088825
 30
0.0
 10
76.1363813222
 20
62.1142543141
 30
0.0
 10
76.1382688838
 20
62.3290022932
 30
0.0
 10
76.1356346826
 20
62.4427820166
 30
0.0
  0
SPLINE
  5
3E6
100
AcDbEntity
  8
0
100
AcDbSpline
 62
7
  6
CONTINUOUS
 70
0
 71
3
 72
13
 73
9
 74
0
 42
0.0000001
 43
0.0000001
 44
0.0000000001
 40
0.0
 40
0.0
 40
0.0
 40
0.0
 40
0.0500381216
 40
0.1235297153
 40
0.2237029707
 40
0.3480057178
 40
0.6522825264
 40
1.0
 40
1.0
 40
1.0
 40
1.0
 10
75.4788096132
 20
63.708785164
 30
0.0
 10
75.4728247284
 20
63.7086468171
 30
0.0
 10
75.4586085337
 20
63.7164519893
 30
0.0
 10
75.4428623043
 20
63.7380794209
 30
0.0
 10
75.426298333
 20
63.7698238303
 30
0.0
 10
75.403371493
 20
63.8288325807
 30
0.0
 10
75.3785593306
 20
63.9185426352
 30
0.0
 10
75.3638797513
 20
63.9952232725
 30
0.0
 10
75.3576335338
 20
64.0363520524
 30
0.0
  0
SPLINE
  5
3E7
100
AcDbEntity
  8
0
100
AcDbSpline
 62
7
  6
CONTINUOUS
 70
0
 71
3
 72
12
 73
8
 74
0
 42
0.0000001
 43
0.0000001
 44
0.0000000001
 40
0.0
 40
0.0
 40
0.0
 40
0.0
 40
0.1398382176
 40
0.2336246454
 40
0.3476792389
 40
0.6367018377
 40
1.0
 40
1.0
 40
1.0
 40
1.0
 10
75.8327594932
 20
68.9267092859
 30
0.0
 10
75.8449597353
 20
68.9269911284
 30
0.0
 10
75.8642579565
 20
68.939788564
 30
0.0
 10
75.8809341551
 20
68.9648075498
 30
0.0
 10
75.8998317715
 20
69.0041238792
 30
0.0
 10
75.918495868
 20
69.0685849299
 30
0.0
 10
75.9291334676
 20
69.1245474801
 30
0.0
 10
75.9341039591
 20
69.1558599832
 30
0.0
  0
SPLINE
  5
3E8
100
AcDbEntity
  8
0
100
AcDbSpline
 62
7
  6
CONTINUOUS
 70
0
 71
3
 72
9
 73
5
 74
0
 42
0.0000001
 43
0.0000001
 44
0.0000000001
 40
0.0
 40
0.0
 40
0.0
 40
0.0
 40
0.4698128013
 40
1.0
 40
1.0
 40
1.0
 40
1.0
 10
75.9341039591
 20
69.1558599832
 30
0.0
 10
75.9498906278
 20
69.2553109337
 30
0.0
 10
75.966053836
 20
69.4695752391
 30
0.0
 10
75.9679888954
 20
69.683949307
 30
0.0
 10
75.9653587191
 20
69.7975551863
 30
0.0
  0
SPLINE
  5
3E9
100
AcDbEntity
  8
0
100
AcDbSpline
 62
7
  6
CONTINUOUS
 70
0
 71
3
 72
11
 73
7
 74
0
 42
0.0000001
 43
0.0000001
 44
0.0000000001
 40
0.0
 40
0.0
 40
0.0
 40
0.0
 40
0.1204861347
 40
0.3458164607
 40
0.6514556167
 40
1.0
 40
1.0
 40
1.0
 40
1.0
 10
76.2308566738
 20
70.4285436614
 30
0.0
 10
76.2257261111
 20
70.4284277336
 30
0.0
 10
76.2149145151
 20
70.4427810589
 30
0.0
 10
76.2055682989
 20
70.4669638409
 30
0.0
 10
76.1950690736
 20
70.5038200451
 30
0.0
 10
76.1899813781
 20
70.5310340942
 30
0.0
 10
76.187749791
 20
70.5457109791
 30
0.0
  0
SPLINE
  5
3EA
100
AcDbEntity
  8
0
100
AcDbSpline
 62
7
  6
CONTINUOUS
 70
0
 71
3
 72
9
 73
5
 74
0
 42
0.0000001
 43
0.0000001
 44
0.0000000001
 40
0.0
 40
0.0
 40
0.0
 40
0.0
 40
0.2212713287
 40
1.0
 40
1.0
 40
1.0
 40
1.0
 10
76.5395182059
 20
57.4922727136
 30
0.0
 10
76.5367304442
 20
57.4999391106
 30
0.0
 10
76.5261194739
 20
57.5353147916
 30
0.0
 10
76.5225871243
 20
57.5724700186
 30
0.0
 10
76.5219226361
 20
57.6011714276
 30
0.0
  0
SPLINE
  5
3EB
100
AcDbEntity
  8
0
100
AcDbSpline
 62
7
  6
CONTINUOUS
 70
0
 71
3
 72
12
 73
8
 74
0
 42
0.0000001
 43
0.0000001
 44
0.0000000001
 40
0.0
 40
0.0
 40
0.0
 40
0.0
 40
0.3050653798
 40
0.5893325746
 40
0.827985069
 40
0.9233174563
 40
1.0
 40
1.0
 40
1.0
 40
1.0
 10
76.9407540812
 20
56.1840218698
 30
0.0
 10
76.9382283722
 20
56.2931154633
 30
0.0
 10
76.9279492593
 20
56.5038381755
 30
0.0
 10
76.8957457529
 20
56.798303454
 30
0.0
 10
76.8536640177
 20
57.0162238164
 30
0.0
 10
76.806835676
 20
57.1556017207
 30
0.0
 10
76.7791428807
 20
57.2111191028
 30
0.0
 10
76.7635416782
 20
57.2336797868
 30
0.0
  0
SPLINE
  5
3EC
100
AcDbEntity
  8
0
100
AcDbSpline
 62
7
  6
CONTINUOUS
 70
0
 71
3
 72
15
 73
11
 74
0
 42
0.0000001
 43
0.0000001
 44
0.0000000001
 40
0.0
 40
0.0
 40
0.0
 40
0.0
 40
0.0433783649
 40
0.0963905995
 40
0.1783720239
 40
0.2967944738
 40
0.4457439689
 40
0.6177490107
 40
0.8050676558
 40
1.0
 40
1.0
 40
1.0
 40
1.0
 10
75.8716585611
 20
65.77185038
 30
0.0
 10
75.881651896
 20
65.7720817433
 30
0.0
 10
75.9044459634
 20
65.7755286852
 30
0.0
 10
75.9368173701
 20
65.803794656
 30
0.0
 10
75.9620517327
 20
65.8572107226
 30
0.0
 10
75.9857473373
 20
65.934157694
 30
0.0
 10
76.0061289246
 20
66.0335062122
 30
0.0
 10
76.0218419252
 20
66.1496282212
 30
0.0
 10
76.0311904235
 20
66.2770879321
 30
0.0
 10
76.0322117612
 20
66.3652408695
 30
0.0
 10
76.031172068
 20
66.410148606
 30
0.0
  0
SPLINE
  5
3ED
100
AcDbEntity
  8
0
100
AcDbSpline
 62
7
  6
CONTINUOUS
 70
0
 71
3
 72
9
 73
5
 74
0
 42
0.0000001
 43
0.0000001
 44
0.0000000001
 40
0.0
 40
0.0
 40
0.0
 40
0.0
 40
0.2651633559
 40
1.0
 40
1.0
 40
1.0
 40
1.0
 10
76.031172068
 20
66.410148606
 30
0.0
 10
76.030211415
 20
66.4516423338
 30
0.0
 10
76.023396179
 20
66.6080006287
 30
0.0
 10
76.0030398933
 20
66.7640332597
 30
0.0
 10
75.9780252926
 20
66.8763009651
 30
0.0
  0
SPLINE
  5
3EE
100
AcDbEntity
  8
0
100
AcDbSpline
 62
7
  6
CONTINUOUS
 70
0
 71
3
 72
11
 73
7
 74
0
 42
0.0000001
 43
0.0000001
 44
0.0000000001
 40
0.0
 40
0.0
 40
0.0
 40
0.0
 40
0.2399876643
 40
0.4962739797
 40
0.7547906995
 40
1.0
 40
1.0
 40
1.0
 40
1.0
 10
74.7323324189
 20
42.2435366803
 30
0.0
 10
74.8375033499
 20
42.2675119068
 30
0.0
 10
75.0481188968
 20
42.3552382532
 30
0.0
 10
75.3022755801
 20
42.5907068046
 30
0.0
 10
75.4596983835
 20
42.901737615
 30
0.0
 10
75.48933269
 20
43.1309515517
 30
0.0
 10
75.4857118685
 20
43.241108138
 30
0.0
  0
SPLINE
  5
3EF
100
AcDbEntity
  8
0
100
AcDbSpline
 62
7
  6
CONTINUOUS
 70
0
 71
3
 72
9
 73
5
 74
0
 42
0.0000001
 43
0.0000001
 44
0.0000000001
 40
0.0
 40
0.0
 40
0.0
 40
0.0
 40
0.4479484524
 40
1.0
 40
1.0
 40
1.0
 40
1.0
 10
76.0699826359
 20
52.2442259525
 30
0.0
 10
76.0933919761
 20
52.3311273666
 30
0.0
 10
76.1273252311
 20
52.5298958711
 30
0.0
 10
76.143102201
 20
52.730251623
 30
0.0
 10
76.1491221298
 20
52.8410031045
 30
0.0
  0
SPLINE
  5
3F0
100
AcDbEntity
  8
0
100
AcDbSpline
 62
7
  6
CONTINUOUS
 70
0
 71
3
 72
9
 73
5
 74
0
 42
0.0000001
 43
0.0000001
 44
0.0000000001
 40
0.0
 40
0.0
 40
0.0
 40
0.0
 40
0.227938131
 40
1.0
 40
1.0
 40
1.0
 40
1.0
 10
76.6320092546
 20
58.5870187471
 30
0.0
 10
76.6382627028
 20
58.5768338509
 30
0.0
 10
76.6641763758
 20
58.5312164162
 30
0.0
 10
76.6859596563
 20
58.483420606
 30
0.0
 10
76.7022627602
 20
58.446367124
 30
0.0
  0
SPLINE
  5
3F1
100
AcDbEntity
  8
0
100
AcDbSpline
 62
7
  6
CONTINUOUS
 70
0
 71
3
 72
14
 73
10
 74
0
 42
0.0000001
 43
0.0000001
 44
0.0000000001
 40
0.0
 40
0.0
 40
0.0
 40
0.0
 40
0.3414701221
 40
0.5002104603
 40
0.6436807202
 40
0.7672135187
 40
0.8682403054
 40
0.9454220519
 40
1.0
 40
1.0
 40
1.0
 40
1.0
 10
72.1391665763
 20
47.2405010555
 30
0.0
 10
72.4138829918
 20
47.2644960282
 30
0.0
 10
72.8156973011
 20
47.3083378753
 30
0.0
 10
73.3295636338
 20
47.3871851246
 30
0.0
 10
73.667556963
 20
47.4507624475
 30
0.0
 10
73.9570142571
 20
47.5185467349
 30
0.0
 10
74.1910286403
 20
47.5875383915
 30
0.0
 10
74.3662049191
 20
47.6559440741
 30
0.0
 10
74.4602339698
 20
47.7077252458
 30
0.0
 10
74.495039333
 20
47.7347669928
 30
0.0
  0
SPLINE
  5
3F2
100
AcDbEntity
  8
0
100
AcDbSpline
 62
7
  6
CONTINUOUS
 70
0
 71
3
 72
14
 73
10
 74
0
 42
0.0000001
 43
0.0000001
 44
0.0000000001
 40
0.0
 40
0.0
 40
0.0
 40
0.0
 40
0.3414728452
 40
0.5002141055
 40
0.6436847558
 40
0.7672173344
 40
0.8682432873
 40
0.9454236873
 40
1.0
 40
1.0
 40
1.0
 40
1.0
 10
71.3303745963
 20
82.1748595375
 30
0.0
 10
71.6059105891
 20
82.1636036578
 30
0.0
 10
72.0093281173
 20
82.138403839
 30
0.0
 10
72.5262983864
 20
82.0834210503
 30
0.0
 10
72.8668742193
 20
82.035552838
 30
0.0
 10
73.1591590078
 20
81.9812359185
 30
0.0
 10
73.396114477
 20
81.9231471641
 30
0.0
 10
73.5742661502
 20
81.8629208968
 30
0.0
 10
73.6705884768
 20
81.8155460228
 30
0.0
 10
73.7066063162
 20
81.7901435419
 30
0.0
  0
SPLINE
  5
3F3
100
AcDbEntity
  8
0
100
AcDbSpline
 62
7
  6
CONTINUOUS
 70
0
 71
3
 72
18
 73
14
 74
0
 42
0.0000001
 43
0.0000001
 44
0.0000000001
 40
0.0
 40
0.0
 40
0.0
 40
0.0
 40
0.0498764984
 40
0.0842095025
 40
0.1253089858
 40
0.1720503653
 40
0.2237065631
 40
0.2802184707
 40
0.3416570981
 40
0.4794189791
 40
0.6370149993
 40
0.8122208348
 40
1.0
 40
1.0
 40
1.0
 40
1.0
 10
73.6895089168
 20
87.286478406
 30
0.0
 10
73.5907880478
 20
87.3042556638
 30
0.0
 10
73.4160500084
 20
87.2530616155
 30
0.0
 10
73.195960167
 20
87.1357148238
 30
0.0
 10
72.9903784434
 20
86.9988067885
 30
0.0
 10
72.7747281472
 20
86.8189099497
 30
0.0
 10
72.5576970891
 20
86.5944941744
 30
0.0
 10
72.3463771489
 20
86.3260325441
 30
0.0
 10
72.0688653871
 20
85.8921949002
 30
0.0
 10
71.7700493527
 20
85.2354821073
 30
0.0
 10
71.5153381382
 20
84.3210228083
 30
0.0
 10
71.3616515378
 20
83.2831256625
 30
0.0
 10
71.3309061856
 20
82.5525097704
 30
0.0
 10
71.3303745969
 20
82.174859552
 30
0.0
  0
SPLINE
  5
3F4
100
AcDbEntity
  8
0
100
AcDbSpline
 62
7
  6
CONTINUOUS
 70
0
 71
3
 72
11
 73
7
 74
0
 42
0.0000001
 43
0.0000001
 44
0.0000000001
 40
0.0
 40
0.0
 40
0.0
 40
0.0
 40
0.2399878941
 40
0.4962745381
 40
0.7547912933
 40
1.0
 40
1.0
 40
1.0
 40
1.0
 10
73.6895077382
 20
87.2864786178
 30
0.0
 10
73.7956768456
 20
87.2673961566
 30
0.0
 10
74.0101292969
 20
87.1895096392
 30
0.0
 10
74.2749130048
 20
86.9660512422
 30
0.0
 10
74.4465603826
 20
86.662633966
 30
0.0
 10
74.4867682407
 20
86.4350341755
 30
0.0
 10
74.4882476918
 20
86.3248270571
 30
0.0
  0
SPLINE
  5
3F5
100
AcDbEntity
  8
0
100
AcDbSpline
 62
7
  6
CONTINUOUS
 70
0
 71
3
 72
11
 73
7
 74
0
 42
0.0000001
 43
0.0000001
 44
0.0000000001
 40
0.0
 40
0.0
 40
0.0
 40
0.0
 40
0.2403251423
 40
0.4963033981
 40
0.7544785235
 40
1.0
 40
1.0
 40
1.0
 40
1.0
 10
79.0675298886
 20
86.2379163931
 30
0.0
 10
79.1710725801
 20
86.216217812
 30
0.0
 10
79.37892071
 20
86.1346616778
 30
0.0
 10
79.6338231612
 20
85.9113578744
 30
0.0
 10
79.7984084043
 20
85.6127406959
 30
0.0
 10
79.8367652846
 20
85.3898449697
 30
0.0
 10
79.8380629758
 20
85.2817734597
 30
0.0
  0
SPLINE
  5
3F6
100
AcDbEntity
  8
0
100
AcDbSpline
 62
7
  6
CONTINUOUS
 70
0
 71
3
 72
9
 73
5
 74
0
 42
0.0000001
 43
0.0000001
 44
0.0000000001
 40
0.0
 40
0.0
 40
0.0
 40
0.0
 40
0.5270411267
 40
1.0
 40
1.0
 40
1.0
 40
1.0
 10
76.8095902831
 20
63.4154880793
 30
0.0
 10
76.8115499362
 20
63.3308442802
 30
0.0
 10
76.8053536539
 20
63.1699532298
 30
0.0
 10
76.7828298643
 20
63.0105024805
 30
0.0
 10
76.7670316137
 20
62.9361846574
 30
0.0
  0
SPLINE
  5
3F7
100
AcDbEntity
  8
0
100
AcDbSpline
 62
7
  6
CONTINUOUS
 70
0
 71
3
 72
12
 73
8
 74
0
 42
0.0000001
 43
0.0000001
 44
0.0000000001
 40
0.0
 40
0.0
 40
0.0
 40
0.0
 40
0.367201098
 40
0.6618372817
 40
0.7779894588
 40
0.8721193146
 40
1.0
 40
1.0
 40
1.0
 40
1.0
 10
76.7670316137
 20
62.9361846574
 30
0.0
 10
76.7599605172
 20
62.9029209428
 30
0.0
 10
76.7451934302
 20
62.8433330567
 30
0.0
 10
76.7216816081
 20
62.7751656675
 30
0.0
 10
76.7002736832
 20
62.7331547509
 30
0.0
 10
76.683210441
 20
62.707695861
 30
0.0
 10
76.6649650885
 20
62.6926189955
 30
0.0
 10
76.6531250594
 20
62.692344878
 30
0.0
  0
SPLINE
  5
3F8
100
AcDbEntity
  8
0
100
AcDbSpline
 62
7
  6
CONTINUOUS
 70
0
 71
3
 72
9
 73
5
 74
0
 42
0.0000001
 43
0.0000001
 44
0.0000000001
 40
0.0
 40
0.0
 40
0.0
 40
0.0
 40
0.2453877788
 40
1.0
 40
1.0
 40
1.0
 40
1.0
 10
76.7574990914
 20
64.0100432774
 30
0.0
 10
76.7625802907
 20
63.9778896424
 30
0.0
 10
76.7816885441
 20
63.8466080705
 30
0.0
 10
76.7944957781
 20
63.7144257802
 30
0.0
 10
76.8009318103
 20
63.614527556
 30
0.0
  0
SPLINE
  5
3F9
100
AcDbEntity
  8
0
100
AcDbSpline
 62
7
  6
CONTINUOUS
 70
0
 71
3
 72
21
 73
17
 74
0
 42
0.0000001
 43
0.0000001
 44
0.0000000001
 40
0.0
 40
0.0
 40
0.0
 40
0.0
 40
0.1570236432
 40
0.3131040713
 40
0.4678817232
 40
0.6167808279
 40
0.6872002113
 40
0.7534228972
 40
0.8141329174
 40
0.8680979793
 40
0.9141398167
 40
0.9510057027
 40
0.9658730354
 40
0.9785601023
 40
0.9895987031
 40
1.0
 40
1.0
 40
1.0
 40
1.0
 10
74.4950481242
 20
47.7347738232
 30
0.0
 10
74.5094964378
 20
47.4875176591
 30
0.0
 10
74.5416979526
 20
46.9946731002
 30
0.0
 10
74.6055276489
 20
46.2593574758
 30
0.0
 10
74.6886801923
 20
45.5388426349
 30
0.0
 10
74.7784513107
 20
44.9553955998
 30
0.0
 10
74.8652474325
 20
44.5133827783
 30
0.0
 10
74.9355466788
 20
44.2100499052
 30
0.0
 10
75.012102543
 20
43.935079241
 30
0.0
 10
75.0946086814
 20
43.6950747097
 30
0.0
 10
75.1823457558
 20
43.4976311594
 30
0.0
 10
75.2635669633
 20
43.3651072566
 30
0.0
 10
75.3335571976
 20
43.2908716495
 30
0.0
 10
75.3834182124
 20
43.2550447721
 30
0.0
 10
75.4349072132
 20
43.2363960824
 30
0.0
 10
75.4697171843
 20
43.2374562901
 30
0.0
 10
75.48571187
 20
43.2411080885
 30
0.0
  0
SPLINE
  5
3FA
100
AcDbEntity
  8
0
100
AcDbSpline
 62
7
  6
CONTINUOUS
 70
0
 71
3
 72
10
 73
6
 74
0
 42
0.0000001
 43
0.0000001
 44
0.0000000001
 40
0.0
 40
0.0
 40
0.0
 40
0.0
 40
0.538016656
 40
0.7858662736
 40
1.0
 40
1.0
 40
1.0
 40
1.0
 10
76.7602800921
 20
65.5453557468
 30
0.0
 10
76.7626028704
 20
65.4450273923
 30
0.0
 10
76.7606372359
 20
65.298219309
 30
0.0
 10
76.7454041079
 20
65.1122761282
 30
0.0
 10
76.7329510276
 20
65.0268719375
 30
0.0
 10
76.7248850819
 20
64.9877528767
 30
0.0
  0
SPLINE
  5
3FB
100
AcDbEntity
  8
0
100
AcDbSpline
 62
7
  6
CONTINUOUS
 70
0
 71
3
 72
10
 73
6
 74
0
 42
0.0000001
 43
0.0000001
 44
0.0000000001
 40
0.0
 40
0.0
 40
0.0
 40
0.0
 40
0.3784944444
 40
0.6662343071
 40
1.0
 40
1.0
 40
1.0
 40
1.0
 10
76.7248850819
 20
64.9877528767
 30
0.0
 10
76.7188951617
 20
64.9587023394
 30
0.0
 10
76.7055193703
 20
64.9070401747
 30
0.0
 10
76.678302829
 20
64.8374741266
 30
0.0
 10
76.6418754185
 20
64.7892190395
 30
0.0
 10
76.6157260637
 20
64.7886136358
 30
0.0
  0
SPLINE
  5
3FC
100
AcDbEntity
  8
0
100
AcDbSpline
 62
7
  6
CONTINUOUS
 70
0
 71
3
 72
9
 73
5
 74
0
 42
0.0000001
 43
0.0000001
 44
0.0000000001
 40
0.0
 40
0.0
 40
0.0
 40
0.0
 40
0.5
 40
1.0
 40
1.0
 40
1.0
 40
1.0
 10
73.7066063161
 20
81.7901435363
 30
0.0
 10
73.6380336356
 20
76.1122717896
 30
0.0
 10
73.7045605065
 20
64.7532844186
 30
0.0
 10
74.163784311
 20
53.403388674
 30
0.0
 10
74.4950481556
 20
47.7347738476
 30
0.0
  0
SPLINE
  5
3FD
100
AcDbEntity
  8
0
100
AcDbSpline
 62
7
  6
CONTINUOUS
 70
0
 71
3
 72
9
 73
5
 74
0
 42
0.0000001
 43
0.0000001
 44
0.0000000001
 40
0.0
 40
0.0
 40
0.0
 40
0.0
 40
0.2922407392
 40
1.0
 40
1.0
 40
1.0
 40
1.0
 10
76.5393398115
 20
56.0301921014
 30
0.0
 10
76.5389826818
 20
56.045617699
 30
0.0
 10
76.5360886508
 20
56.0981895326
 30
0.0
 10
76.5259801412
 20
56.1514588161
 30
0.0
 10
76.5102295264
 20
56.1853454922
 30
0.0
  0
SPLINE
  5
3FE
100
AcDbEntity
  8
0
100
AcDbSpline
 62
7
  6
CONTINUOUS
 70
0
 71
3
 72
21
 73
17
 74
0
 42
0.0000001
 43
0.0000001
 44
0.0000000001
 40
0.0
 40
0.0
 40
0.0
 40
0.0
 40
0.0104012895
 40
0.0214398838
 40
0.0341269407
 40
0.0489942553
 40
0.0858600811
 40
0.1319018844
 40
0.1858669966
 40
0.246577139
 40
0.31279999
 40
0.3832195546
 40
0.5321189673
 40
0.6868966825
 40
0.8429768049
 40
1.0
 40
1.0
 40
1.0
 40
1.0
 10
74.488247501
 20
86.3248412654
 30
0.0
 10
74.4721009636
 20
86.3277489354
 30
0.0
 10
74.4372792462
 20
86.3271970377
 30
0.0
 10
74.3867084915
 20
86.3061854887
 30
0.0
 10
74.3385589647
 20
86.2680895305
 30
0.0
 10
74.2720793277
 20
86.1906945221
 30
0.0
 10
74.1970782567
 20
86.0545539584
 30
0.0
 10
74.1185726762
 20
85.853261653
 30
0.0
 10
74.0472619352
 20
85.6096958012
 30
0.0
 10
73.9835131495
 20
85.3314763545
 30
0.0
 10
73.9273267994
 20
85.0252144275
 30
0.0
 10
73.8610791522
 20
84.5796573872
 30
0.0
 10
73.7984053766
 20
83.9926801131
 30
0.0
 10
73.7486866552
 20
83.2690889534
 30
0.0
 10
73.7189550871
 20
82.5316083031
 30
0.0
 10
73.7095964099
 20
82.037802744
 30
0.0
 10
73.706606284
 20
81.7901435589
 30
0.0
  0
SPLINE
  5
3FF
100
AcDbEntity
  8
0
100
AcDbSpline
 62
7
  6
CONTINUOUS
 70
0
 71
3
 72
12
 73
8
 74
0
 42
0.0000001
 43
0.0000001
 44
0.0000000001
 40
0.0
 40
0.0
 40
0.0
 40
0.0
 40
0.3478969901
 40
0.6559464042
 40
0.8829457551
 40
0.9551387922
 40
1.0
 40
1.0
 40
1.0
 40
1.0
 10
76.4815044011
 20
65.5389015981
 30
0.0
 10
76.4827956003
 20
65.4831304997
 30
0.0
 10
76.4920305583
 20
65.377921332
 30
0.0
 10
76.5193731715
 20
65.2392565197
 30
0.0
 10
76.5507089061
 20
65.1454817075
 30
0.0
 10
76.578433012
 20
65.0985365267
 30
0.0
 10
76.5956294491
 20
65.0862538246
 30
0.0
 10
76.6028211148
 20
65.0864203243
 30
0.0
  0
SPLINE
  5
400
100
AcDbEntity
  8
0
100
AcDbSpline
 62
7
  6
CONTINUOUS
 70
0
 71
3
 72
9
 73
5
 74
0
 42
0.0000001
 43
0.0000001
 44
0.0000000001
 40
0.0
 40
0.0
 40
0.0
 40
0.0
 40
0.2395837178
 40
1.0
 40
1.0
 40
1.0
 40
1.0
 10
76.5045880636
 20
65.9504629374
 30
0.0
 10
76.4998344553
 20
65.9178659029
 30
0.0
 10
76.4832247204
 20
65.7813421268
 30
0.0
 10
76.4790844344
 20
65.6434278375
 30
0.0
 10
76.4815044011
 20
65.5389015981
 30
0.0
  0
SPLINE
  5
401
100
AcDbEntity
  8
0
100
AcDbSpline
 62
7
  6
CONTINUOUS
 70
0
 71
3
 72
9
 73
5
 74
0
 42
0.0000001
 43
0.0000001
 44
0.0000000001
 40
0.0
 40
0.0
 40
0.0
 40
0.0
 40
0.5208354538
 40
1.0
 40
1.0
 40
1.0
 40
1.0
 10
76.7154012946
 20
67.4838171048
 30
0.0
 10
76.7167315773
 20
67.4263578637
 30
0.0
 10
76.7128353162
 20
67.3158783547
 30
0.0
 10
76.6993205801
 20
67.2061407305
 30
0.0
 10
76.6894792599
 20
67.1541884174
 30
0.0
  0
SPLINE
  5
402
100
AcDbEntity
  8
0
100
AcDbSpline
 62
7
  6
CONTINUOUS
 70
0
 71
3
 72
10
 73
6
 74
0
 42
0.0000001
 43
0.0000001
 44
0.0000000001
 40
0.0
 40
0.0
 40
0.0
 40
0.0
 40
0.6668880791
 40
0.8764480732
 40
1.0
 40
1.0
 40
1.0
 40
1.0
 10
76.6894792599
 20
67.1541884174
 30
0.0
 10
76.6823477474
 20
67.1165411751
 30
0.0
 10
76.6703995119
 20
67.0664191582
 30
0.0
 10
76.6478225254
 20
67.0149793685
 30
0.0
 10
76.6317308833
 20
66.9999412786
 30
0.0
 10
76.6246339803
 20
66.9997769728
 30
0.0
  0
SPLINE
  5
403
100
AcDbEntity
  8
0
100
AcDbSpline
 62
7
  6
CONTINUOUS
 70
0
 71
3
 72
9
 73
5
 74
0
 42
0.0000001
 43
0.0000001
 44
0.0000000001
 40
0.0
 40
0.0
 40
0.0
 40
0.0
 40
0.2438345604
 40
1.0
 40
1.0
 40
1.0
 40
1.0
 10
76.6854388198
 20
67.8417538957
 30
0.0
 10
76.6897484618
 20
67.8128685492
 30
0.0
 10
76.705432953
 20
67.6941128333
 30
0.0
 10
76.713305023
 20
67.5743619
 30
0.0
 10
76.7154012946
 20
67.4838171048
 30
0.0
  0
SPLINE
  5
404
100
AcDbEntity
  8
0
100
AcDbSpline
 62
7
  6
CONTINUOUS
 70
0
 71
3
 72
9
 73
5
 74
0
 42
0.0000001
 43
0.0000001
 44
0.0000000001
 40
0.0
 40
0.0
 40
0.0
 40
0.0
 40
0.2115930138
 40
1.0
 40
1.0
 40
1.0
 40
1.0
 10
76.8029268461
 20
56.1921219512
 30
0.0
 10
76.8076395295
 20
56.1819828438
 30
0.0
 10
76.8260080449
 20
56.1322370062
 30
0.0
 10
76.8310728788
 20
56.0786177627
 30
0.0
 10
76.8320371313
 20
56.0369685603
 30
0.0
  0
SPLINE
  5
405
100
AcDbEntity
  8
0
100
AcDbSpline
 62
7
  6
CONTINUOUS
 70
0
 71
3
 72
12
 73
8
 74
0
 42
0.0000001
 43
0.0000001
 44
0.0000000001
 40
0.0
 40
0.0
 40
0.0
 40
0.0
 40
0.3159287171
 40
0.6064869316
 40
0.8423718762
 40
0.9318889285
 40
1.0
 40
1.0
 40
1.0
 40
1.0
 10
76.4237758206
 20
57.3848034008
 30
0.0
 10
76.4262555741
 20
57.2776947762
 30
0.0
 10
76.4370478689
 20
57.0720732652
 30
0.0
 10
76.4710516709
 20
56.78849014
 30
0.0
 10
76.5145427508
 20
56.5830126361
 30
0.0
 10
76.5629362005
 20
56.4585750222
 30
0.0
 10
76.5915972466
 20
56.4123268289
 30
0.0
 10
76.6077611273
 20
56.3958273027
 30
0.0
  0
SPLINE
  5
406
100
AcDbEntity
  8
0
100
AcDbSpline
 62
7
  6
CONTINUOUS
 70
0
 71
3
 72
12
 73
8
 74
0
 42
0.0000001
 43
0.0000001
 44
0.0000000001
 40
0.0
 40
0.0
 40
0.0
 40
0.0
 40
0.3592483203
 40
0.6629247702
 40
0.8821543367
 40
0.9530777283
 40
1.0
 40
1.0
 40
1.0
 40
1.0
 10
76.3981594809
 20
69.2452374397
 30
0.0
 10
76.3992330489
 20
69.1988665435
 30
0.0
 10
76.4071685921
 20
69.1132159077
 30
0.0
 10
76.4325035496
 20
69.0022041181
 30
0.0
 10
76.4610403768
 20
68.9297872706
 30
0.0
 10
76.4865012962
 20
68.8946187556
 30
0.0
 10
76.5010045729
 20
68.8862768835
 30
0.0
 10
76.5070611852
 20
68.8864171048
 30
0.0
  0
SPLINE
  5
407
100
AcDbEntity
  8
0
100
AcDbSpline
 62
7
  6
CONTINUOUS
 70
0
 71
3
 72
9
 73
5
 74
0
 42
0.0000001
 43
0.0000001
 44
0.0000000001
 40
0.0
 40
0.0
 40
0.0
 40
0.0
 40
0.2279620882
 40
1.0
 40
1.0
 40
1.0
 40
1.0
 10
76.4244766908
 20
69.5213685403
 30
0.0
 10
76.4193388586
 20
69.5008881853
 30
0.0
 10
76.4007296205
 20
69.4100556663
 30
0.0
 10
76.3965043425
 20
69.316728256
 30
0.0
 10
76.3981594809
 20
69.2452374397
 30
0.0
  0
SPLINE
  5
408
100
AcDbEntity
  8
0
100
AcDbSpline
 62
7
  6
CONTINUOUS
 70
0
 71
3
 72
9
 73
5
 74
0
 42
0.0000001
 43
0.0000001
 44
0.0000000001
 40
0.0
 40
0.0
 40
0.0
 40
0.0
 40
0.5
 40
1.0
 40
1.0
 40
1.0
 40
1.0
 10
72.1391665762
 20
47.2405010555
 30
0.0
 10
71.8013168585
 20
53.055523432
 30
0.0
 10
71.332200748
 20
64.6983601024
 30
0.0
 10
71.2619986549
 20
76.3504323354
 30
0.0
 10
71.3303745969
 20
82.174859552
 30
0.0
  0
SPLINE
  5
409
100
AcDbEntity
  8
0
100
AcDbSpline
 62
7
  6
CONTINUOUS
 70
0
 71
3
 72
9
 73
5
 74
0
 42
0.0000001
 43
0.0000001
 44
0.0000000001
 40
0.0
 40
0.0
 40
0.0
 40
0.0
 40
0.251328291
 40
1.0
 40
1.0
 40
1.0
 40
1.0
 10
48.4324508272
 20
46.2463761734
 30
0.0
 10
50.4192205434
 20
46.3109339094
 30
0.0
 10
58.3236838856
 20
46.5863250881
 30
0.0
 10
66.2255807814
 20
46.9357762357
 30
0.0
 10
72.1391665762
 20
47.2405010555
 30
0.0
  0
SPLINE
  5
40A
100
AcDbEntity
  8
0
100
AcDbSpline
 62
7
  6
CONTINUOUS
 70
0
 71
3
 72
9
 73
5
 74
0
 42
0.0000001
 43
0.0000001
 44
0.0000000001
 40
0.0
 40
0.0
 40
0.0
 40
0.0
 40
0.5213177887
 40
1.0
 40
1.0
 40
1.0
 40
1.0
 10
76.6043227129
 20
72.2816626445
 30
0.0
 10
76.6063947894
 20
72.1921629141
 30
0.0
 10
76.6002792533
 20
72.0202300053
 30
0.0
 10
76.578943737
 20
71.8494915696
 30
0.0
 10
76.5635006136
 20
71.7687531483
 30
0.0
  0
SPLINE
  5
40B
100
AcDbEntity
  8
0
100
AcDbSpline
 62
7
  6
CONTINUOUS
 70
0
 71
3
 72
12
 73
8
 74
0
 42
0.0000001
 43
0.0000001
 44
0.0000000001
 40
0.0
 40
0.0
 40
0.0
 40
0.0
 40
0.369738532
 40
0.6663547262
 40
0.7827188875
 40
0.8762426518
 40
1.0
 40
1.0
 40
1.0
 40
1.0
 10
76.5635006136
 20
71.7687531483
 30
0.0
 10
76.5571580301
 20
71.7355933941
 30
0.0
 10
76.5439550627
 20
71.6761016561
 30
0.0
 10
76.5229811644
 20
71.6077902861
 30
0.0
 10
76.5035279643
 20
71.5653553029
 30
0.0
 10
76.4881956512
 20
71.539948193
 30
0.0
 10
76.4710868858
 20
71.5242783276
 30
0.0
 10
76.4597896081
 20
71.5240167757
 30
0.0
  0
SPLINE
  5
40C
100
AcDbEntity
  8
0
100
AcDbSpline
 62
7
  6
CONTINUOUS
 70
0
 71
3
 72
12
 73
8
 74
0
 42
0.0000001
 43
0.0000001
 44
0.0000000001
 40
0.0
 40
0.0
 40
0.0
 40
0.0
 40
0.3481343158
 40
0.6560963144
 40
0.8829335151
 40
0.9550973608
 40
1.0
 40
1.0
 40
1.0
 40
1.0
 10
76.3255470219
 20
72.2752084959
 30
0.0
 10
76.3268356165
 20
72.2195498999
 30
0.0
 10
76.3360607967
 20
72.1146001064
 30
0.0
 10
76.3634175888
 20
71.976323866
 30
0.0
 10
76.3947532424
 20
71.8828808934
 30
0.0
 10
76.4224847698
 20
71.8361241121
 30
0.0
 10
76.439653479
 20
71.823915855
 30
0.0
 10
76.4468323687
 20
71.824082059
 30
0.0
  0
SPLINE
  5
40D
100
AcDbEntity
  8
0
100
AcDbSpline
 62
7
  6
CONTINUOUS
 70
0
 71
3
 72
9
 73
5
 74
0
 42
0.0000001
 43
0.0000001
 44
0.0000000001
 40
0.0
 40
0.0
 40
0.0
 40
0.0
 40
0.2396271907
 40
1.0
 40
1.0
 40
1.0
 40
1.0
 10
76.3486097979
 20
72.6876719934
 30
0.0
 10
76.343858331
 20
72.6549960573
 30
0.0
 10
76.3272588
 20
72.5181694105
 30
0.0
 10
76.3231219208
 20
72.3799565058
 30
0.0
 10
76.3255470219
 20
72.2752084959
 30
0.0
  0
SPLINE
  5
40E
100
AcDbEntity
  8
0
100
AcDbSpline
 62
7
  6
CONTINUOUS
 70
0
 71
3
 72
12
 73
8
 74
0
 42
0.0000001
 43
0.0000001
 44
0.0000000001
 40
0.0
 40
0.0
 40
0.0
 40
0.0
 40
0.2615940664
 40
0.5621730519
 40
0.8309640569
 40
0.9318265537
 40
1.0
 40
1.0
 40
1.0
 40
1.0
 10
76.2426733994
 20
70.6459002569
 30
0.0
 10
76.2454563699
 20
70.6276759851
 30
0.0
 10
76.2487816322
 20
70.588116265
 30
0.0
 10
76.2503680752
 20
70.5296235848
 30
0.0
 10
76.2489781999
 20
70.4822157466
 30
0.0
 10
76.2447880391
 20
70.4517550355
 30
0.0
 10
76.2418083313
 20
70.4399858616
 30
0.0
 10
76.2394587047
 20
70.435795165
 30
0.0
  0
SPLINE
  5
40F
100
AcDbEntity
  8
0
100
AcDbSpline
 62
7
  6
CONTINUOUS
 70
0
 71
3
 72
10
 73
6
 74
0
 42
0.0000001
 43
0.0000001
 44
0.0000000001
 40
0.0
 40
0.0
 40
0.0
 40
0.0
 40
0.6241923546
 40
0.8463017243
 40
1.0
 40
1.0
 40
1.0
 40
1.0
 10
75.5787982452
 20
72.723146977
 30
0.0
 10
75.5821974257
 20
72.5763253038
 30
0.0
 10
75.6124940029
 20
72.3754965385
 30
0.0
 10
75.6988584867
 20
72.1562263289
 30
0.0
 10
75.7415326248
 20
72.0783256558
 30
0.0
 10
75.7620086313
 20
72.048518755
 30
0.0
  0
SPLINE
  5
410
100
AcDbEntity
  8
0
100
AcDbSpline
 62
7
  6
CONTINUOUS
 70
0
 71
3
 72
9
 73
5
 74
0
 42
0.0000001
 43
0.0000001
 44
0.0000000001
 40
0.0
 40
0.0
 40
0.0
 40
0.0
 40
0.2378168278
 40
1.0
 40
1.0
 40
1.0
 40
1.0
 10
75.6096928321
 20
73.2143840492
 30
0.0
 10
75.6034293971
 20
73.1758392016
 30
0.0
 10
75.5814050064
 20
73.0130647235
 30
0.0
 10
75.5759015002
 20
72.8482668247
 30
0.0
 10
75.5787982452
 20
72.723146977
 30
0.0
  0
SPLINE
  5
411
100
AcDbEntity
  8
0
100
AcDbSpline
 62
7
  6
CONTINUOUS
 70
0
 71
3
 72
23
 73
19
 74
0
 42
0.0000001
 43
0.0000001
 44
0.0000000001
 40
0.0
 40
0.0
 40
0.0
 40
0.0
 40
0.0223625936
 40
0.0421442473
 40
0.0676921625
 40
0.0985012314
 40
0.1339482598
 40
0.2160473525
 40
0.3084173775
 40
0.4053608408
 40
0.5912244179
 40
0.6741842614
 40
0.7492335269
 40
0.8156002437
 40
0.872561609
 40
0.9194965489
 40
0.9560240283
 40
1.0
 40
1.0
 40
1.0
 40
1.0
 10
76.2793268062
 20
50.7933054222
 30
0.0
 10
76.263953959
 20
50.7929495137
 30
0.0
 10
76.2454857571
 20
50.7600235237
 30
0.0
 10
76.233651075
 20
50.7181134906
 30
0.0
 10
76.2231294481
 20
50.6657166124
 30
0.0
 10
76.2147500572
 20
50.6034941263
 30
0.0
 10
76.2044915153
 20
50.5018331743
 30
0.0
 10
76.1952182725
 20
50.357846198
 30
0.0
 10
76.1864596501
 20
50.1713927179
 30
0.0
 10
76.1754643056
 20
49.9136672322
 30
0.0
 10
76.1607702888
 20
49.6625035003
 30
0.0
 10
76.1367933454
 20
49.4272149952
 30
0.0
 10
76.1164932735
 20
49.2742898079
 30
0.0
 10
76.0931566376
 20
49.1396930244
 30
0.0
 10
76.0676115203
 20
49.0258413875
 30
0.0
 10
76.038559742
 20
48.9322264273
 30
0.0
 10
76.0060441335
 20
48.8549910346
 30
0.0
 10
75.9638560404
 20
48.801335637
 30
0.0
 10
75.9336253835
 20
48.800635744
 30
0.0
  0
SPLINE
  5
412
100
AcDbEntity
  8
0
100
AcDbSpline
 62
7
  6
CONTINUOUS
 70
0
 71
3
 72
15
 73
11
 74
0
 42
0.0000001
 43
0.0000001
 44
0.0000000001
 40
0.0
 40
0.0
 40
0.0
 40
0.0
 40
0.3535228409
 40
0.5207365142
 40
0.6701492945
 40
0.7942591132
 40
0.8899705988
 40
0.9270423965
 40
0.9571444291
 40
1.0
 40
1.0
 40
1.0
 40
1.0
 10
76.0773136418
 20
69.6005048571
 30
0.0
 10
76.081676561
 20
69.4120561707
 30
0.0
 10
76.0810680787
 20
69.1341409086
 30
0.0
 10
76.0601737916
 20
68.7773524839
 30
0.0
 10
76.0343031527
 20
68.5435757167
 30
0.0
 10
75.9954973668
 20
68.3502510091
 30
0.0
 10
75.9526141393
 20
68.2196031778
 30
0.0
 10
75.911570651
 20
68.1423729962
 30
0.0
 10
75.8774902488
 20
68.0955271804
 30
0.0
 10
75.8412945206
 20
68.070632218
 30
0.0
 10
75.8184499542
 20
68.070103326
 30
0.0
  0
SPLINE
  5
413
100
AcDbEntity
  8
0
100
AcDbSpline
 62
7
  6
CONTINUOUS
 70
0
 71
3
 72
9
 73
5
 74
0
 42
0.0000001
 43
0.0000001
 44
0.0000000001
 40
0.0
 40
0.0
 40
0.0
 40
0.0
 40
0.474975333
 40
1.0
 40
1.0
 40
1.0
 40
1.0
 10
75.974009931
 20
70.7729239193
 30
0.0
 10
76.0092095842
 20
70.589792622
 30
0.0
 10
76.054022121
 20
70.198824358
 30
0.0
 10
76.0725425616
 20
69.8065833418
 30
0.0
 10
76.0773136418
 20
69.6005048571
 30
0.0
  0
SPLINE
  5
414
100
AcDbEntity
  8
0
100
AcDbSpline
 62
7
  6
CONTINUOUS
 70
0
 71
3
 72
9
 73
5
 74
0
 42
0.0000001
 43
0.0000001
 44
0.0000000001
 40
0.0
 40
0.0
 40
0.0
 40
0.0
 40
0.5165308073
 40
1.0
 40
1.0
 40
1.0
 40
1.0
 10
76.524473424
 20
50.2989750497
 30
0.0
 10
76.5300845222
 20
50.0566134511
 30
0.0
 10
76.5309110386
 20
49.5871344313
 30
0.0
 10
76.5018740584
 20
49.1179712818
 30
0.0
 10
76.4749604703
 20
48.8926635017
 30
0.0
  0
SPLINE
  5
415
100
AcDbEntity
  8
0
100
AcDbSpline
 62
7
  6
CONTINUOUS
 70
0
 71
3
 72
15
 73
11
 74
0
 42
0.0000001
 43
0.0000001
 44
0.0000000001
 40
0.0
 40
0.0
 40
0.0
 40
0.0
 40
0.045879961
 40
0.0771592839
 40
0.1150826047
 40
0.2109618347
 40
0.3320087287
 40
0.4751793794
 40
0.6369655756
 40
1.0
 40
1.0
 40
1.0
 40
1.0
 10
76.2327567821
 20
51.7877227317
 30
0.0
 10
76.2485315172
 20
51.7880879446
 30
0.0
 10
76.2742441071
 20
51.7732684469
 30
0.0
 10
76.2998929795
 20
51.7436796419
 30
0.0
 10
76.3310728625
 20
51.6958090726
 30
0.0
 10
76.366524691
 20
51.6153277527
 30
0.0
 10
76.4041022112
 20
51.4971706831
 30
0.0
 10
76.4370253516
 20
51.3542638281
 30
0.0
 10
76.4741917467
 20
51.1274571367
 30
0.0
 10
76.491381529
 20
50.9475863651
 30
0.0
 10
76.500509946
 20
50.8230662998
 30
0.0
  0
SPLINE
  5
416
100
AcDbEntity
  8
0
100
AcDbSpline
 62
7
  6
CONTINUOUS
 70
0
 71
3
 72
9
 73
5
 74
0
 42
0.0000001
 43
0.0000001
 44
0.0000000001
 40
0.0
 40
0.0
 40
0.0
 40
0.0
 40
0.2489738557
 40
1.0
 40
1.0
 40
1.0
 40
1.0
 10
76.500509946
 20
50.8230662998
 30
0.0
 10
76.5036935027
 20
50.7796396377
 30
0.0
 10
76.5149998221
 20
50.605108547
 30
0.0
 10
76.5214333138
 20
50.4302873059
 30
0.0
 10
76.524473424
 20
50.2989750497
 30
0.0
  0
SPLINE
  5
417
100
AcDbEntity
  8
0
100
AcDbSpline
 62
7
  6
CONTINUOUS
 70
0
 71
3
 72
15
 73
11
 74
0
 42
0.0000001
 43
0.0000001
 44
0.0000000001
 40
0.0
 40
0.0
 40
0.0
 40
0.0
 40
0.2889771376
 40
0.4390218405
 40
0.5942134572
 40
0.7414679239
 40
0.8662972678
 40
0.9549192432
 40
0.9824466487
 40
1.0
 40
1.0
 40
1.0
 40
1.0
 10
75.809152568
 20
50.3682323012
 30
0.0
 10
75.8104619334
 20
50.3116765456
 30
0.0
 10
75.8127792556
 20
50.2257409357
 30
0.0
 10
75.8208532038
 20
50.1096704433
 30
0.0
 10
75.8298602889
 20
50.0215510475
 30
0.0
 10
75.8413727255
 20
49.9386143576
 30
0.0
 10
75.85465984
 20
49.8693993101
 30
0.0
 10
75.8680802444
 20
49.8236385649
 30
0.0
 10
75.8804125311
 20
49.8006735998
 30
0.0
 10
75.8886423592
 20
49.7950881949
 30
0.0
 10
75.892077728
 20
49.7951677297
 30
0.0
  0
SPLINE
  5
418
100
AcDbEntity
  8
0
100
AcDbSpline
 62
7
  6
CONTINUOUS
 70
0
 71
3
 72
14
 73
10
 74
0
 42
0.0000001
 43
0.0000001
 44
0.0000000001
 40
0.0
 40
0.0
 40
0.0
 40
0.0
 40
0.3962207738
 40
0.5598359219
 40
0.6946907632
 40
0.8024770497
 40
0.8859540784
 40
0.9493430627
 40
1.0
 40
1.0
 40
1.0
 40
1.0
 10
76.1481898683
 20
65.7371590742
 30
0.0
 10
76.1407817849
 20
65.6213355941
 30
0.0
 10
76.1249421915
 20
65.457764875
 30
0.0
 10
76.0868278262
 20
65.2577089434
 30
0.0
 10
76.0543433394
 20
65.1430317016
 30
0.0
 10
76.0177826578
 20
65.054444228
 30
0.0
 10
75.9780003306
 20
64.9908144101
 30
0.0
 10
75.9353153566
 20
64.9502497491
 30
0.0
 10
75.9020337882
 20
64.9392103721
 30
0.0
 10
75.8871994406
 20
64.9388669308
 30
0.0
  0
SPLINE
  5
419
100
AcDbEntity
  8
0
100
AcDbSpline
 62
7
  6
CONTINUOUS
 70
0
 71
3
 72
9
 73
5
 74
0
 42
0.0000001
 43
0.0000001
 44
0.0000000001
 40
0.0
 40
0.0
 40
0.0
 40
0.0
 40
0.2513282914
 40
1.0
 40
1.0
 40
1.0
 40
1.0
 10
47.6030522
 20
82.0708028361
 30
0.0
 10
49.5906808761
 20
82.0982594288
 30
0.0
 10
57.4994198594
 20
82.1889717587
 30
0.0
 10
65.4090225467
 20
82.2055846984
 30
0.0
 10
71.3303745969
 20
82.174859552
 30
0.0
  0
SPLINE
  5
41A
100
AcDbEntity
  8
0
100
AcDbSpline
 62
7
  6
CONTINUOUS
 70
0
 71
3
 72
9
 73
5
 74
0
 42
0.0000001
 43
0.0000001
 44
0.0000000001
 40
0.0
 40
0.0
 40
0.0
 40
0.0
 40
0.2432599348
 40
1.0
 40
1.0
 40
1.0
 40
1.0
 10
76.0830203007
 20
66.9027734339
 30
0.0
 10
76.0904513359
 20
66.8636362709
 30
0.0
 10
76.118475144
 20
66.7022754506
 30
0.0
 10
76.1366240833
 20
66.5392461703
 30
0.0
 10
76.145514902
 20
66.4156413215
 30
0.0
  0
SPLINE
  5
41B
100
AcDbEntity
  8
0
100
AcDbSpline
 62
7
  6
CONTINUOUS
 70
0
 71
3
 72
9
 73
5
 74
0
 42
0.0000001
 43
0.0000001
 44
0.0000000001
 40
0.0
 40
0.0
 40
0.0
 40
0.0
 40
0.2397839728
 40
1.0
 40
1.0
 40
1.0
 40
1.0
 10
75.8563557999
 20
51.6019513528
 30
0.0
 10
75.8492978122
 20
51.5035083914
 30
0.0
 10
75.8200578115
 20
51.0930324165
 30
0.0
 10
75.8019101665
 20
50.6810551975
 30
0.0
 10
75.809152568
 20
50.3682323012
 30
0.0
  0
SPLINE
  5
41C
100
AcDbEntity
  8
0
100
AcDbSpline
 62
7
  6
CONTINUOUS
 70
0
 71
3
 72
9
 73
5
 74
0
 42
0.0000001
 43
0.0000001
 44
0.0000000001
 40
0.0
 40
0.0
 40
0.0
 40
0.0
 40
0.2483126221
 40
1.0
 40
1.0
 40
1.0
 40
1.0
 10
75.8646653051
 20
57.744040312
 30
0.0
 10
75.8646238954
 20
57.771470727
 30
0.0
 10
75.8650295197
 20
57.8819369749
 30
0.0
 10
75.867728035
 20
57.9924039413
 30
0.0
 10
75.8714440015
 20
58.0753576929
 30
0.0
  0
SPLINE
  5
41D
100
AcDbEntity
  8
0
100
AcDbSpline
 62
7
  6
CONTINUOUS
 70
0
 71
3
 72
9
 73
5
 74
0
 42
0.0000001
 43
0.0000001
 44
0.0000000001
 40
0.0
 40
0.0
 40
0.0
 40
0.0
 40
0.5411876892
 40
1.0
 40
1.0
 40
1.0
 40
1.0
 10
75.8714440015
 20
58.0753576929
 30
0.0
 10
75.8751230676
 20
58.1574876936
 30
0.0
 10
75.8850047711
 20
58.3090859139
 30
0.0
 10
75.90421744
 20
58.4600929931
 30
0.0
 10
75.9180462508
 20
58.5284059781
 30
0.0
  0
SPLINE
  5
41E
100
AcDbEntity
  8
0
100
AcDbSpline
 62
7
  6
CONTINUOUS
 70
0
 71
3
 72
13
 73
9
 74
0
 42
0.0000001
 43
0.0000001
 44
0.0000000001
 40
0.0
 40
0.0
 40
0.0
 40
0.0
 40
0.2614618734
 40
0.5615962173
 40
0.7042358851
 40
0.8302993752
 40
0.9313652845
 40
1.0
 40
1.0
 40
1.0
 40
1.0
 10
75.5125395459
 20
64.3204295416
 30
0.0
 10
75.5203323794
 20
64.2692268548
 30
0.0
 10
75.5295854777
 20
64.1581892088
 30
0.0
 10
75.5336274666
 20
64.0186761088
 30
0.0
 10
75.5311367548
 20
63.9060411713
 30
0.0
 10
75.5263833113
 20
63.8328024837
 30
0.0
 10
75.5183716598
 20
63.7749836112
 30
0.0
 10
75.5100110427
 20
63.741787826
 30
0.0
 10
75.5034526104
 20
63.7298786141
 30
0.0
  0
SPLINE
  5
41F
100
AcDbEntity
  8
0
100
AcDbSpline
 62
7
  6
CONTINUOUS
 70
0
 71
3
 72
15
 73
11
 74
0
 42
0.0000001
 43
0.0000001
 44
0.0000000001
 40
0.0
 40
0.0
 40
0.0
 40
0.0
 40
0.3598934841
 40
0.5288768226
 40
0.6780761733
 40
0.7997191041
 40
0.8921599146
 40
0.9278547527
 40
0.9570428859
 40
1.0
 40
1.0
 40
1.0
 40
1.0
 10
75.9835467921
 20
53.6704125888
 30
0.0
 10
75.9859332728
 20
53.5673327175
 30
0.0
 10
75.9937263236
 20
53.4158477259
 30
0.0
 10
76.0152205358
 20
53.2227353437
 30
0.0
 10
76.0360036445
 20
53.0983202406
 30
0.0
 10
76.0627991876
 20
52.9975776714
 30
0.0
 10
76.0901321151
 20
52.9310346626
 30
0.0
 10
76.1147750863
 20
52.8929570358
 30
0.0
 10
76.1351118882
 20
52.870022172
 30
0.0
 10
76.155345021
 20
52.8591140128
 30
0.0
 10
76.1676486996
 20
52.8593988646
 30
0.0
  0
SPLINE
  5
420
100
AcDbEntity
  8
0
100
AcDbSpline
 62
7
  6
CONTINUOUS
 70
0
 71
3
 72
9
 73
5
 74
0
 42
0.0000001
 43
0.0000001
 44
0.0000000001
 40
0.0
 40
0.0
 40
0.0
 40
0.0
 40
0.4267370929
 40
1.0
 40
1.0
 40
1.0
 40
1.0
 10
76.5999159485
 20
63.7394546381
 30
0.0
 10
76.5772300595
 20
63.7117841722
 30
0.0
 10
76.5429399455
 20
63.6323575201
 30
0.0
 10
76.5323945584
 20
63.5488646772
 30
0.0
 10
76.5293021469
 20
63.500896921
 30
0.0
  0
SPLINE
  5
421
100
AcDbEntity
  8
0
100
AcDbSpline
 62
7
  6
CONTINUOUS
 70
0
 71
3
 72
9
 73
5
 74
0
 42
0.0000001
 43
0.0000001
 44
0.0000000001
 40
0.0
 40
0.0
 40
0.0
 40
0.0
 40
0.235424157
 40
1.0
 40
1.0
 40
1.0
 40
1.0
 10
76.5293021469
 20
63.500896921
 30
0.0
 10
76.5287442824
 20
63.4922436388
 30
0.0
 10
76.5268550964
 20
63.4554567146
 30
0.0
 10
76.5267507482
 20
63.4185900238
 30
0.0
 10
76.5274025548
 20
63.3904363749
 30
0.0
  0
SPLINE
  5
422
100
AcDbEntity
  8
0
100
AcDbSpline
 62
7
  6
CONTINUOUS
 70
0
 71
3
 72
9
 73
5
 74
0
 42
0.0000001
 43
0.0000001
 44
0.0000000001
 40
0.0
 40
0.0
 40
0.0
 40
0.0
 40
0.244370693
 40
1.0
 40
1.0
 40
1.0
 40
1.0
 10
76.0067723831
 20
54.3439481945
 30
0.0
 10
76.0015219066
 20
54.2892845602
 30
0.0
 10
75.9835887529
 20
54.0652592076
 30
0.0
 10
75.9796165434
 20
53.8401728248
 30
0.0
 10
75.9835467921
 20
53.6704125888
 30
0.0
  0
SPLINE
  5
423
100
AcDbEntity
  8
0
100
AcDbSpline
 62
7
  6
CONTINUOUS
 70
0
 71
3
 72
9
 73
5
 74
0
 42
0.0000001
 43
0.0000001
 44
0.0000000001
 40
0.0
 40
0.0
 40
0.0
 40
0.0
 40
0.2681288231
 40
1.0
 40
1.0
 40
1.0
 40
1.0
 10
76.5274025548
 20
63.3904363749
 30
0.0
 10
76.5277541318
 20
63.3752506169
 30
0.0
 10
76.5297685153
 20
63.3186394104
 30
0.0
 10
76.5347190443
 20
63.2620851408
 30
0.0
 10
76.5407408965
 20
63.221063377
 30
0.0
  0
SPLINE
  5
424
100
AcDbEntity
  8
0
100
AcDbSpline
 62
7
  6
CONTINUOUS
 70
0
 71
3
 72
9
 73
5
 74
0
 42
0.0000001
 43
0.0000001
 44
0.0000000001
 40
0.0
 40
0.0
 40
0.0
 40
0.0
 40
0.269374496
 40
1.0
 40
1.0
 40
1.0
 40
1.0
 10
76.5407408965
 20
63.221063377
 30
0.0
 10
76.5425037097
 20
63.209054828
 30
0.0
 10
76.5498303946
 20
63.1646050575
 30
0.0
 10
76.5604701708
 20
63.1206181296
 30
0.0
 10
76.5709045443
 20
63.0893956406
 30
0.0
  0
SPLINE
  5
425
100
AcDbEntity
  8
0
100
AcDbSpline
 62
7
  6
CONTINUOUS
 70
0
 71
3
 72
9
 73
5
 74
0
 42
0.0000001
 43
0.0000001
 44
0.0000000001
 40
0.0
 40
0.0
 40
0.0
 40
0.0
 40
0.2689309557
 40
1.0
 40
1.0
 40
1.0
 40
1.0
 10
76.5709045443
 20
63.0893956406
 30
0.0
 10
76.5740001384
 20
63.0801327794
 30
0.0
 10
76.5863920162
 20
63.0460090141
 30
0.0
 10
76.6026376349
 20
63.0131451204
 30
0.0
 10
76.6172445668
 20
62.9909752052
 30
0.0
  0
SPLINE
  5
426
100
AcDbEntity
  8
0
100
AcDbSpline
 62
7
  6
CONTINUOUS
 70
0
 71
3
 72
15
 73
11
 74
0
 42
0.0000001
 43
0.0000001
 44
0.0000000001
 40
0.0
 40
0.0
 40
0.0
 40
0.0
 40
0.3534716184
 40
0.5206765866
 40
0.6700953231
 40
0.7942247295
 40
0.8899585402
 40
0.9270392506
 40
0.9571469073
 40
1.0
 40
1.0
 40
1.0
 40
1.0
 10
76.2476000116
 20
62.2452822078
 30
0.0
 10
76.2519647153
 20
62.0567564468
 30
0.0
 10
76.2513710693
 20
61.778719887
 30
0.0
 10
76.2305032969
 20
61.4217604592
 30
0.0
 10
76.2046486619
 20
61.1878421287
 30
0.0
 10
76.1658499961
 20
60.9943784112
 30
0.0
 10
76.1229629752
 20
60.8636241436
 30
0.0
 10
76.0819092259
 20
60.7863214986
 30
0.0
 10
76.0478236188
 20
60.7394344683
 30
0.0
 10
76.0116131474
 20
60.7145060733
 30
0.0
 10
75.9887572476
 20
60.7139769189
 30
0.0
  0
SPLINE
  5
427
100
AcDbEntity
  8
0
100
AcDbSpline
 62
7
  6
CONTINUOUS
 70
0
 71
3
 72
9
 73
5
 74
0
 42
0.0000001
 43
0.0000001
 44
0.0000000001
 40
0.0
 40
0.0
 40
0.0
 40
0.0
 40
0.4749172134
 40
1.0
 40
1.0
 40
1.0
 40
1.0
 10
76.144338111
 20
63.4158953539
 30
0.0
 10
76.1795220339
 20
63.2330747194
 30
0.0
 10
76.2243174917
 20
62.842708356
 30
0.0
 10
76.2428357023
 20
62.4510682377
 30
0.0
 10
76.2476000116
 20
62.2452822078
 30
0.0
  0
SPLINE
  5
428
100
AcDbEntity
  8
0
100
AcDbSpline
 62
7
  6
CONTINUOUS
 70
0
 71
3
 72
15
 73
11
 74
0
 42
0.0000001
 43
0.0000001
 44
0.0000000001
 40
0.0
 40
0.0
 40
0.0
 40
0.0
 40
0.3545002352
 40
0.5220167566
 40
0.6714280107
 40
0.7951658141
 40
0.8903519127
 40
0.9271964361
 40
0.9571432924
 40
1.0
 40
1.0
 40
1.0
 40
1.0
 10
76.4499516485
 20
53.5050562926
 30
0.0
 10
76.4543231266
 20
53.3162379205
 30
0.0
 10
76.4536293924
 20
53.0378576745
 30
0.0
 10
76.4324669534
 20
52.6806895692
 30
0.0
 10
76.4063641442
 20
52.4471594726
 30
0.0
 10
76.3672699743
 20
52.2545419877
 30
0.0
 10
76.3240921748
 20
52.1247082225
 30
0.0
 10
76.2828527093
 20
52.048227353
 30
0.0
 10
76.2485302498
 20
52.0018077448
 30
0.0
 10
76.2122868704
 20
51.9774037586
 30
0.0
 10
76.189459992
 20
51.9768752761
 30
0.0
  0
SPLINE
  5
429
100
AcDbEntity
  8
0
100
AcDbSpline
 62
7
  6
CONTINUOUS
 70
0
 71
3
 72
10
 73
6
 74
0
 42
0.0000001
 43
0.0000001
 44
0.0000000001
 40
0.0
 40
0.0
 40
0.0
 40
0.0
 40
0.2046988753
 40
0.452339309
 40
1.0
 40
1.0
 40
1.0
 40
1.0
 10
76.2203731208
 20
58.5783928872
 30
0.0
 10
76.2068301867
 20
58.52330913
 30
0.0
 10
76.1869960724
 20
58.3992102051
 30
0.0
 10
76.1622439237
 20
58.1231927773
 30
0.0
 10
76.1571335204
 20
57.902579023
 30
0.0
 10
76.1573626248
 20
57.750816771
 30
0.0
  0
SPLINE
  5
42A
100
AcDbEntity
  8
0
100
AcDbSpline
 62
7
  6
CONTINUOUS
 70
0
 71
3
 72
9
 73
5
 74
0
 42
0.0000001
 43
0.0000001
 44
0.0000000001
 40
0.0
 40
0.0
 40
0.0
 40
0.0
 40
0.5783563076
 40
1.0
 40
1.0
 40
1.0
 40
1.0
 10
75.8444608958
 20
59.1460282543
 30
0.0
 10
75.8470749032
 20
59.0331207636
 30
0.0
 10
75.8710416964
 20
58.8381902943
 30
0.0
 10
75.922529538
 20
58.6489046225
 30
0.0
 10
75.952429253
 20
58.5721895143
 30
0.0
  0
SPLINE
  5
42B
100
AcDbEntity
  8
0
100
AcDbSpline
 62
7
  6
CONTINUOUS
 70
0
 71
3
 72
14
 73
10
 74
0
 42
0.0000001
 43
0.0000001
 44
0.0000000001
 40
0.0
 40
0.0
 40
0.0
 40
0.0
 40
0.0435801696
 40
0.093798957
 40
0.170217413
 40
0.2862299397
 40
0.4362359236
 40
0.6114007894
 40
1.0
 40
1.0
 40
1.0
 40
1.0
 10
75.9493440164
 20
59.560837358
 30
0.0
 10
75.9427728434
 20
59.5606852237
 30
0.0
 10
75.9283129006
 20
59.5596690919
 30
0.0
 10
75.9060312733
 20
59.5445706836
 30
0.0
 10
75.888872046
 20
59.5112955072
 30
0.0
 10
75.8737302296
 20
59.4620220012
 30
0.0
 10
75.8605031335
 20
59.3966424026
 30
0.0
 10
75.8465833874
 20
59.2898878384
 30
0.0
 10
75.8431043328
 20
59.2046226258
 30
0.0
 10
75.8444608958
 20
59.1460282543
 30
0.0
  0
SPLINE
  5
42C
100
AcDbEntity
  8
0
100
AcDbSpline
 62
7
  6
CONTINUOUS
 70
0
 71
3
 72
9
 73
5
 74
0
 42
0.0000001
 43
0.0000001
 44
0.0000000001
 40
0.0
 40
0.0
 40
0.0
 40
0.0
 40
0.2243032468
 40
1.0
 40
1.0
 40
1.0
 40
1.0
 10
75.8748867181
 20
62.7258178825
 30
0.0
 10
75.8660402913
 20
62.7136974334
 30
0.0
 10
75.8301181147
 20
62.657071939
 30
0.0
 10
75.8078590787
 20
62.5927313122
 30
0.0
 10
75.795338321
 20
62.5423717561
 30
0.0
  0
SPLINE
  5
42D
100
AcDbEntity
  8
0
100
AcDbSpline
 62
7
  6
CONTINUOUS
 70
0
 71
3
 72
9
 73
5
 74
0
 42
0.0000001
 43
0.0000001
 44
0.0000000001
 40
0.0
 40
0.0
 40
0.0
 40
0.0
 40
0.4518250793
 40
1.0
 40
1.0
 40
1.0
 40
1.0
 10
75.795338321
 20
62.5423717561
 30
0.0
 10
75.7811317364
 20
62.4852316603
 30
0.0
 10
75.7627790436
 20
62.3555542242
 30
0.0
 10
75.7606631468
 20
62.2250643037
 30
0.0
 10
75.7623165623
 20
62.1536479021
 30
0.0
  0
SPLINE
  5
42E
100
AcDbEntity
  8
0
100
AcDbSpline
 62
7
  6
CONTINUOUS
 70
0
 71
3
 72
9
 73
5
 74
0
 42
0.0000001
 43
0.0000001
 44
0.0000000001
 40
0.0
 40
0.0
 40
0.0
 40
0.0
 40
0.2581981291
 40
1.0
 40
1.0
 40
1.0
 40
1.0
 10
75.7623165623
 20
62.1536479021
 30
0.0
 10
75.7625373235
 20
62.1441125093
 30
0.0
 10
75.7635944764
 20
62.1071872182
 30
0.0
 10
75.7654820251
 20
62.0702835496
 30
0.0
 10
75.7674368792
 20
62.0429508926
 30
0.0
  0
SPLINE
  5
42F
100
AcDbEntity
  8
0
100
AcDbSpline
 62
7
  6
CONTINUOUS
 70
0
 71
3
 72
9
 73
5
 74
0
 42
0.0000001
 43
0.0000001
 44
0.0000000001
 40
0.0
 40
0.0
 40
0.0
 40
0.0
 40
0.5628609676
 40
1.0
 40
1.0
 40
1.0
 40
1.0
 10
75.7674368792
 20
62.0429508926
 30
0.0
 10
75.7730630822
 20
61.9642856432
 30
0.0
 10
75.7905976957
 20
61.8248998869
 30
0.0
 10
75.8364440896
 20
61.6901883591
 30
0.0
 10
75.8668389231
 20
61.637011559
 30
0.0
  0
SPLINE
  5
430
100
AcDbEntity
  8
0
100
AcDbSpline
 62
7
  6
CONTINUOUS
 70
0
 71
3
 72
9
 73
5
 74
0
 42
0.0000001
 43
0.0000001
 44
0.0000000001
 40
0.0
 40
0.0
 40
0.0
 40
0.0
 40
0.2585623703
 40
1.0
 40
1.0
 40
1.0
 40
1.0
 10
75.8668389231
 20
61.637011559
 30
0.0
 10
75.8694746726
 20
61.6324002252
 30
0.0
 10
75.879977906
 20
61.614746121
 30
0.0
 10
75.891768384
 20
61.5978439723
 30
0.0
 10
75.9012767678
 20
61.5859457297
 30
0.0
  0
SPLINE
  5
431
100
AcDbEntity
  8
0
100
AcDbSpline
 62
7
  6
CONTINUOUS
 70
0
 71
3
 72
9
 73
5
 74
0
 42
0.0000001
 43
0.0000001
 44
0.0000000001
 40
0.0
 40
0.0
 40
0.0
 40
0.0
 40
0.4491995818
 40
1.0
 40
1.0
 40
1.0
 40
1.0
 10
75.8679647213
 20
60.9816339146
 30
0.0
 10
75.8903520492
 20
61.0652057897
 30
0.0
 10
75.9234232914
 20
61.2556141612
 30
0.0
 10
75.9392636913
 20
61.4476389783
 30
0.0
 10
75.9454355739
 20
61.5535467165
 30
0.0
  0
SPLINE
  5
432
100
AcDbEntity
  8
0
100
AcDbSpline
 62
7
  6
CONTINUOUS
 70
0
 71
3
 72
9
 73
5
 74
0
 42
0.0000001
 43
0.0000001
 44
0.0000000001
 40
0.0
 40
0.0
 40
0.0
 40
0.0
 40
0.5731440751
 40
1.0
 40
1.0
 40
1.0
 40
1.0
 10
75.9269597893
 20
56.1018326146
 30
0.0
 10
75.9294394061
 20
55.9947298905
 30
0.0
 10
75.9517609917
 20
55.8080983593
 30
0.0
 10
75.9996079386
 20
55.6266899439
 30
0.0
 10
76.0269883405
 20
55.5517476668
 30
0.0
  0
SPLINE
  5
433
100
AcDbEntity
  8
0
100
AcDbSpline
 62
7
  6
CONTINUOUS
 70
0
 71
3
 72
14
 73
10
 74
0
 42
0.0000001
 43
0.0000001
 44
0.0000000001
 40
0.0
 40
0.0
 40
0.0
 40
0.0
 40
0.0444649764
 40
0.0945117961
 40
0.1694411132
 40
0.2835771365
 40
0.4320791946
 40
0.6067535804
 40
1.0
 40
1.0
 40
1.0
 40
1.0
 10
76.0427234256
 20
56.5317984143
 30
0.0
 10
76.0357202532
 20
56.5316362785
 30
0.0
 10
76.0205586252
 20
56.530999669
 30
0.0
 10
75.9965365322
 20
56.5166972127
 30
0.0
 10
75.9775517184
 20
56.4830022928
 30
0.0
 10
75.9607189629
 20
56.4326893358
 30
0.0
 10
75.945713047
 20
56.3652494569
 30
0.0
 10
75.9296109613
 20
56.2535294233
 30
0.0
 10
75.9255258671
 20
56.1637683832
 30
0.0
 10
75.9269597893
 20
56.1018326146
 30
0.0
  0
SPLINE
  5
434
100
AcDbEntity
  8
0
100
AcDbSpline
 62
7
  6
CONTINUOUS
 70
0
 71
3
 72
18
 73
14
 74
0
 42
0.0000001
 43
0.0000001
 44
0.0000000001
 40
0.0
 40
0.0
 40
0.0
 40
0.0
 40
0.0229065528
 40
0.0504471515
 40
0.0847515427
 40
0.1258434948
 40
0.1725896156
 40
0.2242474648
 40
0.2807564044
 40
0.3421904529
 40
0.4799416576
 40
0.6375284471
 40
1.0
 40
1.0
 40
1.0
 40
1.0
 10
74.7323324191
 20
42.2435366803
 30
0.0
 10
74.6874178043
 20
42.2332823358
 30
0.0
 10
74.5832938068
 20
42.2330447299
 30
0.0
 10
74.4191993759
 20
42.2829519765
 30
0.0
 10
74.2316110564
 20
42.3714764843
 30
0.0
 10
74.0208736213
 20
42.4985480327
 30
0.0
 10
73.7967860111
 20
42.6682765855
 30
0.0
 10
73.5696504627
 20
42.8823771751
 30
0.0
 10
73.3460923899
 20
43.1407716936
 30
0.0
 10
73.0488338038
 20
43.5612926781
 30
0.0
 10
72.7200065078
 20
44.2035482757
 30
0.0
 10
72.3052592158
 20
45.4637224862
 30
0.0
 10
72.1743911185
 20
46.5123393298
 30
0.0
 10
72.1391665762
 20
47.2405010555
 30
0.0
  0
SPLINE
  5
435
100
AcDbEntity
  8
0
100
AcDbSpline
 62
7
  6
CONTINUOUS
 70
0
 71
3
 72
9
 73
5
 74
0
 42
0.0000001
 43
0.0000001
 44
0.0000000001
 40
0.0
 40
0.0
 40
0.0
 40
0.0
 40
0.2236076103
 40
1.0
 40
1.0
 40
1.0
 40
1.0
 10
76.3764111951
 20
67.063104236
 30
0.0
 10
76.3783693076
 20
67.0693413797
 30
0.0
 10
76.386528248
 20
67.0974221771
 30
0.0
 10
76.392751597
 20
67.1260348926
 30
0.0
 10
76.3969573519
 20
67.1483401028
 30
0.0
  0
SPLINE
  5
436
100
AcDbEntity
  8
0
100
AcDbSpline
 62
7
  6
CONTINUOUS
 70
0
 71
3
 72
9
 73
5
 74
0
 42
0.0000001
 43
0.0000001
 44
0.0000000001
 40
0.0
 40
0.0
 40
0.0
 40
0.0
 40
0.2337451431
 40
1.0
 40
1.0
 40
1.0
 40
1.0
 10
76.3969573519
 20
67.1483401028
 30
0.0
 10
76.3989663798
 20
67.1589949772
 30
0.0
 10
76.4068986512
 20
67.2047023106
 30
0.0
 10
76.4125081943
 20
67.2507990396
 30
0.0
 10
76.4157634555
 20
67.2861935644
 30
0.0
  0
SPLINE
  5
437
100
AcDbEntity
  8
0
100
AcDbSpline
 62
7
  6
CONTINUOUS
 70
0
 71
3
 72
13
 73
9
 74
0
 42
0.0000001
 43
0.0000001
 44
0.0000000001
 40
0.0
 40
0.0
 40
0.0
 40
0.0
 40
0.0499958156
 40
0.1235190143
 40
0.2237729544
 40
0.3481698074
 40
0.652540278
 40
1.0
 40
1.0
 40
1.0
 40
1.0
 10
75.3912683558
 20
64.648631591
 30
0.0
 10
75.397258141
 20
64.6487700432
 30
0.0
 10
75.4114882064
 20
64.6409228733
 30
0.0
 10
75.4272234193
 20
64.6192276986
 30
0.0
 10
75.4437891097
 20
64.587388086
 30
0.0
 10
75.4667143396
 20
64.5282323581
 30
0.0
 10
75.4915381038
 20
64.438375439
 30
0.0
 10
75.5062620776
 20
64.3615924108
 30
0.0
 10
75.5125395459
 20
64.3204295416
 30
0.0
  0
SPLINE
  5
438
100
AcDbEntity
  8
0
100
AcDbSpline
 62
7
  6
CONTINUOUS
 70
0
 71
3
 72
9
 73
5
 74
0
 42
0.0000001
 43
0.0000001
 44
0.0000000001
 40
0.0
 40
0.0
 40
0.0
 40
0.0
 40
0.5463233387
 40
1.0
 40
1.0
 40
1.0
 40
1.0
 10
75.690234644
 20
66.2025689626
 30
0.0
 10
75.6953209067
 20
66.1536821614
 30
0.0
 10
75.7070554233
 20
66.0644584729
 30
0.0
 10
75.7250946376
 20
65.9761017412
 30
0.0
 10
75.7363330893
 20
65.9368638682
 30
0.0
  0
SPLINE
  5
439
100
AcDbEntity
  8
0
100
AcDbSpline
 62
7
  6
CONTINUOUS
 70
0
 71
3
 72
11
 73
7
 74
0
 42
0.0000001
 43
0.0000001
 44
0.0000000001
 40
0.0
 40
0.0
 40
0.0
 40
0.0
 40
0.3851860211
 40
0.6529856995
 40
0.8442320688
 40
1.0
 40
1.0
 40
1.0
 40
1.0
 10
75.7363330893
 20
65.9368638682
 30
0.0
 10
75.7443988476
 20
65.9087031206
 30
0.0
 10
75.7608335019
 20
65.8615734447
 30
0.0
 10
75.7948593642
 20
65.8061878264
 30
0.0
 10
75.8328696486
 20
65.7765511186
 30
0.0
 10
75.8598157142
 20
65.7715761972
 30
0.0
 10
75.8716585612
 20
65.77185038
 30
0.0
  0
SPLINE
  5
43A
100
AcDbEntity
  8
0
100
AcDbSpline
 62
7
  6
CONTINUOUS
 70
0
 71
3
 72
9
 73
5
 74
0
 42
0.0000001
 43
0.0000001
 44
0.0000000001
 40
0.0
 40
0.0
 40
0.0
 40
0.0
 40
0.4324801377
 40
1.0
 40
1.0
 40
1.0
 40
1.0
 10
75.7413527292
 20
65.0885780117
 30
0.0
 10
75.7620448014
 20
65.1379574948
 30
0.0
 10
75.7974339374
 20
65.2572437879
 30
0.0
 10
75.8183148552
 20
65.3793960184
 30
0.0
 10
75.8279090461
 20
65.4489949995
 30
0.0
  0
SPLINE
  5
43B
100
AcDbEntity
  8
0
100
AcDbSpline
 62
7
  6
CONTINUOUS
 70
0
 71
3
 72
9
 73
5
 74
0
 42
0.0000001
 43
0.0000001
 44
0.0000000001
 40
0.0
 40
0.0
 40
0.0
 40
0.0
 40
0.2360961828
 40
1.0
 40
1.0
 40
1.0
 40
1.0
 10
75.8279090461
 20
65.4489949995
 30
0.0
 10
75.8311882683
 20
65.4727834072
 30
0.0
 10
75.8438660006
 20
65.5737067323
 30
0.0
 10
75.8522742857
 20
65.6751428851
 30
0.0
 10
75.8568670947
 20
65.7527037465
 30
0.0
  0
SPLINE
  5
43C
100
AcDbEntity
  8
0
100
AcDbSpline
 62
7
  6
CONTINUOUS
 70
0
 71
3
 72
9
 73
5
 74
0
 42
0.0000001
 43
0.0000001
 44
0.0000000001
 40
0.0
 40
0.0
 40
0.0
 40
0.0
 40
0.5496459636
 40
1.0
 40
1.0
 40
1.0
 40
1.0
 10
76.208903961
 20
50.8012014832
 30
0.0
 10
76.1992147912
 20
50.9369846833
 30
0.0
 10
76.1757708942
 20
51.1835488239
 30
0.0
 10
76.1292437386
 20
51.427946798
 30
0.0
 10
76.0967290523
 20
51.5346396004
 30
0.0
  0
SPLINE
  5
43D
100
AcDbEntity
  8
0
100
AcDbSpline
 62
7
  6
CONTINUOUS
 70
0
 71
3
 72
9
 73
5
 74
0
 42
0.0000001
 43
0.0000001
 44
0.0000000001
 40
0.0
 40
0.0
 40
0.0
 40
0.0
 40
0.4517012198
 40
1.0
 40
1.0
 40
1.0
 40
1.0
 10
75.8022589037
 20
49.1475026018
 30
0.0
 10
75.8207493883
 20
49.24344068
 30
0.0
 10
75.8505827499
 20
49.4579333114
 30
0.0
 10
75.868282677
 20
49.6735707889
 30
0.0
 10
75.8755777154
 20
49.7919441217
 30
0.0
  0
SPLINE
  5
43E
100
AcDbEntity
  8
0
100
AcDbSpline
 62
7
  6
CONTINUOUS
 70
0
 71
3
 72
11
 73
7
 74
0
 42
0.0000001
 43
0.0000001
 44
0.0000000001
 40
0.0
 40
0.0
 40
0.0
 40
0.0
 40
0.1204934982
 40
0.3455690955
 40
0.6510730656
 40
1.0
 40
1.0
 40
1.0
 40
1.0
 10
76.1997419374
 20
70.7624637426
 30
0.0
 10
76.2048481522
 20
70.7625789559
 30
0.0
 10
76.2156352311
 20
70.7483529431
 30
0.0
 10
76.2249688643
 20
70.7242953928
 30
0.0
 10
76.235430913
 20
70.6876271191
 30
0.0
 10
76.2404727073
 20
70.6605260374
 30
0.0
 10
76.2426733994
 20
70.6459002569
 30
0.0
  0
SPLINE
  5
43F
100
AcDbEntity
  8
0
100
AcDbSpline
 62
7
  6
CONTINUOUS
 70
0
 71
3
 72
9
 73
5
 74
0
 42
0.0000001
 43
0.0000001
 44
0.0000000001
 40
0.0
 40
0.0
 40
0.0
 40
0.0
 40
0.2244736697
 40
1.0
 40
1.0
 40
1.0
 40
1.0
 10
75.7045376145
 20
70.0837502057
 30
0.0
 10
75.6956871129
 20
70.0714488143
 30
0.0
 10
75.6597771126
 20
70.0140955355
 30
0.0
 10
75.6375030117
 20
69.9491312408
 30
0.0
 10
75.6249755884
 20
69.8982956732
 30
0.0
  0
SPLINE
  5
440
100
AcDbEntity
  8
0
100
AcDbSpline
 62
7
  6
CONTINUOUS
 70
0
 71
3
 72
9
 73
5
 74
0
 42
0.0000001
 43
0.0000001
 44
0.0000000001
 40
0.0
 40
0.0
 40
0.0
 40
0.0
 40
0.4522928861
 40
1.0
 40
1.0
 40
1.0
 40
1.0
 10
75.6249755884
 20
69.8982956732
 30
0.0
 10
75.6108157019
 20
69.8408356628
 30
0.0
 10
75.5925048351
 20
69.7106298736
 30
0.0
 10
75.5903923937
 20
69.5796124149
 30
0.0
 10
75.5920510791
 20
69.5079683931
 30
0.0
  0
SPLINE
  5
441
100
AcDbEntity
  8
0
100
AcDbSpline
 62
7
  6
CONTINUOUS
 70
0
 71
3
 72
9
 73
5
 74
0
 42
0.0000001
 43
0.0000001
 44
0.0000000001
 40
0.0
 40
0.0
 40
0.0
 40
0.0
 40
0.2582236264
 40
1.0
 40
1.0
 40
1.0
 40
1.0
 10
75.5920510791
 20
69.5079683931
 30
0.0
 10
75.5922716019
 20
69.4984432941
 30
0.0
 10
75.5933277677
 20
69.4615615156
 30
0.0
 10
75.595214461
 20
69.4247013582
 30
0.0
 10
75.59716902
 20
69.3974019904
 30
0.0
  0
SPLINE
  5
442
100
AcDbEntity
  8
0
100
AcDbSpline
 62
7
  6
CONTINUOUS
 70
0
 71
3
 72
9
 73
5
 74
0
 42
0.0000001
 43
0.0000001
 44
0.0000000001
 40
0.0
 40
0.0
 40
0.0
 40
0.0
 40
0.5630942504
 40
1.0
 40
1.0
 40
1.0
 40
1.0
 10
75.59716902
 20
69.3974019904
 30
0.0
 10
75.6027911081
 20
69.3188781675
 30
0.0
 10
75.6203019437
 20
69.1798027615
 30
0.0
 10
75.6661526058
 20
69.0454033239
 30
0.0
 10
75.6965585021
 20
68.9924261538
 30
0.0
  0
SPLINE
  5
443
100
AcDbEntity
  8
0
100
AcDbSpline
 62
7
  6
CONTINUOUS
 70
0
 71
3
 72
9
 73
5
 74
0
 42
0.0000001
 43
0.0000001
 44
0.0000000001
 40
0.0
 40
0.0
 40
0.0
 40
0.0
 40
0.2585794079
 40
1.0
 40
1.0
 40
1.0
 40
1.0
 10
75.6965585021
 20
68.9924261538
 30
0.0
 10
75.6991929721
 20
68.9878360322
 30
0.0
 10
75.7096906323
 20
68.970265923
 30
0.0
 10
75.7214759743
 20
68.9534511581
 30
0.0
 10
75.7309799176
 20
68.9416210577
 30
0.0
  0
SPLINE
  5
444
100
AcDbEntity
  8
0
100
AcDbSpline
 62
7
  6
CONTINUOUS
 70
0
 71
3
 72
11
 73
7
 74
0
 42
0.0000001
 43
0.0000001
 44
0.0000000001
 40
0.0
 40
0.0
 40
0.0
 40
0.0
 40
0.2403249596
 40
0.4963031691
 40
0.7544783729
 40
1.0
 40
1.0
 40
1.0
 40
1.0
 10
80.0560617415
 20
43.5398622897
 30
0.0
 10
80.1584894745
 20
43.5663290815
 30
0.0
 10
80.3623411118
 20
43.6574161555
 30
0.0
 10
80.6066372823
 20
43.8922767864
 30
0.0
 10
80.7572276022
 20
44.1981909501
 30
0.0
 10
80.7852285294
 20
44.4226233463
 30
0.0
 10
80.7815235829
 20
44.5306393431
 30
0.0
  0
SPLINE
  5
445
100
AcDbEntity
  8
0
100
AcDbSpline
 62
7
  6
CONTINUOUS
 70
0
 71
3
 72
9
 73
5
 74
0
 42
0.0000001
 43
0.0000001
 44
0.0000000001
 40
0.0
 40
0.0
 40
0.0
 40
0.0
 40
0.4491547704
 40
1.0
 40
1.0
 40
1.0
 40
1.0
 10
75.6976454539
 20
68.3376311277
 30
0.0
 10
75.7200610224
 20
68.421273996
 30
0.0
 10
75.7531608525
 20
68.6118704121
 30
0.0
 10
75.7690056588
 20
68.8040835069
 30
0.0
 10
75.7751763552
 20
68.910103784
 30
0.0
  0
SPLINE
  5
446
100
AcDbEntity
  8
0
100
AcDbSpline
 62
7
  6
CONTINUOUS
 70
0
 71
3
 72
11
 73
7
 74
0
 42
0.0000001
 43
0.0000001
 44
0.0000000001
 40
0.0
 40
0.0
 40
0.0
 40
0.0
 40
0.3789748202
 40
0.6564869326
 40
0.8527032086
 40
1.0
 40
1.0
 40
1.0
 40
1.0
 10
77.0592630079
 20
55.1804303688
 30
0.0
 10
77.0503518253
 20
55.1345754099
 30
0.0
 10
77.03109528
 20
55.0556200903
 30
0.0
 10
76.9891488319
 20
54.9586892629
 30
0.0
 10
76.9405159171
 20
54.897272235
 30
0.0
 10
76.898491083
 20
54.8804619652
 30
0.0
 10
76.8803400029
 20
54.8800416093
 30
0.0
  0
SPLINE
  5
447
100
AcDbEntity
  8
0
100
AcDbSpline
 62
7
  6
CONTINUOUS
 70
0
 71
3
 72
9
 73
5
 74
0
 42
0.0000001
 43
0.0000001
 44
0.0000000001
 40
0.0
 40
0.0
 40
0.0
 40
0.0
 40
0.2333004811
 40
1.0
 40
1.0
 40
1.0
 40
1.0
 10
76.9959544334
 20
57.3029654051
 30
0.0
 10
77.0013500046
 20
57.2680560392
 30
0.0
 10
77.0234159546
 20
57.1182597521
 30
0.0
 10
77.0412714478
 20
56.9678566458
 30
0.0
 10
77.0531182691
 20
56.852377255
 30
0.0
  0
SPLINE
  5
448
100
AcDbEntity
  8
0
100
AcDbSpline
 62
7
  6
CONTINUOUS
 70
0
 71
3
 72
9
 73
5
 74
0
 42
0.0000001
 43
0.0000001
 44
0.0000000001
 40
0.0
 40
0.0
 40
0.0
 40
0.0
 40
0.2681771154
 40
1.0
 40
1.0
 40
1.0
 40
1.0
 10
77.107673716
 20
55.8924304231
 30
0.0
 10
77.1079216042
 20
55.8452952249
 30
0.0
 10
77.1071126637
 20
55.6695574821
 30
0.0
 10
77.0994206646
 20
55.493638559
 30
0.0
 10
77.0860141921
 20
55.3657110938
 30
0.0
  0
SPLINE
  5
449
100
AcDbEntity
  8
0
100
AcDbSpline
 62
7
  6
CONTINUOUS
 70
0
 71
3
 72
9
 73
5
 74
0
 42
0.0000001
 43
0.0000001
 44
0.0000000001
 40
0.0
 40
0.0
 40
0.0
 40
0.0
 40
0.2652505155
 40
1.0
 40
1.0
 40
1.0
 40
1.0
 10
77.0860141921
 20
55.3657110938
 30
0.0
 10
77.0842887705
 20
55.349246747
 30
0.0
 10
77.0772520071
 20
55.2872367677
 30
0.0
 10
77.0679889192
 20
55.2254488348
 30
0.0
 10
77.0592630079
 20
55.1804303688
 30
0.0
  0
LINE
  5
44A
100
AcDbEntity
  8
0
100
AcDbLine
 62
7
  6
CONTINUOUS
 10
40.7551988389
 20
89.7016094619
 11
40.7330081352
 21
89.6987461844
  0
SPLINE
  5
44B
100
AcDbEntity
  8
0
100
AcDbSpline
 62
7
  6
CONTINUOUS
 70
0
 71
3
 72
16
 73
12
 74
0
 42
0.0000001
 43
0.0000001
 44
0.0000000001
 40
0.0
 40
0.0
 40
0.0
 40
0.0
 40
0.0208296065
 40
0.0850359328
 40
0.1574124733
 40
0.2523377022
 40
0.3735952613
 40
0.5217844518
 40
0.6983042159
 40
0.9040110874
 40
1.0
 40
1.0
 40
1.0
 40
1.0
 10
40.7330081352
 20
89.6987461844
 30
0.0
 10
40.6870860793
 20
89.6928159129
 30
0.0
 10
40.4996271783
 20
89.668483179
 30
0.0
 10
40.1527356282
 20
89.6225327564
 30
0.0
 10
39.6428198524
 20
89.5530076012
 30
0.0
 10
39.0076231021
 20
89.463607281
 30
0.0
 10
38.2061474004
 20
89.3464909811
 30
0.0
 10
37.2260650019
 20
89.1973145516
 30
0.0
 10
36.0615553044
 20
89.012395837
 30
0.0
 10
35.0128708875
 20
88.8381517459
 30
0.0
 10
34.3519065081
 20
88.7245190253
 30
0.0
 10
34.1416770676
 20
88.6879860713
 30
0.0
  0
LINE
  5
44C
100
AcDbEntity
  8
0
100
AcDbLine
 62
7
  6
CONTINUOUS
 10
34.1416770676
 20
88.6879860713
 11
33.9303067095
 21
88.651123072
  0
SPLINE
  5
44D
100
AcDbEntity
  8
0
100
AcDbSpline
 62
7
  6
CONTINUOUS
 70
0
 71
3
 72
11
 73
7
 74
0
 42
0.0000001
 43
0.0000001
 44
0.0000000001
 40
0.0
 40
0.0
 40
0.0
 40
0.0
 40
0.1127678196
 40
0.3917587382
 40
0.703016895
 40
1.0
 40
1.0
 40
1.0
 40
1.0
 10
33.9303067095
 20
88.651123072
 30
0.0
 10
33.6954050668
 20
88.6100095519
 30
0.0
 10
32.8796398417
 20
88.4655295585
 30
0.0
 10
31.4176194959
 20
88.1958511022
 30
0.0
 10
29.5762709198
 20
87.8349197557
 30
0.0
 10
28.3184230448
 20
87.5667547915
 30
0.0
 10
27.7053401015
 20
87.4300675543
 30
0.0
  0
LINE
  5
44E
100
AcDbEntity
  8
0
100
AcDbLine
 62
7
  6
CONTINUOUS
 10
27.7053401015
 20
87.4300675543
 11
27.664030847
 21
87.4208485508
  0
SPLINE
  5
44F
100
AcDbEntity
  8
0
100
AcDbSpline
 62
7
  6
CONTINUOUS
 70
0
 71
3
 72
8
 73
4
 74
0
 42
0.0000001
 43
0.0000001
 44
0.0000000001
 40
0.0
 40
0.0
 40
0.0
 40
0.0
 40
1.0
 40
1.0
 40
1.0
 40
1.0
 10
27.1271263625
 20
87.299289362
 30
0.0
 10
26.516304238
 20
87.158899499
 30
0.0
 10
25.9072491086
 20
87.0104934224
 30
0.0
 10
25.3040990763
 20
86.8410417164
 30
0.0
  0
SPLINE
  5
450
100
AcDbEntity
  8
0
100
AcDbSpline
 62
7
  6
CONTINUOUS
 70
0
 71
3
 72
20
 73
16
 74
0
 42
0.0000001
 43
0.0000001
 44
0.0000000001
 40
0.0
 40
0.0
 40
0.0
 40
0.0
 40
0.079743735
 40
0.2036297586
 40
0.30993798
 40
0.3991842429
 40
0.4722110539
 40
0.5293793393
 40
0.5729677801
 40
0.6116357468
 40
0.6553471466
 40
0.7128677601
 40
0.786137403
 40
0.8810800201
 40
1.0
 40
1.0
 40
1.0
 40
1.0
 10
33.9310581727
 20
88.6468997471
 30
0.0
 10
34.2209869257
 20
88.6976922384
 30
0.0
 10
34.9616603194
 20
88.8255445041
 30
0.0
 10
36.0902144811
 20
89.0130593474
 30
0.0
 10
37.2547241786
 20
89.197978062
 30
0.0
 10
38.2348065771
 20
89.3471544915
 30
0.0
 10
39.0362822788
 20
89.4642707915
 30
0.0
 10
39.6714790291
 20
89.5536711117
 30
0.0
 10
40.1813948049
 20
89.6231962669
 30
0.0
 10
40.6423308107
 20
89.684253402
 30
0.0
 10
41.1545294059
 20
89.7499095289
 30
0.0
 10
41.7938513878
 20
89.8282541735
 30
0.0
 10
42.6217884277
 20
89.9222461156
 30
0.0
 10
43.6764311708
 20
90.0258909582
 30
0.0
 10
44.4644206967
 20
90.0832900285
 30
0.0
 10
44.9032502301
 20
90.09345043
 30
0.0
  0
SPLINE
  5
451
100
AcDbEntity
  8
0
100
AcDbSpline
 62
7
  6
CONTINUOUS
 70
0
 71
3
 72
9
 73
5
 74
0
 42
0.0000001
 43
0.0000001
 44
0.0000000001
 40
0.0
 40
0.0
 40
0.0
 40
0.0
 40
0.9218128513
 40
1.0
 40
1.0
 40
1.0
 40
1.0
 10
25.0552113922
 20
86.7631642806
 30
0.0
 10
25.8477610162
 20
86.9953164019
 30
0.0
 10
26.7198447165
 20
87.2037740649
 30
0.0
 10
27.5941304933
 20
87.4002833657
 30
0.0
 10
27.6625018521
 20
87.4155759481
 30
0.0
  0
LINE
  5
452
100
AcDbEntity
  8
0
100
AcDbLine
 62
7
  6
CONTINUOUS
 10
27.6625018521
 20
87.4155759481
 11
27.7063716175
 21
87.4253780026
  0
SPLINE
  5
453
100
AcDbEntity
  8
0
100
AcDbSpline
 62
7
  6
CONTINUOUS
 70
0
 71
3
 72
9
 73
5
 74
0
 42
0.0000001
 43
0.0000001
 44
0.0000000001
 40
0.0
 40
0.0
 40
0.0
 40
0.0
 40
0.4995364669
 40
1.0
 40
1.0
 40
1.0
 40
1.0
 10
46.1680182717
 20
46.5842137596
 30
0.0
 10
46.2480928579
 20
46.5009876245
 30
0.0
 10
46.4259346411
 20
46.3501415551
 30
0.0
 10
46.6350730715
 20
46.2449497247
 30
0.0
 10
46.7444820973
 20
46.2072967218
 30
0.0
  0
LINE
  5
454
100
AcDbEntity
  8
0
100
AcDbLine
 62
7
  6
CONTINUOUS
 10
28.804893085
 20
39.976744826
 11
28.7606152476
 21
39.9845063951
  0
SPLINE
  5
455
100
AcDbEntity
  8
0
100
AcDbSpline
 62
7
  6
CONTINUOUS
 70
0
 71
3
 72
9
 73
5
 74
0
 42
0.0000001
 43
0.0000001
 44
0.0000000001
 40
0.0
 40
0.0
 40
0.0
 40
0.0
 40
0.0781873324
 40
1.0
 40
1.0
 40
1.0
 40
1.0
 10
28.7606152476
 20
39.9845063951
 30
0.0
 10
28.6916092471
 20
39.996618484
 30
0.0
 10
27.8091658346
 20
40.1524564401
 30
0.0
 10
26.9283691851
 20
40.3203318707
 30
0.0
 10
26.1259250226
 20
40.5155570742
 30
0.0
  0
SPLINE
  5
456
100
AcDbEntity
  8
0
100
AcDbSpline
 62
7
  6
CONTINUOUS
 70
0
 71
3
 72
20
 73
16
 74
0
 42
0.0000001
 43
0.0000001
 44
0.0000000001
 40
0.0
 40
0.0
 40
0.0
 40
0.0
 40
0.118919983
 40
0.213862605
 40
0.2871322517
 40
0.3446528682
 40
0.3883642703
 40
0.427032239
 40
0.4706206821
 40
0.5277889704
 40
0.6008157852
 40
0.6900620528
 40
0.7963702797
 40
0.9202563097
 40
1.0
 40
1.0
 40
1.0
 40
1.0
 10
46.1068193759
 20
38.1073809372
 30
0.0
 10
45.6679898205
 20
38.0972219848
 30
0.0
 10
44.8781882292
 20
38.1180924092
 30
0.0
 10
43.819878927
 20
38.1728186864
 30
0.0
 10
42.9884791402
 20
38.2283940559
 30
0.0
 10
42.3462164597
 20
38.2770677565
 30
0.0
 10
41.8315281699
 20
38.3189496419
 30
0.0
 10
41.3682603806
 20
38.35860983
 30
0.0
 10
40.8556734106
 20
38.4044622442
 30
0.0
 10
40.2170198993
 20
38.4643706853
 30
0.0
 10
39.4109829334
 20
38.5442702333
 30
0.0
 10
38.4250469343
 20
38.6479298713
 30
0.0
 10
37.2532271306
 20
38.7787584396
 30
0.0
 10
36.1172043725
 20
38.9138443098
 30
0.0
 10
35.3714079012
 20
39.0072821502
 30
0.0
 10
35.079439355
 20
39.0446026653
 30
0.0
  0
LINE
  5
457
100
AcDbEntity
  8
0
100
AcDbLine
 62
7
  6
CONTINUOUS
 10
26.1246132998
 20
40.5093324629
 11
26.1711812521
 21
40.4980982765
  0
SPLINE
  5
458
100
AcDbEntity
  8
0
100
AcDbSpline
 62
7
  6
CONTINUOUS
 70
0
 71
3
 72
8
 73
4
 74
0
 42
0.0000001
 43
0.0000001
 44
0.0000000001
 40
0.0
 40
0.0
 40
0.0
 40
0.0
 40
1.0
 40
1.0
 40
1.0
 40
1.0
 10
26.3956011775
 20
40.4452463805
 30
0.0
 10
26.9643832738
 20
40.3139126834
 30
0.0
 10
27.5374117512
 20
40.2009586818
 30
0.0
 10
28.1118305388
 20
40.0957008857
 30
0.0
  0
LINE
  5
459
100
AcDbEntity
  8
0
100
AcDbLine
 62
7
  6
CONTINUOUS
 10
28.7621537077
 20
39.9793515609
 11
28.8040744264
 21
39.9720140255
  0
SPLINE
  5
45A
100
AcDbEntity
  8
0
100
AcDbSpline
 62
7
  6
CONTINUOUS
 70
0
 71
3
 72
10
 73
6
 74
0
 42
0.0000001
 43
0.0000001
 44
0.0000000001
 40
0.0
 40
0.0
 40
0.0
 40
0.0
 40
0.4260358453
 40
0.8725484541
 40
1.0
 40
1.0
 40
1.0
 40
1.0
 10
28.8040744264
 20
39.9720140255
 30
0.0
 10
29.4228282076
 20
39.8638455443
 30
0.0
 10
30.6917407208
 20
39.6541791248
 30
0.0
 10
32.1500385082
 20
39.437856332
 30
0.0
 10
32.987909964
 20
39.3200347069
 30
0.0
 10
33.1740051114
 20
39.2941805749
 30
0.0
  0
SPLINE
  5
45B
100
AcDbEntity
  8
0
100
AcDbSpline
 62
7
  6
CONTINUOUS
 70
0
 71
3
 72
14
 73
10
 74
0
 42
0.0000001
 43
0.0000001
 44
0.0000000001
 40
0.0
 40
0.0
 40
0.0
 40
0.0
 40
0.0593200538
 40
0.3247800221
 40
0.5419957833
 40
0.7120409003
 40
0.8416932325
 40
0.9567097818
 40
1.0
 40
1.0
 40
1.0
 40
1.0
 10
38.2395850028
 20
38.6655219132
 30
0.0
 10
38.3127605502
 20
38.6575144779
 30
0.0
 10
38.7134285024
 20
38.6139335816
 30
0.0
 10
39.3823264591
 20
38.5436067854
 30
0.0
 10
40.188363425
 20
38.4637072374
 30
0.0
 10
40.8270169363
 20
38.4037987963
 30
0.0
 10
41.3396039062
 20
38.3579463821
 30
0.0
 10
41.6956402592
 20
38.3274662385
 30
0.0
 10
41.8914176704
 20
38.3112417
 30
0.0
 10
41.9449578672
 20
38.3068457534
 30
0.0
  0
SPLINE
  5
45C
100
AcDbEntity
  8
0
100
AcDbSpline
 62
7
  6
CONTINUOUS
 70
0
 71
3
 72
10
 73
6
 74
0
 42
0.0000001
 43
0.0000001
 44
0.0000000001
 40
0.0
 40
0.0
 40
0.0
 40
0.0
 40
0.3390056683
 40
0.663758799
 40
1.0
 40
1.0
 40
1.0
 40
1.0
 10
26.1715902911
 20
40.4995706953
 30
0.0
 10
26.0859576572
 20
40.5199747347
 30
0.0
 10
26.0848948593
 20
40.5200075746
 30
0.0
 10
26.2022530601
 20
40.4916134264
 30
0.0
 10
26.1232534945
 20
40.5104350352
 30
0.0
 10
26.1033512838
 20
40.5152552627
 30
0.0
  0
SPLINE
  5
45D
100
AcDbEntity
  8
0
100
AcDbSpline
 62
7
  6
CONTINUOUS
 70
0
 71
3
 72
8
 73
4
 74
0
 42
0.0000001
 43
0.0000001
 44
0.0000000001
 40
0.0
 40
0.0
 40
0.0
 40
0.0
 40
1.0
 40
1.0
 40
1.0
 40
1.0
 10
46.7444820973
 20
46.2072967218
 30
0.0
 10
46.8817260975
 20
46.1600643412
 30
0.0
 10
47.0294744403
 20
46.1359858359
 30
0.0
 10
47.1745796695
 20
46.1393452777
 30
0.0
  0
SPLINE
  5
45E
100
AcDbEntity
  8
0
100
AcDbSpline
 62
7
  6
CONTINUOUS
 70
0
 71
3
 72
11
 73
7
 74
0
 42
0.0000001
 43
0.0000001
 44
0.0000000001
 40
0.0
 40
0.0
 40
0.0
 40
0.0
 40
0.3010551288
 40
0.6124213031
 40
0.8915090414
 40
1.0
 40
1.0
 40
1.0
 40
1.0
 10
28.8069678811
 20
39.9769923084
 30
0.0
 10
29.4339639359
 20
39.8672220663
 30
0.0
 10
30.7111284675
 20
39.656051038
 30
0.0
 10
32.5755077379
 20
39.3794904246
 30
0.0
 10
34.0394024268
 20
39.1789993764
 30
0.0
 10
34.8519233146
 20
39.073536828
 30
0.0
 10
35.0794209262
 20
39.0444584853
 30
0.0
  0
SPLINE
  5
45F
100
AcDbEntity
  8
0
100
AcDbSpline
 62
7
  6
CONTINUOUS
 70
0
 71
3
 72
11
 73
7
 74
0
 42
0.0000001
 43
0.0000001
 44
0.0000000001
 40
0.0
 40
0.0
 40
0.0
 40
0.0
 40
0.1084984244
 40
0.3875860065
 40
0.6989520067
 40
1.0
 40
1.0
 40
1.0
 40
1.0
 10
33.9310318299
 20
88.6470501197
 30
0.0
 10
33.7051079924
 20
88.6074719497
 30
0.0
 10
32.898322652
 20
88.464517305
 30
0.0
 10
31.4452592516
 20
88.1964910113
 30
0.0
 10
29.5956908659
 20
87.8339484614
 30
0.0
 10
28.3296818075
 20
87.5639014602
 30
0.0
 10
27.7084518893
 20
87.4252357378
 30
0.0
  0
SPLINE
  5
460
100
AcDbEntity
  8
0
100
AcDbSpline
 62
7
  6
CONTINUOUS
 70
0
 71
3
 72
11
 73
7
 74
0
 42
0.0000001
 43
0.0000001
 44
0.0000000001
 40
0.0
 40
0.0
 40
0.0
 40
0.0
 40
0.2505179015
 40
0.5006162709
 40
0.750387609
 40
1.0
 40
1.0
 40
1.0
 40
1.0
 10
45.91508347
 20
82.0317233845
 30
0.0
 10
45.7710687833
 20
81.9745777942
 30
0.0
 10
45.5026571498
 20
81.8068308493
 30
0.0
 10
45.1968070221
 20
81.4507394645
 30
0.0
 10
44.987902522
 20
81.0325444265
 30
0.0
 10
44.9111259648
 20
80.7308234328
 30
0.0
 10
44.8878833638
 20
80.5782049453
 30
0.0
  0
SPLINE
  5
461
100
AcDbEntity
  8
0
100
AcDbSpline
 62
7
  6
CONTINUOUS
 70
0
 71
3
 72
8
 73
4
 74
0
 42
0.0000001
 43
0.0000001
 44
0.0000000001
 40
0.0
 40
0.0
 40
0.0
 40
0.0
 40
1.0
 40
1.0
 40
1.0
 40
1.0
 10
46.3415755152
 20
82.1195063882
 30
0.0
 10
46.1964702861
 20
82.1161469464
 30
0.0
 10
46.0499945683
 20
82.0852566354
 30
0.0
 10
45.91508347
 20
82.0317233845
 30
0.0
  0
SPLINE
  5
462
100
AcDbEntity
  8
0
100
AcDbSpline
 62
7
  6
CONTINUOUS
 70
0
 71
3
 72
10
 73
6
 74
0
 42
0.0000001
 43
0.0000001
 44
0.0000000001
 40
0.0
 40
0.0
 40
0.0
 40
0.0
 40
0.53569623
 40
0.7776624788
 40
1.0
 40
1.0
 40
1.0
 40
1.0
 10
15.8807475298
 20
77.9630501423
 30
0.0
 10
15.5523794337
 20
77.7584477794
 30
0.0
 10
15.0573981568
 20
77.4864656159
 30
0.0
 10
14.3802080488
 20
77.2325101115
 30
0.0
 10
14.0532027649
 20
77.1524365383
 30
0.0
 10
13.8945961725
 20
77.1273489093
 30
0.0
  0
SPLINE
  5
463
100
AcDbEntity
  8
0
100
AcDbSpline
 62
7
  6
CONTINUOUS
 70
0
 71
3
 72
20
 73
16
 74
0
 42
0.0000001
 43
0.0000001
 44
0.0000000001
 40
0.0
 40
0.0
 40
0.0
 40
0.0
 40
0.0497883451
 40
0.0957446664
 40
0.1380923821
 40
0.1778355323
 40
0.2172774346
 40
0.2598573295
 40
0.308849144
 40
0.3659692851
 40
0.4311826074
 40
0.5032901721
 40
0.6614113535
 40
0.8292232794
 40
1.0
 40
1.0
 40
1.0
 40
1.0
 10
13.8945961725
 20
77.1273489093
 30
0.0
 10
13.7928225886
 20
77.1112508526
 30
0.0
 10
13.5951342948
 20
77.0907389291
 30
0.0
 10
13.308343222
 20
77.1023765787
 30
0.0
 10
13.0483143753
 20
77.1635769321
 30
0.0
 10
12.8230795549
 20
77.2835631479
 30
0.0
 10
12.6475411978
 20
77.4713495271
 30
0.0
 10
12.5389052753
 20
77.7250086197
 30
0.0
 10
12.5037634349
 20
78.0339772747
 30
0.0
 10
12.5398596445
 20
78.3886289494
 30
0.0
 10
12.6426494211
 20
78.7789367961
 30
0.0
 10
12.8671335678
 20
79.3487638671
 30
0.0
 10
13.2731212431
 20
80.0696603833
 30
0.0
 10
13.8833177403
 20
80.898890951
 30
0.0
 10
14.3525681368
 20
81.4208839461
 30
0.0
 10
14.5997686601
 20
81.6734782957
 30
0.0
  0
SPLINE
  5
464
100
AcDbEntity
  8
0
100
AcDbSpline
 62
7
  6
CONTINUOUS
 70
0
 71
3
 72
9
 73
5
 74
0
 42
0.0000001
 43
0.0000001
 44
0.0000000001
 40
0.0
 40
0.0
 40
0.0
 40
0.0
 40
0.499969824
 40
1.0
 40
1.0
 40
1.0
 40
1.0
 10
14.5997644047
 20
81.6734827652
 30
0.0
 10
15.3691882726
 20
82.4596960003
 30
0.0
 10
17.0829682549
 20
83.8704436647
 30
0.0
 10
19.0626810702
 20
84.8754895267
 30
0.0
 10
20.0922460843
 20
85.2633456793
 30
0.0
  0
SPLINE
  5
465
100
AcDbEntity
  8
0
100
AcDbSpline
 62
7
  6
CONTINUOUS
 70
0
 71
3
 72
24
 73
20
 74
0
 42
0.0000001
 43
0.0000001
 44
0.0000000001
 40
0.0
 40
0.0
 40
0.0
 40
0.0
 40
0.1907624146
 40
0.3799456008
 40
0.4709138647
 40
0.5577935354
 40
0.6393064361
 40
0.7141746326
 40
0.781254957
 40
0.8399420964
 40
0.8897657356
 40
0.9302569615
 40
0.9611050953
 40
0.9730021359
 40
0.9826278973
 40
0.9900455424
 40
0.9953250566
 40
0.9985601212
 40
1.0
 40
1.0
 40
1.0
 40
1.0
 10
36.3179920849
 20
47.1445472308
 30
0.0
 10
36.2503295513
 20
46.6274595905
 30
0.0
 10
36.1136779634
 20
45.5978110514
 30
0.0
 10
35.9392903847
 20
44.3223140345
 30
0.0
 10
35.799607537
 20
43.3287139296
 30
0.0
 10
35.6989714463
 20
42.6268648422
 30
0.0
 10
35.6025315542
 20
41.9688805779
 30
0.0
 10
35.5116975181
 20
41.3647835769
 30
0.0
 10
35.4275811753
 20
40.822781461
 30
0.0
 10
35.351240121
 20
40.3488704333
 30
0.0
 10
35.2834965214
 20
39.9471925997
 30
0.0
 10
35.2250895156
 20
39.6211792233
 30
0.0
 10
35.1814453058
 20
39.3977673527
 30
0.0
 10
35.1509597939
 20
39.2579773203
 30
0.0
 10
35.1323850226
 20
39.1808528988
 30
0.0
 10
35.1167613271
 20
39.1223993123
 30
0.0
 10
35.1024659886
 20
39.0799251791
 30
0.0
 10
35.0930824843
 20
39.0568011275
 30
0.0
 10
35.0833457671
 20
39.0441186576
 30
0.0
 10
35.0794400248
 20
39.0446078712
 30
0.0
  0
SPLINE
  5
466
100
AcDbEntity
  8
0
100
AcDbSpline
 62
7
  6
CONTINUOUS
 70
0
 71
3
 72
13
 73
9
 74
0
 42
0.0000001
 43
0.0000001
 44
0.0000000001
 40
0.0
 40
0.0
 40
0.0
 40
0.0
 40
0.077233836
 40
0.1724156377
 40
0.2845389472
 40
0.411320508
 40
0.6967975144
 40
1.0
 40
1.0
 40
1.0
 40
1.0
 10
29.1962442423
 20
42.4206368154
 30
0.0
 10
29.3434301766
 20
42.5491964427
 30
0.0
 10
29.6639750865
 20
42.8453654712
 30
0.0
 10
30.1764673877
 20
43.3511471246
 30
0.0
 10
30.7630656035
 20
43.9599488624
 30
0.0
 10
31.6650752499
 20
44.9331254828
 30
0.0
 10
32.8627128895
 20
46.2910525036
 30
0.0
 10
33.821587087
 20
47.4310790863
 30
0.0
 10
34.3092593219
 20
48.0233357586
 30
0.0
  0
SPLINE
  5
467
100
AcDbEntity
  8
0
100
AcDbSpline
 62
7
  6
CONTINUOUS
 70
0
 71
3
 72
9
 73
5
 74
0
 42
0.0000001
 43
0.0000001
 44
0.0000000001
 40
0.0
 40
0.0
 40
0.0
 40
0.0
 40
0.4965123973
 40
1.0
 40
1.0
 40
1.0
 40
1.0
 10
16.4836784821
 20
52.9520115329
 30
0.0
 10
16.4095247843
 20
52.2808951225
 30
0.0
 10
16.3427818841
 20
50.9189540393
 30
0.0
 10
16.4496858269
 20
49.5582677386
 30
0.0
 10
16.5541018112
 20
48.8815901905
 30
0.0
  0
SPLINE
  5
468
100
AcDbEntity
  8
0
100
AcDbSpline
 62
7
  6
CONTINUOUS
 70
0
 71
3
 72
11
 73
7
 74
0
 42
0.0000001
 43
0.0000001
 44
0.0000000001
 40
0.0
 40
0.0
 40
0.0
 40
0.0
 40
0.2281590983
 40
0.4734623868
 40
0.7327044288
 40
1.0
 40
1.0
 40
1.0
 40
1.0
 10
16.7095389768
 20
48.7915657085
 30
0.0
 10
17.0527466401
 20
48.5876222999
 30
0.0
 10
17.7344956212
 20
48.1124067296
 30
0.0
 10
18.7040136829
 20
47.2713027165
 30
0.0
 10
19.6579537279
 20
46.314224615
 30
0.0
 10
20.2812813198
 20
45.6356610376
 30
0.0
 10
20.5957287199
 20
45.2894303065
 30
0.0
  0
SPLINE
  5
469
100
AcDbEntity
  8
0
100
AcDbSpline
 62
7
  6
CONTINUOUS
 70
0
 71
3
 72
11
 73
7
 74
0
 42
0.0000001
 43
0.0000001
 44
0.0000000001
 40
0.0
 40
0.0
 40
0.0
 40
0.0
 40
0.2447987285
 40
0.4913585944
 40
0.7423601826
 40
1.0
 40
1.0
 40
1.0
 40
1.0
 10
35.0794400186
 20
39.0446078562
 30
0.0
 10
34.5174265207
 20
39.1164668573
 30
0.0
 10
33.4004343448
 20
39.3726854388
 30
0.0
 10
31.8244273785
 20
40.0834069251
 30
0.0
 10
30.3908748159
 20
41.1016667339
 30
0.0
 10
29.5705383546
 20
41.9566271831
 30
0.0
 10
29.1961050708
 20
42.4207229618
 30
0.0
  0
SPLINE
  5
46A
100
AcDbEntity
  8
0
100
AcDbSpline
 62
7
  6
CONTINUOUS
 70
0
 71
3
 72
11
 73
7
 74
0
 42
0.0000001
 43
0.0000001
 44
0.0000000001
 40
0.0
 40
0.0
 40
0.0
 40
0.0
 40
0.2369378166
 40
0.4853655118
 40
0.7412596772
 40
1.0
 40
1.0
 40
1.0
 40
1.0
 10
29.1961050708
 20
42.4207229618
 30
0.0
 10
28.7330093982
 20
42.9943548533
 30
0.0
 10
27.8935160449
 20
44.2600637053
 30
0.0
 10
26.9288774429
 20
46.3636345775
 30
0.0
 10
26.2555869671
 20
48.6487216252
 30
0.0
 10
26.0223178367
 20
50.2387223763
 30
0.0
 10
25.9567546759
 20
51.0411188667
 30
0.0
  0
SPLINE
  5
46B
100
AcDbEntity
  8
0
100
AcDbSpline
 62
7
  6
CONTINUOUS
 70
0
 71
3
 72
10
 73
6
 74
0
 42
0.0000001
 43
0.0000001
 44
0.0000000001
 40
0.0
 40
0.0
 40
0.0
 40
0.0
 40
0.2669776934
 40
0.5250345314
 40
1.0
 40
1.0
 40
1.0
 40
1.0
 10
20.4834980701
 20
51.9792838803
 30
0.0
 10
20.4058235881
 20
51.258456625
 30
0.0
 10
20.3446587946
 20
49.8279564472
 30
0.0
 10
20.5988576245
 20
47.1216189206
 30
0.0
 10
21.2194175489
 20
45.1784601916
 30
0.0
 10
21.8465900714
 20
44.051402022
 30
0.0
  0
SPLINE
  5
46C
100
AcDbEntity
  8
0
100
AcDbSpline
 62
7
  6
CONTINUOUS
 70
0
 71
3
 72
9
 73
5
 74
0
 42
0.0000001
 43
0.0000001
 44
0.0000000001
 40
0.0
 40
0.0
 40
0.0
 40
0.0
 40
0.2504815589
 40
1.0
 40
1.0
 40
1.0
 40
1.0
 10
21.8466659709
 20
44.0514104972
 30
0.0
 10
22.0897371775
 20
43.835142638
 30
0.0
 10
23.0876526834
 20
43.0028020865
 30
0.0
 10
24.1834353565
 20
42.2906115411
 30
0.0
 10
25.0367697437
 20
41.8219527963
 30
0.0
  0
SPLINE
  5
46D
100
AcDbEntity
  8
0
100
AcDbSpline
 62
7
  6
CONTINUOUS
 70
0
 71
3
 72
9
 73
5
 74
0
 42
0.0000001
 43
0.0000001
 44
0.0000000001
 40
0.0
 40
0.0
 40
0.0
 40
0.0
 40
0.2501891813
 40
1.0
 40
1.0
 40
1.0
 40
1.0
 10
25.5497308479
 20
41.5500006625
 30
0.0
 10
25.810785394
 20
41.4164601014
 30
0.0
 10
26.8658889776
 20
40.9057559083
 30
0.0
 10
27.9642885219
 20
40.4851843247
 30
0.0
 10
28.8024283778
 20
40.2209779607
 30
0.0
  0
SPLINE
  5
46E
100
AcDbEntity
  8
0
100
AcDbSpline
 62
7
  6
CONTINUOUS
 70
0
 71
3
 72
9
 73
5
 74
0
 42
0.0000001
 43
0.0000001
 44
0.0000000001
 40
0.0
 40
0.0
 40
0.0
 40
0.0
 40
0.5000009383
 40
1.0
 40
1.0
 40
1.0
 40
1.0
 10
15.7167147617
 20
45.405940174
 30
0.0
 10
16.5998992495
 20
44.5845767193
 30
0.0
 10
18.5727029483
 20
43.1493924935
 30
0.0
 10
20.8382605708
 20
42.2440314805
 30
0.0
 10
22.0039781653
 20
41.934605665
 30
0.0
  0
SPLINE
  5
46F
100
AcDbEntity
  8
0
100
AcDbSpline
 62
7
  6
CONTINUOUS
 70
0
 71
3
 72
20
 73
16
 74
0
 42
0.0000001
 43
0.0000001
 44
0.0000000001
 40
0.0
 40
0.0
 40
0.0
 40
0.0
 40
0.0476220548
 40
0.0918681915
 40
0.1328629472
 40
0.1721323896
 40
0.2127415558
 40
0.2580414483
 40
0.3105023079
 40
0.3707220316
 40
0.4380898482
 40
0.5111008471
 40
0.6681029753
 40
0.8327784091
 40
1.0
 40
1.0
 40
1.0
 40
1.0
 10
14.5035868701
 20
49.3789259895
 30
0.0
 10
14.4184503309
 20
49.3769549286
 30
0.0
 10
14.2541249833
 20
49.3634405244
 30
0.0
 10
14.0221680609
 20
49.3062105038
 30
0.0
 10
13.8206185631
 20
49.2060649716
 30
0.0
 10
13.6603627771
 20
49.0553258398
 30
0.0
 10
13.5570920803
 20
48.8518852299
 30
0.0
 10
13.5185444612
 20
48.6041126054
 30
0.0
 10
13.5456374941
 20
48.3207744252
 30
0.0
 10
13.6337613977
 20
48.0097760458
 30
0.0
 10
13.7778097187
 20
47.6803679068
 30
0.0
 10
14.0381285516
 20
47.2159532092
 30
0.0
 10
14.4564518113
 20
46.6442588173
 30
0.0
 10
15.0494828084
 20
46.0008111582
 30
0.0
 10
15.4845652048
 20
45.5954258358
 30
0.0
 10
15.7158822304
 20
45.4059208995
 30
0.0
  0
SPLINE
  5
470
100
AcDbEntity
  8
0
100
AcDbSpline
 62
7
  6
CONTINUOUS
 70
0
 71
3
 72
9
 73
5
 74
0
 42
0.0000001
 43
0.0000001
 44
0.0000000001
 40
0.0
 40
0.0
 40
0.0
 40
0.0
 40
0.7497615901
 40
1.0
 40
1.0
 40
1.0
 40
1.0
 10
26.2206260537
 20
40.9042230205
 30
0.0
 10
26.659716222
 20
40.7973969572
 30
0.0
 10
27.2493452903
 20
40.6711534429
 30
0.0
 10
27.8413057849
 20
40.5578445088
 30
0.0
 10
27.9895582486
 20
40.530110331
 30
0.0
  0
SPLINE
  5
471
100
AcDbEntity
  8
0
100
AcDbSpline
 62
7
  6
CONTINUOUS
 70
0
 71
3
 72
9
 73
5
 74
0
 42
0.0000001
 43
0.0000001
 44
0.0000000001
 40
0.0
 40
0.0
 40
0.0
 40
0.0
 40
0.2639435337
 40
1.0
 40
1.0
 40
1.0
 40
1.0
 10
14.3894066426
 20
81.657660626
 30
0.0
 10
14.3918327503
 20
81.6647947125
 30
0.0
 10
14.4022951741
 20
81.691350292
 30
0.0
 10
14.418763513
 20
81.7157231889
 30
0.0
 10
14.4338251871
 20
81.7303765567
 30
0.0
  0
SPLINE
  5
472
100
AcDbEntity
  8
0
100
AcDbSpline
 62
7
  6
CONTINUOUS
 70
0
 71
3
 72
9
 73
5
 74
0
 42
0.0000001
 43
0.0000001
 44
0.0000000001
 40
0.0
 40
0.0
 40
0.0
 40
0.0
 40
0.500031963
 40
1.0
 40
1.0
 40
1.0
 40
1.0
 10
21.9059439048
 20
41.546812445
 30
0.0
 10
20.7074238289
 20
41.8628502316
 30
0.0
 10
18.3802884418
 20
42.7968205697
 30
0.0
 10
16.3530262049
 20
44.2712370958
 30
0.0
 10
15.4461326505
 20
45.1159154609
 30
0.0
  0
SPLINE
  5
473
100
AcDbEntity
  8
0
100
AcDbSpline
 62
7
  6
CONTINUOUS
 70
0
 71
3
 72
20
 73
16
 74
0
 42
0.0000001
 43
0.0000001
 44
0.0000000001
 40
0.0
 40
0.0
 40
0.0
 40
0.0
 40
0.1720777996
 40
0.3404356943
 40
0.4982572825
 40
0.5701112186
 40
0.6350791465
 40
0.6921223908
 40
0.7411990193
 40
0.7839205567
 40
0.8232778994
 40
0.8627128041
 40
0.9046699003
 40
0.9503197657
 40
1.0
 40
1.0
 40
1.0
 40
1.0
 10
15.446137236
 20
45.1159199583
 30
0.0
 10
15.1866821045
 20
45.3560898143
 30
0.0
 10
14.6958628789
 20
45.8561687418
 30
0.0
 10
14.0498323922
 20
46.6522474112
 30
0.0
 10
13.6138531312
 20
47.3482707647
 30
0.0
 10
13.3636256188
 20
47.9005577007
 30
0.0
 10
13.2416075159
 20
48.2809200501
 30
0.0
 10
13.1857860989
 20
48.6298022068
 30
0.0
 10
13.2004963457
 20
48.9381408668
 30
0.0
 10
13.2877957066
 20
49.1977779375
 30
0.0
 10
13.444835053
 20
49.3981701533
 30
0.0
 10
13.6561181009
 20
49.5352449143
 30
0.0
 10
13.9069684707
 20
49.615279456
 30
0.0
 10
14.1886449527
 20
49.6464547493
 30
0.0
 10
14.3849958268
 20
49.6387153783
 30
0.0
 10
14.4866155007
 20
49.6291051594
 30
0.0
  0
SPLINE
  5
474
100
AcDbEntity
  8
0
100
AcDbSpline
 62
7
  6
CONTINUOUS
 70
0
 71
3
 72
11
 73
7
 74
0
 42
0.0000001
 43
0.0000001
 44
0.0000000001
 40
0.0
 40
0.0
 40
0.0
 40
0.0
 40
0.2205231129
 40
0.4620792649
 40
0.7223461074
 40
1.0
 40
1.0
 40
1.0
 40
1.0
 10
14.4866155007
 20
49.6291051594
 30
0.0
 10
14.6485291989
 20
49.6137929072
 30
0.0
 10
14.9852086755
 20
49.552164725
 30
0.0
 10
15.4937970879
 20
49.3905697987
 30
0.0
 10
16.023656834
 20
49.1660053379
 30
0.0
 10
16.3764729305
 20
48.9835007276
 30
0.0
 10
16.5540976609
 20
48.8816170869
 30
0.0
  0
SPLINE
  5
475
100
AcDbEntity
  8
0
100
AcDbSpline
 62
7
  6
CONTINUOUS
 70
0
 71
3
 72
12
 73
8
 74
0
 42
0.0000001
 43
0.0000001
 44
0.0000000001
 40
0.0
 40
0.0
 40
0.0
 40
0.0
 40
0.1150309181
 40
0.2375175007
 40
0.4907054325
 40
0.7448644325
 40
1.0
 40
1.0
 40
1.0
 40
1.0
 10
20.4840336077
 20
51.9791411359
 30
0.0
 10
20.6909664023
 20
51.9288705229
 30
0.0
 10
21.1207516673
 20
51.8354247647
 30
0.0
 10
22.0131059345
 20
51.6652269804
 30
0.0
 10
23.162178461
 20
51.4669302563
 30
0.0
 10
24.5562227202
 20
51.245148132
 30
0.0
 10
25.4891968364
 20
51.108979921
 30
0.0
 10
25.9568519259
 20
51.0427561765
 30
0.0
  0
SPLINE
  5
476
100
AcDbEntity
  8
0
100
AcDbSpline
 62
7
  6
CONTINUOUS
 70
0
 71
3
 72
9
 73
5
 74
0
 42
0.0000001
 43
0.0000001
 44
0.0000000001
 40
0.0
 40
0.0
 40
0.0
 40
0.0
 40
0.4999999995
 40
1.0
 40
1.0
 40
1.0
 40
1.0
 10
25.9567545962
 20
51.0411188649
 30
0.0
 10
26.3516492965
 20
55.2308023026
 30
0.0
 10
26.6431250133
 20
63.6637276342
 30
0.0
 10
25.9616968872
 20
72.0741285459
 30
0.0
 10
25.3733322212
 20
76.2410478179
 30
0.0
  0
SPLINE
  5
477
100
AcDbEntity
  8
0
100
AcDbSpline
 62
7
  6
CONTINUOUS
 70
0
 71
3
 72
12
 73
8
 74
0
 42
0.0000001
 43
0.0000001
 44
0.0000000001
 40
0.0
 40
0.0
 40
0.0
 40
0.0
 40
0.2551421077
 40
0.5093105098
 40
0.7624754598
 40
0.8849506924
 40
1.0
 40
1.0
 40
1.0
 40
1.0
 10
25.3735052279
 20
76.239416666
 30
0.0
 10
24.9094036534
 20
76.1516201603
 30
0.0
 10
23.9837027888
 20
75.9724094047
 30
0.0
 10
22.6014212358
 20
75.6863841167
 30
0.0
 10
21.4628136448
 20
75.4350785315
 30
0.0
 10
20.5793010399
 20
75.2238559171
 30
0.0
 10
20.15429049
 20
75.1106008485
 30
0.0
 10
19.9498867646
 20
75.0507512636
 30
0.0
  0
SPLINE
  5
478
100
AcDbEntity
  8
0
100
AcDbSpline
 62
7
  6
CONTINUOUS
 70
0
 71
3
 72
11
 73
7
 74
0
 42
0.0000001
 43
0.0000001
 44
0.0000000001
 40
0.0
 40
0.0
 40
0.0
 40
0.0
 40
0.2352203462
 40
0.4793948794
 40
0.7351685904
 40
1.0
 40
1.0
 40
1.0
 40
1.0
 10
15.9988473322
 20
73.8937836748
 30
0.0
 10
15.6065959647
 20
73.7789128539
 30
0.0
 10
14.8392652742
 20
73.4171149902
 30
0.0
 10
13.8897005998
 20
72.5314657435
 30
0.0
 10
13.250869204
 20
71.3383297619
 30
0.0
 10
13.1126666893
 20
70.4225482166
 30
0.0
 10
13.1232920635
 20
69.9624925122
 30
0.0
  0
SPLINE
  5
479
100
AcDbEntity
  8
0
100
AcDbSpline
 62
7
  6
CONTINUOUS
 70
0
 71
3
 72
11
 73
7
 74
0
 42
0.0000001
 43
0.0000001
 44
0.0000000001
 40
0.0
 40
0.0
 40
0.0
 40
0.0
 40
0.2648336338
 40
0.5206064276
 40
0.7647786492
 40
1.0
 40
1.0
 40
1.0
 40
1.0
 10
13.429276211
 20
56.7460340759
 30
0.0
 10
13.4399540514
 20
56.2859757129
 30
0.0
 10
13.6203904578
 20
55.3775687029
 30
0.0
 10
14.3137564988
 20
54.2152791214
 30
0.0
 10
15.3032866201
 20
53.3745249976
 30
0.0
 10
16.0865373122
 20
53.048628891
 30
0.0
 10
16.4836857929
 20
52.9520320103
 30
0.0
  0
SPLINE
  5
47A
100
AcDbEntity
  8
0
100
AcDbSpline
 62
7
  6
CONTINUOUS
 70
0
 71
3
 72
10
 73
6
 74
0
 42
0.0000001
 43
0.0000001
 44
0.0000000001
 40
0.0
 40
0.0
 40
0.0
 40
0.0
 40
0.2670194006
 40
0.5251026606
 40
1.0
 40
1.0
 40
1.0
 40
1.0
 10
19.9498441255
 20
75.0507385818
 30
0.0
 10
19.8391800748
 20
75.767065525
 30
0.0
 10
19.7121948582
 20
77.1928179415
 30
0.0
 10
19.8404624613
 20
79.9069259302
 30
0.0
 10
20.3688160613
 20
81.8760079624
 30
0.0
 10
20.941780458
 20
83.0307874899
 30
0.0
  0
SPLINE
  5
47B
100
AcDbEntity
  8
0
100
AcDbSpline
 62
7
  6
CONTINUOUS
 70
0
 71
3
 72
8
 73
4
 74
0
 42
0.0000001
 43
0.0000001
 44
0.0000000001
 40
0.0
 40
0.0
 40
0.0
 40
0.0
 40
1.0
 40
1.0
 40
1.0
 40
1.0
 10
46.9837371082
 20
49.951708744
 30
0.0
 10
46.8592202606
 20
49.9383658482
 30
0.0
 10
46.7355371673
 20
49.9054513754
 30
0.0
 10
46.6203781556
 20
49.8562489341
 30
0.0
  0
SPLINE
  5
47C
100
AcDbEntity
  8
0
100
AcDbSpline
 62
7
  6
CONTINUOUS
 70
0
 71
3
 72
11
 73
7
 74
0
 42
0.0000001
 43
0.0000001
 44
0.0000000001
 40
0.0
 40
0.0
 40
0.0
 40
0.0
 40
0.2672993148
 40
0.5265400784
 40
0.7718412711
 40
1.0
 40
1.0
 40
1.0
 40
1.0
 10
19.7518700339
 20
81.7384747363
 30
0.0
 10
19.4537780272
 20
81.3780571479
 30
0.0
 10
18.8625177399
 20
80.6713693268
 30
0.0
 10
17.9538888062
 20
79.6711689396
 30
0.0
 10
17.0243382786
 20
78.7861010088
 30
0.0
 10
16.3653137003
 20
78.2798470034
 30
0.0
 10
16.0319117609
 20
78.0602393268
 30
0.0
  0
SPLINE
  5
47D
100
AcDbEntity
  8
0
100
AcDbSpline
 62
7
  6
CONTINUOUS
 70
0
 71
3
 72
20
 73
16
 74
0
 42
0.0000001
 43
0.0000001
 44
0.0000000001
 40
0.0
 40
0.0
 40
0.0
 40
0.0
 40
0.1672164281
 40
0.3318773606
 40
0.4888866959
 40
0.5619050274
 40
0.6292683887
 40
0.6894897588
 40
0.7419537081
 40
0.7872551237
 40
0.827862254
 40
0.8671362528
 40
0.9081375573
 40
0.9523810517
 40
1.0
 40
1.0
 40
1.0
 40
1.0
 10
14.8826411371
 20
81.396276681
 30
0.0
 10
14.660267151
 20
81.1963708325
 30
0.0
 10
14.2446969657
 20
80.771043187
 30
0.0
 10
13.6819350758
 20
80.1010351481
 30
0.0
 10
13.2903036358
 20
79.5107322988
 30
0.0
 10
13.0517030961
 20
79.0347744581
 30
0.0
 10
12.9231979872
 20
78.698982266
 30
0.0
 10
12.8497818953
 20
78.3841979874
 30
0.0
 10
12.8358040506
 20
78.099911221
 30
0.0
 10
12.8857065508
 20
77.8541808975
 30
0.0
 10
12.9981709425
 20
77.6556588148
 30
0.0
 10
13.1652775198
 20
77.5125136999
 30
0.0
 10
13.3712498721
 20
77.4217959266
 30
0.0
 10
13.6056051588
 20
77.3753483125
 30
0.0
 10
13.7703681434
 20
77.3694537359
 30
0.0
 10
13.8554983541
 20
77.3714246503
 30
0.0
  0
SPLINE
  5
47E
100
AcDbEntity
  8
0
100
AcDbSpline
 62
7
  6
CONTINUOUS
 70
0
 71
3
 72
9
 73
5
 74
0
 42
0.0000001
 43
0.0000001
 44
0.0000000001
 40
0.0
 40
0.0
 40
0.0
 40
0.0
 40
0.4999988978
 40
1.0
 40
1.0
 40
1.0
 40
1.0
 10
21.0029650982
 20
85.1547576652
 30
0.0
 10
19.8528698097
 20
84.7917024046
 30
0.0
 10
17.6317929228
 20
83.7823576774
 30
0.0
 10
15.7275694203
 20
82.2575483155
 30
0.0
 10
14.8833071089
 20
81.3962920994
 30
0.0
  0
SPLINE
  5
47F
100
AcDbEntity
  8
0
100
AcDbSpline
 62
7
  6
CONTINUOUS
 70
0
 71
3
 72
9
 73
5
 74
0
 42
0.0000001
 43
0.0000001
 44
0.0000000001
 40
0.0
 40
0.0
 40
0.0
 40
0.0
 40
0.2728691461
 40
1.0
 40
1.0
 40
1.0
 40
1.0
 10
15.2263122759
 20
45.1497343745
 30
0.0
 10
15.2289809672
 20
45.1396653102
 30
0.0
 10
15.2406764839
 20
45.1033778775
 30
0.0
 10
15.2623374887
 20
45.0697304491
 30
0.0
 10
15.2831107853
 20
45.0513190528
 30
0.0
  0
SPLINE
  5
480
100
AcDbEntity
  8
0
100
AcDbSpline
 62
7
  6
CONTINUOUS
 70
0
 71
3
 72
9
 73
5
 74
0
 42
0.0000001
 43
0.0000001
 44
0.0000000001
 40
0.0
 40
0.0
 40
0.0
 40
0.0
 40
0.250237954
 40
1.0
 40
1.0
 40
1.0
 40
1.0
 10
26.9140226631
 20
86.8340496789
 30
0.0
 10
26.7675068991
 20
86.7995432732
 30
0.0
 10
26.1825988162
 20
86.6591998552
 30
0.0
 10
25.6006122201
 20
86.506077027
 30
0.0
 10
25.167797955
 20
86.3792972879
 30
0.0
  0
SPLINE
  5
481
100
AcDbEntity
  8
0
100
AcDbSpline
 62
7
  6
CONTINUOUS
 70
0
 71
3
 72
9
 73
5
 74
0
 42
0.0000001
 43
0.0000001
 44
0.0000000001
 40
0.0
 40
0.0
 40
0.0
 40
0.0
 40
0.2813894928
 40
1.0
 40
1.0
 40
1.0
 40
1.0
 10
15.5741266669
 20
44.8267617198
 30
0.0
 10
15.5702023697
 20
44.826661181
 30
0.0
 10
15.5562900074
 20
44.8269373337
 30
0.0
 10
15.5421398229
 20
44.8304167219
 30
0.0
 10
15.533469308
 20
44.8354491592
 30
0.0
  0
SPLINE
  5
482
100
AcDbEntity
  8
0
100
AcDbSpline
 62
7
  6
CONTINUOUS
 70
0
 71
3
 72
11
 73
7
 74
0
 42
0.0000001
 43
0.0000001
 44
0.0000000001
 40
0.0
 40
0.0
 40
0.0
 40
0.0
 40
0.2587405419
 40
0.5146348511
 40
0.7630601034
 40
1.0
 40
1.0
 40
1.0
 40
1.0
 10
25.373332301
 20
76.2410478197
 30
0.0
 10
25.401688281
 20
77.0456208248
 30
0.0
 10
25.5611119466
 20
78.6447206483
 30
0.0
 10
26.1279674626
 20
80.9585027652
 30
0.0
 10
26.994142534
 20
83.1044977397
 30
0.0
 10
27.7742065209
 20
84.4076816968
 30
0.0
 10
28.210282433
 20
85.0021227716
 30
0.0
  0
SPLINE
  5
483
100
AcDbEntity
  8
0
100
AcDbSpline
 62
7
  6
CONTINUOUS
 70
0
 71
3
 72
11
 73
7
 74
0
 42
0.0000001
 43
0.0000001
 44
0.0000000001
 40
0.0
 40
0.0
 40
0.0
 40
0.0
 40
0.2576397692
 40
0.5086411311
 40
0.7552007947
 40
1.0
 40
1.0
 40
1.0
 40
1.0
 10
28.210282433
 20
85.0021227716
 30
0.0
 10
28.5628358706
 20
85.4830491584
 30
0.0
 10
29.34272262
 20
86.3750584461
 30
0.0
 10
30.7276112537
 20
87.4585703701
 30
0.0
 10
32.2690356356
 20
88.241466773
 30
0.0
 10
33.3729729534
 20
88.5491030705
 30
0.0
 10
33.9310591038
 20
88.6468944321
 30
0.0
  0
SPLINE
  5
484
100
AcDbEntity
  8
0
100
AcDbSpline
 62
7
  6
CONTINUOUS
 70
0
 71
3
 72
9
 73
5
 74
0
 42
0.0000001
 43
0.0000001
 44
0.0000000001
 40
0.0
 40
0.0
 40
0.0
 40
0.0
 40
0.749816617
 40
1.0
 40
1.0
 40
1.0
 40
1.0
 10
27.7152140648
 20
87.1812913931
 30
0.0
 10
26.8955299639
 20
86.8805398393
 30
0.0
 10
25.8245985569
 20
86.4130958196
 30
0.0
 10
24.8004173075
 20
85.8586731668
 30
0.0
 10
24.5473135268
 20
85.7144233481
 30
0.0
  0
SPLINE
  5
485
100
AcDbEntity
  8
0
100
AcDbSpline
 62
7
  6
CONTINUOUS
 70
0
 71
3
 72
9
 73
5
 74
0
 42
0.0000001
 43
0.0000001
 44
0.0000000001
 40
0.0
 40
0.0
 40
0.0
 40
0.0
 40
0.2499362864
 40
1.0
 40
1.0
 40
1.0
 40
1.0
 10
24.0423600387
 20
85.4166869597
 30
0.0
 10
23.7637686722
 20
85.2467905357
 30
0.0
 10
22.666420958
 20
84.5394893012
 30
0.0
 10
21.6424459427
 20
83.7149761629
 30
0.0
 10
20.9419094043
 20
83.0307235725
 30
0.0
  0
SPLINE
  5
486
100
AcDbEntity
  8
0
100
AcDbSpline
 62
7
  6
CONTINUOUS
 70
0
 71
3
 72
9
 73
5
 74
0
 42
0.0000001
 43
0.0000001
 44
0.0000000001
 40
0.0
 40
0.0
 40
0.0
 40
0.0
 40
0.2712483623
 40
1.0
 40
1.0
 40
1.0
 40
1.0
 10
14.7020851166
 20
81.9674083984
 30
0.0
 10
14.6993692982
 20
81.9670421046
 30
0.0
 10
14.6894317839
 20
81.9652710307
 30
0.0
 10
14.679751598
 20
81.9614992392
 30
0.0
 10
14.673606323
 20
81.9574442897
 30
0.0
  0
SPLINE
  5
487
100
AcDbEntity
  8
0
100
AcDbSpline
 62
7
  6
CONTINUOUS
 70
0
 71
3
 72
9
 73
5
 74
0
 42
0.0000001
 43
0.0000001
 44
0.0000000001
 40
0.0
 40
0.0
 40
0.0
 40
0.0
 40
0.4965123701
 40
1.0
 40
1.0
 40
1.0
 40
1.0
 10
15.998836792
 20
73.8938031701
 30
0.0
 10
15.8937048335
 20
74.5607635331
 30
0.0
 10
15.7640046649
 20
75.9181458949
 30
0.0
 10
15.8078205803
 20
77.2823110431
 30
0.0
 10
15.880806677
 20
77.9630907275
 30
0.0
  0
SPLINE
  5
488
100
AcDbEntity
  8
0
100
AcDbSpline
 62
7
  6
CONTINUOUS
 70
0
 71
3
 72
18
 73
14
 74
0
 42
0.0000001
 43
0.0000001
 44
0.0000000001
 40
0.0
 40
0.0
 40
0.0
 40
0.0
 40
0.2499767895
 40
0.3749694398
 40
0.4999652244
 40
0.6249626697
 40
0.687463487
 40
0.7499691859
 40
0.8124698732
 40
0.8749650365
 40
0.90622466
 40
0.9374970895
 40
1.0
 40
1.0
 40
1.0
 40
1.0
 10
36.3179920046
 20
47.144547242
 30
0.0
 10
37.1148543031
 20
47.0323955198
 30
0.0
 10
38.3114820527
 20
46.87335214
 30
0.0
 10
39.9092983355
 20
46.6799277444
 30
0.0
 10
41.1088995428
 20
46.5450737609
 30
0.0
 10
42.1096734792
 20
46.4427425948
 30
0.0
 10
42.9110204855
 20
46.3681876863
 30
0.0
 10
43.5123698476
 20
46.3158797475
 30
0.0
 10
44.1141744108
 20
46.2691634778
 30
0.0
 10
44.6161723572
 20
46.2371224793
 30
0.0
 10
45.0180245475
 20
46.2143722144
 30
0.0
 10
45.4198850269
 20
46.1924883064
 30
0.0
 10
45.7219620081
 20
46.1836712488
 30
0.0
 10
45.9231162041
 20
46.1882806535
 30
0.0
  0
SPLINE
  5
489
100
AcDbEntity
  8
0
100
AcDbSpline
 62
7
  6
CONTINUOUS
 70
0
 71
3
 72
11
 73
7
 74
0
 42
0.0000001
 43
0.0000001
 44
0.0000000001
 40
0.0
 40
0.0
 40
0.0
 40
0.0
 40
0.2435359451
 40
0.4912535423
 40
0.7442798818
 40
1.0
 40
1.0
 40
1.0
 40
1.0
 10
34.3093303193
 20
48.0234029347
 30
0.0
 10
34.4447480687
 20
47.9043396886
 30
0.0
 10
34.7390565407
 20
47.6873042317
 30
0.0
 10
35.230091417
 20
47.4329123477
 30
0.0
 10
35.7604660671
 20
47.2477433514
 30
0.0
 10
36.1305060736
 20
47.1709626006
 30
0.0
 10
36.3179959974
 20
47.1445749653
 30
0.0
  0
SPLINE
  5
48A
100
AcDbEntity
  8
0
100
AcDbSpline
 62
7
  6
CONTINUOUS
 70
0
 71
3
 72
9
 73
5
 74
0
 42
0.0000001
 43
0.0000001
 44
0.0000000001
 40
0.0
 40
0.0
 40
0.0
 40
0.0
 40
0.250733198
 40
1.0
 40
1.0
 40
1.0
 40
1.0
 10
34.8891741924
 20
63.6495033889
 30
0.0
 10
34.9174288231
 20
62.3424835549
 30
0.0
 10
34.9537821345
 20
57.1283421068
 30
0.0
 10
34.6847373267
 20
51.9119081278
 30
0.0
 10
34.3092480595
 20
48.0233110051
 30
0.0
  0
SPLINE
  5
48B
100
AcDbEntity
  8
0
100
AcDbSpline
 62
7
  6
CONTINUOUS
 70
0
 71
3
 72
9
 73
5
 74
0
 42
0.0000001
 43
0.0000001
 44
0.0000000001
 40
0.0
 40
0.0
 40
0.0
 40
0.0
 40
0.2491092617
 40
1.0
 40
1.0
 40
1.0
 40
1.0
 10
33.577216244
 20
79.642168016
 30
0.0
 10
33.7628800942
 20
78.3486321468
 30
0.0
 10
34.430487834
 20
73.1451107561
 30
0.0
 10
34.7876104538
 20
67.9019167904
 30
0.0
 10
34.8820059569
 20
63.9639803492
 30
0.0
  0
SPLINE
  5
48C
100
AcDbEntity
  8
0
100
AcDbSpline
 62
7
  6
CONTINUOUS
 70
0
 71
3
 72
11
 73
7
 74
0
 42
0.0000001
 43
0.0000001
 44
0.0000000001
 40
0.0
 40
0.0
 40
0.0
 40
0.0
 40
0.2557201344
 40
0.5087465441
 40
0.7564641515
 40
1.0
 40
1.0
 40
1.0
 40
1.0
 10
35.5431454335
 20
80.6129250882
 30
0.0
 10
35.3570775105
 20
80.5778889431
 30
0.0
 10
34.99098714
 20
80.4840653665
 30
0.0
 10
34.4697499319
 20
80.2745496545
 30
0.0
 10
33.9910137043
 20
79.9977063058
 30
0.0
 10
33.7070643901
 20
79.7672834571
 30
0.0
 10
33.5773017561
 20
79.6420809225
 30
0.0
  0
SPLINE
  5
48D
100
AcDbEntity
  8
0
100
AcDbSpline
 62
7
  6
CONTINUOUS
 70
0
 71
3
 72
18
 73
14
 74
0
 42
0.0000001
 43
0.0000001
 44
0.0000000001
 40
0.0
 40
0.0
 40
0.0
 40
0.0
 40
0.0625030565
 40
0.0937753285
 40
0.1250346577
 40
0.187529725
 40
0.2500306621
 40
0.3125363494
 40
0.3750371195
 40
0.5000346372
 40
0.6250304464
 40
0.7500231354
 40
1.0
 40
1.0
 40
1.0
 40
1.0
 10
45.0937175769
 20
82.0127073162
 30
0.0
 10
44.8925650134
 20
82.0080091566
 30
0.0
 10
44.5912245845
 20
81.9851444863
 30
0.0
 10
44.1908064455
 20
81.9447145012
 30
0.0
 10
43.7904335931
 20
81.9034473007
 30
0.0
 10
43.2904551164
 20
81.8482231556
 30
0.0
 10
42.6914599271
 20
81.7736826251
 30
0.0
 10
42.0931743387
 20
81.6936074293
 30
0.0
 10
41.2961383971
 20
81.5820324326
 30
0.0
 10
40.3011724427
 20
81.4334979486
 30
0.0
 10
39.1090957022
 20
81.2432819017
 30
0.0
 10
37.5219440478
 20
80.9761120839
 30
0.0
 10
36.333958491
 20
80.7618618733
 30
0.0
 10
35.5431401747
 20
80.6129525306
 30
0.0
  0
SPLINE
  5
48E
100
AcDbEntity
  8
0
100
AcDbSpline
 62
7
  6
CONTINUOUS
 70
0
 71
3
 72
11
 73
7
 74
0
 42
0.0000001
 43
0.0000001
 44
0.0000000001
 40
0.0
 40
0.0
 40
0.0
 40
0.0
 40
0.2712811921
 40
0.5345181505
 40
0.7802825684
 40
1.0
 40
1.0
 40
1.0
 40
1.0
 10
33.5774465078
 20
79.6422367669
 30
0.0
 10
32.8087702456
 20
79.4051840912
 30
0.0
 10
31.3041621164
 20
78.9048771501
 30
0.0
 10
29.1458778673
 20
78.0685410564
 30
0.0
 10
27.1713512442
 20
77.1892302902
 30
0.0
 10
25.9405450503
 20
76.5618315287
 30
0.0
 10
25.3734862174
 20
76.2410513543
 30
0.0
  0
SPLINE
  5
48F
100
AcDbEntity
  8
0
100
AcDbSpline
 62
7
  6
CONTINUOUS
 70
0
 71
3
 72
11
 73
7
 74
0
 42
0.0000001
 43
0.0000001
 44
0.0000000001
 40
0.0
 40
0.0
 40
0.0
 40
0.0
 40
0.2197180784
 40
0.4654828584
 40
0.7287188675
 40
1.0
 40
1.0
 40
1.0
 40
1.0
 10
25.9569085908
 20
51.041122459
 30
0.0
 10
26.5381936444
 20
50.7469419252
 30
0.0
 10
27.796685395
 20
50.1771972902
 30
0.0
 10
29.8097082782
 20
49.3901565433
 30
0.0
 10
32.0043783706
 20
48.6547896587
 30
0.0
 10
33.5304488067
 20
48.2245576494
 30
0.0
 10
34.3092342695
 20
48.0232766278
 30
0.0
  0
SPLINE
  5
490
100
AcDbEntity
  8
0
100
AcDbSpline
 62
7
  6
CONTINUOUS
 70
0
 71
3
 72
24
 73
20
 74
0
 42
0.0000001
 43
0.0000001
 44
0.0000000001
 40
0.0
 40
0.0
 40
0.0
 40
0.0
 40
0.1907624231
 40
0.3799456171
 40
0.4709138843
 40
0.5577935578
 40
0.6393064603
 40
0.7141746579
 40
0.7812549822
 40
0.8399421204
 40
0.8897657575
 40
0.9302569802
 40
0.96110511
 40
0.9730021483
 40
0.9826279072
 40
0.9900455496
 40
0.9953250611
 40
0.9985601231
 40
1.0
 40
1.0
 40
1.0
 40
1.0
 10
35.5431394629
 20
80.6129523965
 30
0.0
 10
35.4516192388
 20
81.1263546904
 30
0.0
 10
35.2674631827
 20
82.1485759954
 30
0.0
 10
35.0342339972
 20
83.4146359985
 30
0.0
 10
34.8487182043
 20
84.400707203
 30
0.0
 10
34.7157092153
 20
85.0971470047
 30
0.0
 10
34.5889219396
 20
85.7499631703
 30
0.0
 10
34.4702283511
 20
86.3492092345
 30
0.0
 10
34.3611189342
 20
86.8867378228
 30
0.0
 10
34.2629276486
 20
87.356608101
 30
0.0
 10
34.1766674708
 20
87.7547204501
 30
0.0
 10
34.1032355432
 20
88.0776814904
 30
0.0
 10
34.0492988662
 20
88.2988341601
 30
0.0
 10
34.0123767062
 20
88.4370635581
 30
0.0
 10
33.9902526119
 20
88.5132457063
 30
0.0
 10
33.9719405001
 20
88.5709135961
 30
0.0
 10
33.9556948211
 20
88.6126806254
 30
0.0
 10
33.9452512325
 20
88.6353456263
 30
0.0
 10
33.9349380024
 20
88.6475638833
 30
0.0
 10
33.9310590921
 20
88.6468944301
 30
0.0
  0
SPLINE
  5
491
100
AcDbEntity
  8
0
100
AcDbSpline
 62
7
  6
CONTINUOUS
 70
0
 71
3
 72
13
 73
9
 74
0
 42
0.0000001
 43
0.0000001
 44
0.0000000001
 40
0.0
 40
0.0
 40
0.0
 40
0.0
 40
0.0814619811
 40
0.1810828282
 40
0.2969330798
 40
0.4259101643
 40
0.7088827116
 40
1.0
 40
1.0
 40
1.0
 40
1.0
 10
28.2102258326
 20
85.00204352
 30
0.0
 10
28.3715932653
 20
84.8737935344
 30
0.0
 10
28.7219033109
 20
84.5781718707
 30
0.0
 10
29.2796398262
 20
84.0746402674
 30
0.0
 10
29.9116378353
 20
83.4743542858
 30
0.0
 10
30.862227532
 20
82.5362163529
 30
0.0
 10
32.0981683497
 20
81.2563238596
 30
0.0
 10
33.0833531512
 20
80.1886818497
 30
0.0
 10
33.577431439
 20
79.6423339368
 30
0.0
  0
ENDSEC
  0
SECTION
  2
OBJECTS
  0
DICTIONARY
  5
C
100
AcDbDictionary
280
0
281
1
  3
ACAD_GROUP
350
D
  3
ACAD_MLINESTYLE
350
17
  3
ACAD_LAYOUT
350
1A
  3
ACAD_PLOTSETTINGS
350
19
  3
ACAD_PLOTSTYLENAME
350
E
  0
DICTIONARY
  5
D
102
{ACAD_REACTORS
330
C
102
}
100
AcDbDictionary
280
0
281
1
  0
ACDBDICTIONARYWDFLT
  5
E
102
{ACAD_REACTORS
330
C
102
}
100
AcDbDictionary
281
1
  3
Normal
350
F
100
AcDbDictionaryWithDefault
340
F
  0
DICTIONARY
  5
17
102
{ACAD_REACTORS
330
C
102
}
100
AcDbDictionary
280
0
281
1
  3
Standard
350
18
  0
DICTIONARY
  5
19
102
{ACAD_REACTORS
330
C
102
}
100
AcDbDictionary
281
1
  0
DICTIONARY
  5
1A
102
{ACAD_REACTORS
330
C
102
}
100
AcDbDictionary
281
1
  3
Model
350
492
  3
Layout1
350
493
  0
ACDBPLACEHOLDER
  5
F
102
{ACAD_REACTORS
330
E
102
}
  0
MLINESTYLE
  5
18
102
{ACAD_REACTORS
330
17
102
}
100
AcDbMlineStyle
  2
STANDARD
 70
0
  3

 62
256
 51
90.0
 52
90.0
 71
2
 49
0.5
 62
256
  6
BYLAYER
 49
-0.5
 62
256
  6
BYLAYER
  0
LAYOUT
  5
492
102
{ACAD_REACTORS
330
1A
102
}
100
AcDbPlotSettings
  1

  2
none_device
  4

  6

 40
0.0
 41
0.0
 42
0.0
 43
0.0
 44
210.0
 45
297.0
 46
0.0
 47
0.0
 48
0.0
 49
0.0
140
0.0
141
0.0
142
1.0
143
1.0
 70
1024
 72
1
 73
0
 74
0
  7

 75
0
147
1.0
148
0.0
149
0.0
100
AcDbLayout
  1
Model
 70
0
 71
0
 10
0.0
 20
0.0
 11
210.0
 21
297.0
 12
0.0
 22
0.0
 32
0.0
 14
0.0
 24
0.0
 34
0.0
 15
0.0
 25
0.0
 35
0.0
146
0.0
 13
0.0
 23
0.0
 33
0.0
 16
1.0
 26
0.0
 36
0.0
 17
0.0
 27
1.0
 37
0.0
 76
0
330
210
345
0
346
0
  0
LAYOUT
  5
493
102
{ACAD_REACTORS
330
1A
102
}
100
AcDbPlotSettings
  1

  2
none_device
  4

  6

 40
0.0
 41
0.0
 42
0.0
 43
0.0
 44
210.0
 45
297.0
 46
0.0
 47
0.0
 48
0.0
 49
0.0
140
0.0
141
0.0
142
1.0
143
1.0
 70
0
 72
1
 73
0
 74
0
  7

 75
0
147
1.0
148
0.0
149
0.0
100
AcDbLayout
  1
Layout1
 70
0
 71
1
 10
0.0
 20
0.0
 11
210.0
 21
297.0
 12
0.0
 22
0.0
 32
0.0
 14
0.0
 24
0.0
 34
0.0
 15
0.0
 25
0.0
 35
0.0
146
0.0
 13
0.0
 23
0.0
 33
0.0
 16
1.0
 26
0.0
 36
0.0
 17
0.0
 27
1.0
 37
0.0
 76
0
330
211
345
0
346
0
  0
ENDSEC
  0
EOF
